ISO-10303-21;
HEADER;
FILE_DESCRIPTION (( 'STEP AP214' ),
    '1' );
FILE_NAME ('84760.STEP',
    '2023-06-30T23:47:52',
    ( '' ),
    ( '' ),
    'SwSTEP 2.0',
    'SolidWorks 2023',
    '' );
FILE_SCHEMA (( 'AUTOMOTIVE_DESIGN' ));
ENDSEC;

DATA;
#1 = EDGE_CURVE ( 'NONE', #233, #251, #188, .T. ) ;
#2 = EDGE_CURVE ( 'NONE', #251, #258, #289, .T. ) ;
#3 = DIRECTION ( 'NONE',  ( 0.000000000000000000, 0.000000000000000000, -1.000000000000000000 ) ) ;
#4 = VECTOR ( 'NONE', #61, 39.37007874015748143 ) ;
#5 = AXIS2_PLACEMENT_3D ( 'NONE', #244, #38, #160 ) ;
#6 = SURFACE_STYLE_USAGE ( .BOTH. , #101 ) ;
#7 = LENGTH_MEASURE_WITH_UNIT ( LENGTH_MEASURE( 0.02539999999999999897 ), #301 );
#8 = LENGTH_MEASURE_WITH_UNIT ( LENGTH_MEASURE( 0.02539999999999999897 ), #212 );
#9 = PRESENTATION_LAYER_ASSIGNMENT (  '', '', ( #120 ) ) ;
#10 = CARTESIAN_POINT ( 'NONE',  ( 0.1562500000000000000, 0.1562500000000000278, 0.000000000000000000 ) ) ;
#11 = CYLINDRICAL_SURFACE ( 'NONE', #266, 0.1562499999999997224 ) ;
#12 = CARTESIAN_POINT ( 'NONE',  ( 0.1562499999999998335, 4.000000000000000000, 1.913510623667736998E-17 ) ) ;
#13 = SURFACE_STYLE_FILL_AREA ( #351 ) ;
#14 = ADVANCED_FACE ( 'NONE', ( #169 ), #109, .T. ) ;
#15 = SPHERICAL_SURFACE ( 'NONE', #55, 0.1562500000000000000 ) ;
#16 = STYLED_ITEM ( 'NONE', ( #29 ), #147 ) ;
#17 = STYLED_ITEM ( 'NONE', ( #354 ), #209 ) ;
#18 = EDGE_CURVE ( 'NONE', #336, #134, #122, .T. ) ;
#19 = ORIENTED_EDGE ( 'NONE', *, *, #333, .F. ) ;
#20 = CARTESIAN_POINT ( 'NONE',  ( -1.913510623667739463E-17, 0.1562500000000000000, 0.000000000000000000 ) ) ;
#21 = UNCERTAINTY_MEASURE_WITH_UNIT (LENGTH_MEASURE( 1.000000000000000082E-05 ), #133, 'distance_accuracy_value', 'NONE');
#22 = EDGE_LOOP ( 'NONE', ( #30, #165, #54, #221 ) ) ;
#23 = DIRECTION ( 'NONE',  ( 1.000000000000000000, 0.000000000000000000, 0.000000000000000000 ) ) ;
#24 = ORIENTED_EDGE ( 'NONE', *, *, #45, .F. ) ;
#25 = DIRECTION ( 'NONE',  ( 0.000000000000000000, 0.000000000000000000, 1.000000000000000000 ) ) ;
#26 = CARTESIAN_POINT ( 'NONE',  ( 0.000000000000000000, 0.1562500000000000278, 0.000000000000000000 ) ) ;
#27 = SURFACE_STYLE_USAGE ( .BOTH. , #172 ) ;
#28 = PRODUCT ( '84760', '84760', '', ( #130 ) ) ;
#29 = PRESENTATION_STYLE_ASSIGNMENT (( #53 ) ) ;
#30 = ORIENTED_EDGE ( 'NONE', *, *, #136, .T. ) ;
#31 = PRESENTATION_STYLE_ASSIGNMENT (( #27 ) ) ;
#32 =( NAMED_UNIT ( * ) PLANE_ANGLE_UNIT ( ) SI_UNIT ( $, .RADIAN. ) );
#33 = SURFACE_SIDE_STYLE ('',( #295 ) ) ;
#34 =( GEOMETRIC_REPRESENTATION_CONTEXT ( 3 ) GLOBAL_UNCERTAINTY_ASSIGNED_CONTEXT ( ( #69 ) ) GLOBAL_UNIT_ASSIGNED_CONTEXT ( ( #71, #97, #241 ) ) REPRESENTATION_CONTEXT ( 'NONE', 'WORKASPACE' ) );
#35 = LENGTH_MEASURE_WITH_UNIT ( LENGTH_MEASURE( 0.02539999999999999897 ), #92 );
#36 = DIMENSIONAL_EXPONENTS ( 1.000000000000000000, 0.000000000000000000, 0.000000000000000000, 0.000000000000000000, 0.000000000000000000, 0.000000000000000000, 0.000000000000000000 ) ;
#37 = UNCERTAINTY_MEASURE_WITH_UNIT (LENGTH_MEASURE( 1.000000000000000082E-05 ), #370, 'distance_accuracy_value', 'NONE');
#38 = DIRECTION ( 'NONE',  ( 1.725845967062844906E-16, -1.000000000000000000, 0.000000000000000000 ) ) ;
#39 = COLOUR_RGB ( '',1.000000000000000000, 0.000000000000000000, 0.000000000000000000 ) ;
#40 = ADVANCED_FACE ( 'NONE', ( #184 ), #99, .T. ) ;
#41 = LENGTH_MEASURE_WITH_UNIT ( LENGTH_MEASURE( 0.02539999999999999897 ), #298 );
#42 = UNCERTAINTY_MEASURE_WITH_UNIT (LENGTH_MEASURE( 1.000000000000000082E-05 ), #48, 'distance_accuracy_value', 'NONE');
#43 = CARTESIAN_POINT ( 'NONE',  ( -1.913510623667739463E-17, 0.1562500000000000000, 0.000000000000000000 ) ) ;
#44 = DIMENSIONAL_EXPONENTS ( 1.000000000000000000, 0.000000000000000000, 0.000000000000000000, 0.000000000000000000, 0.000000000000000000, 0.000000000000000000, 0.000000000000000000 ) ;
#45 = EDGE_CURVE ( 'NONE', #251, #233, #348, .T. ) ;
#46 = AXIS2_PLACEMENT_3D ( 'NONE', #174, #358, #274 ) ;
#47 = ORIENTED_EDGE ( 'NONE', *, *, #202, .F. ) ;
#48 =( CONVERSION_BASED_UNIT ( 'INCH', #279 ) LENGTH_UNIT ( ) NAMED_UNIT ( #310 ) );
#49 = ORIENTED_EDGE ( 'NONE', *, *, #18, .F. ) ;
#50 = CARTESIAN_POINT ( 'NONE',  ( 0.000000000000000000, 0.000000000000000000, 0.000000000000000000 ) ) ;
#51 = DIRECTION ( 'NONE',  ( -0.000000000000000000, -1.000000000000000000, -0.000000000000000000 ) ) ;
#52 = DIRECTION ( 'NONE',  ( 1.224646799147353207E-16, -0.000000000000000000, 1.000000000000000000 ) ) ;
#53 = SURFACE_STYLE_USAGE ( .BOTH. , #33 ) ;
#54 = ORIENTED_EDGE ( 'NONE', *, *, #256, .F. ) ;
#55 = AXIS2_PLACEMENT_3D ( 'NONE', #43, #25, #81 ) ;
#56 =( NAMED_UNIT ( * ) PLANE_ANGLE_UNIT ( ) SI_UNIT ( $, .RADIAN. ) );
#57 = ORIENTED_EDGE ( 'NONE', *, *, #114, .F. ) ;
#58 =( NAMED_UNIT ( * ) SI_UNIT ( $, .STERADIAN. ) SOLID_ANGLE_UNIT ( ) );
#59 =( GEOMETRIC_REPRESENTATION_CONTEXT ( 3 ) GLOBAL_UNCERTAINTY_ASSIGNED_CONTEXT ( ( #37 ) ) GLOBAL_UNIT_ASSIGNED_CONTEXT ( ( #370, #79, #167 ) ) REPRESENTATION_CONTEXT ( 'NONE', 'WORKASPACE' ) );
#60 = DIRECTION ( 'NONE',  ( 0.000000000000000000, -0.000000000000000000, 1.000000000000000000 ) ) ;
#61 = DIRECTION ( 'NONE',  ( -0.000000000000000000, -1.000000000000000000, -0.000000000000000000 ) ) ;
#62 = DIRECTION ( 'NONE',  ( -1.725845967062844906E-16, 1.000000000000000000, -0.000000000000000000 ) ) ;
#63 = EDGE_CURVE ( 'NONE', #281, #371, #236, .T. ) ;
#64 = SURFACE_STYLE_FILL_AREA ( #325 ) ;
#65 = VECTOR ( 'NONE', #178, 39.37007874015748143 ) ;
#66 = PRODUCT_DEFINITION_SHAPE ( 'NONE', 'NONE',  #359 ) ;
#67 = AXIS2_PLACEMENT_3D ( 'NONE', #194, #161, #141 ) ;
#68 = DIRECTION ( 'NONE',  ( 0.000000000000000000, 0.000000000000000000, -1.000000000000000000 ) ) ;
#69 = UNCERTAINTY_MEASURE_WITH_UNIT (LENGTH_MEASURE( 1.000000000000000082E-05 ), #71, 'distance_accuracy_value', 'NONE');
#70 = CARTESIAN_POINT ( 'NONE',  ( 2.982102745568331467E-16, 1.562500000000000000, 0.000000000000000000 ) ) ;
#71 =( CONVERSION_BASED_UNIT ( 'INCH', #7 ) LENGTH_UNIT ( ) NAMED_UNIT ( #278 ) );
#72 = COLOUR_RGB ( '',0.7921568627450980005, 0.8196078431372548767, 0.9333333333333333481 ) ;
#73 =( GEOMETRIC_REPRESENTATION_CONTEXT ( 3 ) GLOBAL_UNCERTAINTY_ASSIGNED_CONTEXT ( ( #277 ) ) GLOBAL_UNIT_ASSIGNED_CONTEXT ( ( #148, #268, #349 ) ) REPRESENTATION_CONTEXT ( 'NONE', 'WORKASPACE' ) );
#74 = PRESENTATION_STYLE_ASSIGNMENT (( #75 ) ) ;
#75 = SURFACE_STYLE_USAGE ( .BOTH. , #110 ) ;
#76 = CLOSED_SHELL ( 'NONE', ( #220, #311, #14, #40, #147 ) ) ;
#77 = ORIENTED_EDGE ( 'NONE', *, *, #256, .T. ) ;
#78 = PRODUCT_DEFINITION_FORMATION_WITH_SPECIFIED_SOURCE ( 'ANY', '', #28, .NOT_KNOWN. ) ;
#79 =( NAMED_UNIT ( * ) PLANE_ANGLE_UNIT ( ) SI_UNIT ( $, .RADIAN. ) );
#80 = ORIENTED_EDGE ( 'NONE', *, *, #202, .T. ) ;
#81 = DIRECTION ( 'NONE',  ( 1.000000000000000000, 0.000000000000000000, 0.000000000000000000 ) ) ;
#82 = CARTESIAN_POINT ( 'NONE',  ( 0.000000000000000000, 1.562500000000000000, 0.000000000000000000 ) ) ;
#83 = EDGE_CURVE ( 'NONE', #318, #258, #344, .T. ) ;
#84 = VERTEX_POINT ( 'NONE', #171 ) ;
#85 = PRESENTATION_LAYER_ASSIGNMENT (  '', '', ( #273 ) ) ;
#86 = ORIENTED_EDGE ( 'NONE', *, *, #272, .T. ) ;
#87 = MANIFOLD_SOLID_BREP ( 'Revolve - Cutting Edge', #76 ) ;
#88 = DIRECTION ( 'NONE',  ( -0.000000000000000000, -1.000000000000000000, -0.000000000000000000 ) ) ;
#89 = CARTESIAN_POINT ( 'NONE',  ( 0.000000000000000000, 0.000000000000000000, -0.1562499999999999445 ) ) ;
#90 = MECHANICAL_DESIGN_GEOMETRIC_PRESENTATION_REPRESENTATION (  '', ( #16 ), #59 ) ;
#91 = AXIS2_PLACEMENT_3D ( 'NONE', #153, #62, #207 ) ;
#92 =( LENGTH_UNIT ( ) NAMED_UNIT ( * ) SI_UNIT ( $, .METRE. ) );
#93 = CARTESIAN_POINT ( 'NONE',  ( 0.1562499999999995837, 4.000000000000000000, 1.913510623667736074E-17 ) ) ;
#94 = FILL_AREA_STYLE_COLOUR ( '', #116 ) ;
#95 = FACE_OUTER_BOUND ( 'NONE', #226, .T. ) ;
#96 = AXIS2_PLACEMENT_3D ( 'NONE', #70, #305, #159 ) ;
#97 =( NAMED_UNIT ( * ) PLANE_ANGLE_UNIT ( ) SI_UNIT ( $, .RADIAN. ) );
#98 = EDGE_CURVE ( 'NONE', #260, #368, #284, .T. ) ;
#99 = CYLINDRICAL_SURFACE ( 'NONE', #157, 0.1562499999999999445 ) ;
#100 = FACE_OUTER_BOUND ( 'NONE', #224, .T. ) ;
#101 = SURFACE_SIDE_STYLE ('',( #13 ) ) ;
#102 =( GEOMETRIC_REPRESENTATION_CONTEXT ( 3 ) GLOBAL_UNCERTAINTY_ASSIGNED_CONTEXT ( ( #21 ) ) GLOBAL_UNIT_ASSIGNED_CONTEXT ( ( #133, #56, #228 ) ) REPRESENTATION_CONTEXT ( 'NONE', 'WORKASPACE' ) );
#103 = CYLINDRICAL_SURFACE ( 'NONE', #232, 0.1562499999999997224 ) ;
#104 = ORIENTED_EDGE ( 'NONE', *, *, #287, .T. ) ;
#105 = DIRECTION ( 'NONE',  ( 1.000000000000000000, 0.000000000000000000, -1.224646799147353207E-16 ) ) ;
#106 = EDGE_LOOP ( 'NONE', ( #143, #283, #345, #131, #139 ) ) ;
#107 =( GEOMETRIC_REPRESENTATION_CONTEXT ( 3 ) GLOBAL_UNCERTAINTY_ASSIGNED_CONTEXT ( ( #42 ) ) GLOBAL_UNIT_ASSIGNED_CONTEXT ( ( #48, #222, #201 ) ) REPRESENTATION_CONTEXT ( 'NONE', 'WORKASPACE' ) );
#108 = DIRECTION ( 'NONE',  ( -1.725845967062844906E-16, 1.000000000000000000, -0.000000000000000000 ) ) ;
#109 = PLANE ( 'NONE',  #217 ) ;
#110 = SURFACE_SIDE_STYLE ('',( #369 ) ) ;
#111 = ORIENTED_EDGE ( 'NONE', *, *, #18, .T. ) ;
#112 = DIRECTION ( 'NONE',  ( 0.000000000000000000, 0.000000000000000000, -1.000000000000000000 ) ) ;
#113 = EDGE_LOOP ( 'NONE', ( #309, #86, #111, #19 ) ) ;
#114 = EDGE_CURVE ( 'NONE', #233, #371, #230, .T. ) ;
#115 = AXIS2_PLACEMENT_3D ( 'NONE', #176, #294, #263 ) ;
#116 = COLOUR_RGB ( '',1.000000000000000000, 0.000000000000000000, 0.000000000000000000 ) ;
#117 = UNCERTAINTY_MEASURE_WITH_UNIT (LENGTH_MEASURE( 1.000000000000000082E-05 ), #355, 'distance_accuracy_value', 'NONE');
#118 =( CONVERSION_BASED_UNIT ( 'INCH', #187 ) LENGTH_UNIT ( ) NAMED_UNIT ( #324 ) );
#119 = SURFACE_STYLE_FILL_AREA ( #317 ) ;
#120 = STYLED_ITEM ( 'NONE', ( #372 ), #87 ) ;
#121 =( GEOMETRIC_REPRESENTATION_CONTEXT ( 3 ) GLOBAL_UNCERTAINTY_ASSIGNED_CONTEXT ( ( #249 ) ) GLOBAL_UNIT_ASSIGNED_CONTEXT ( ( #270, #216, #331 ) ) REPRESENTATION_CONTEXT ( 'NONE', 'WORKASPACE' ) );
#122 = LINE ( 'NONE', #322, #65 ) ;
#123 = DIMENSIONAL_EXPONENTS ( 1.000000000000000000, 0.000000000000000000, 0.000000000000000000, 0.000000000000000000, 0.000000000000000000, 0.000000000000000000, 0.000000000000000000 ) ;
#124 = CARTESIAN_POINT ( 'NONE',  ( 0.000000000000000000, 1.562500000000000000, -0.1562499999999998335 ) ) ;
#125 = COLOUR_RGB ( '',1.000000000000000000, 0.000000000000000000, 0.000000000000000000 ) ;
#126 =( NAMED_UNIT ( * ) PLANE_ANGLE_UNIT ( ) SI_UNIT ( $, .RADIAN. ) );
#127 = PRODUCT_DEFINITION_CONTEXT ( 'detailed design', #356, 'design' ) ;
#128 = DIRECTION ( 'NONE',  ( -1.000000000000000000, 0.000000000000000000, 0.000000000000000000 ) ) ;
#129 = VECTOR ( 'NONE', #288, 39.37007874015748143 ) ;
#130 = PRODUCT_CONTEXT ( 'NONE', #185, 'mechanical' ) ;
#131 = ORIENTED_EDGE ( 'NONE', *, *, #63, .F. ) ;
#132 = DIRECTION ( 'NONE',  ( -1.000000000000000000, 0.000000000000000000, 0.000000000000000000 ) ) ;
#133 =( CONVERSION_BASED_UNIT ( 'INCH', #142 ) LENGTH_UNIT ( ) NAMED_UNIT ( #36 ) );
#134 = VERTEX_POINT ( 'NONE', #314 ) ;
#135 = DIRECTION ( 'NONE',  ( 0.000000000000000000, 0.000000000000000000, -1.000000000000000000 ) ) ;
#136 = EDGE_CURVE ( 'NONE', #258, #281, #181, .T. ) ;
#137 = FACE_OUTER_BOUND ( 'NONE', #166, .T. ) ;
#138 = MECHANICAL_DESIGN_GEOMETRIC_PRESENTATION_REPRESENTATION (  '', ( #293 ), #177 ) ;
#139 = ORIENTED_EDGE ( 'NONE', *, *, #136, .F. ) ;
#140 = ADVANCED_BREP_SHAPE_REPRESENTATION ( '84760', ( #87, #209, #352 ), #73 ) ;
#141 = DIRECTION ( 'NONE',  ( 0.000000000000000000, 0.000000000000000000, -1.000000000000000000 ) ) ;
#142 = LENGTH_MEASURE_WITH_UNIT ( LENGTH_MEASURE( 0.02539999999999999897 ), #250 );
#143 = ORIENTED_EDGE ( 'NONE', *, *, #2, .F. ) ;
#144 = DIRECTION ( 'NONE',  ( 0.000000000000000000, 0.000000000000000000, -1.000000000000000000 ) ) ;
#145 = ORIENTED_EDGE ( 'NONE', *, *, #83, .F. ) ;
#146 = CIRCLE ( 'NONE', #158, 0.1562499999999995559 ) ;
#147 = ADVANCED_FACE ( 'NONE', ( #137 ), #180, .T. ) ;
#148 =( CONVERSION_BASED_UNIT ( 'INCH', #35 ) LENGTH_UNIT ( ) NAMED_UNIT ( #44 ) );
#149 = DIRECTION ( 'NONE',  ( 0.000000000000000000, 0.000000000000000000, 1.000000000000000000 ) ) ;
#150 = PRESENTATION_LAYER_ASSIGNMENT (  '', '', ( #17 ) ) ;
#151 =( LENGTH_UNIT ( ) NAMED_UNIT ( * ) SI_UNIT ( $, .METRE. ) );
#152 = EDGE_CURVE ( 'NONE', #134, #368, #210, .T. ) ;
#153 = CARTESIAN_POINT ( 'NONE',  ( -1.224646799147352714E-16, 4.000000000000000000, 0.000000000000000000 ) ) ;
#154 = DIRECTION ( 'NONE',  ( -1.000000000000000000, 0.000000000000000000, 0.000000000000000000 ) ) ;
#155 = PRESENTATION_STYLE_ASSIGNMENT (( #304 ) ) ;
#156 = FACE_OUTER_BOUND ( 'NONE', #290, .T. ) ;
#157 = AXIS2_PLACEMENT_3D ( 'NONE', #292, #88, #200 ) ;
#158 = AXIS2_PLACEMENT_3D ( 'NONE', #227, #219, #132 ) ;
#159 = DIRECTION ( 'NONE',  ( -1.000000000000000000, -1.725845967062844906E-16, 0.000000000000000000 ) ) ;
#160 = DIRECTION ( 'NONE',  ( 1.000000000000000000, 1.725845967062844906E-16, 0.000000000000000000 ) ) ;
#161 = DIRECTION ( 'NONE',  ( -0.000000000000000000, -1.000000000000000000, -0.000000000000000000 ) ) ;
#162 = ADVANCED_FACE ( 'NONE', ( #95 ), #11, .T. ) ;
#163 = AXIS2_PLACEMENT_3D ( 'NONE', #306, #149, #245 ) ;
#164 = MECHANICAL_DESIGN_GEOMETRIC_PRESENTATION_REPRESENTATION (  '', ( #367 ), #107 ) ;
#165 = ORIENTED_EDGE ( 'NONE', *, *, #291, .T. ) ;
#166 = EDGE_LOOP ( 'NONE', ( #364, #229, #104, #77 ) ) ;
#167 =( NAMED_UNIT ( * ) SI_UNIT ( $, .STERADIAN. ) SOLID_ANGLE_UNIT ( ) );
#168 = SHAPE_DEFINITION_REPRESENTATION ( #66, #140 ) ;
#169 = FACE_OUTER_BOUND ( 'NONE', #363, .T. ) ;
#170 = FILL_AREA_STYLE ('',( #286 ) ) ;
#171 = CARTESIAN_POINT ( 'NONE',  ( -9.567553118338697316E-18, 0.000000000000000000, 0.000000000000000000 ) ) ;
#172 = SURFACE_SIDE_STYLE ('',( #315 ) ) ;
#173 = COLOUR_RGB ( '',0.7921568627450980005, 0.8196078431372548767, 0.9333333333333333481 ) ;
#174 = CARTESIAN_POINT ( 'NONE',  ( -1.224646799147352714E-16, 4.000000000000000000, 0.000000000000000000 ) ) ;
#175 = ORIENTED_EDGE ( 'NONE', *, *, #2, .T. ) ;
#176 = CARTESIAN_POINT ( 'NONE',  ( 0.000000000000000000, 1.562500000000000000, 0.000000000000000000 ) ) ;
#177 =( GEOMETRIC_REPRESENTATION_CONTEXT ( 3 ) GLOBAL_UNCERTAINTY_ASSIGNED_CONTEXT ( ( #117 ) ) GLOBAL_UNIT_ASSIGNED_CONTEXT ( ( #355, #32, #213 ) ) REPRESENTATION_CONTEXT ( 'NONE', 'WORKASPACE' ) );
#178 = DIRECTION ( 'NONE',  ( -1.725845967062844906E-16, 1.000000000000000000, -0.000000000000000000 ) ) ;
#179 = DIRECTION ( 'NONE',  ( -0.000000000000000000, -1.000000000000000000, -0.000000000000000000 ) ) ;
#180 = SPHERICAL_SURFACE ( 'NONE', #163, 0.1562500000000000000 ) ;
#181 = CIRCLE ( 'NONE', #320, 0.1562500000000000000 ) ;
#182 = PRESENTATION_STYLE_ASSIGNMENT (( #269 ) ) ;
#183 = CARTESIAN_POINT ( 'NONE',  ( 0.000000000000000000, 0.000000000000000000, 0.000000000000000000 ) ) ;
#184 = FACE_OUTER_BOUND ( 'NONE', #106, .T. ) ;
#185 = APPLICATION_CONTEXT ( 'automotive_design' ) ;
#186 = CARTESIAN_POINT ( 'NONE',  ( 2.982102745568331467E-16, 1.562500000000000000, 0.000000000000000000 ) ) ;
#187 = LENGTH_MEASURE_WITH_UNIT ( LENGTH_MEASURE( 0.02539999999999999897 ), #151 );
#188 = CIRCLE ( 'NONE', #196, 0.1562499999999998335 ) ;
#189 = APPLICATION_PROTOCOL_DEFINITION ( 'draft international standard', 'automotive_design', 1998, #185 ) ;
#190 = DIRECTION ( 'NONE',  ( 0.000000000000000000, 0.000000000000000000, 1.000000000000000000 ) ) ;
#191 = ORIENTED_EDGE ( 'NONE', *, *, #152, .F. ) ;
#192 = CARTESIAN_POINT ( 'NONE',  ( 0.1562499999999998612, 1.562500000000000000, 1.913510623667737614E-17 ) ) ;
#193 = ORIENTED_EDGE ( 'NONE', *, *, #152, .T. ) ;
#194 = CARTESIAN_POINT ( 'NONE',  ( 0.000000000000000000, 0.1562500000000000278, 0.000000000000000000 ) ) ;
#195 = FILL_AREA_STYLE ('',( #342 ) ) ;
#196 = AXIS2_PLACEMENT_3D ( 'NONE', #82, #285, #312 ) ;
#197 = AXIS2_PLACEMENT_3D ( 'NONE', #186, #239, #329 ) ;
#198 = ORIENTED_EDGE ( 'NONE', *, *, #1, .T. ) ;
#199 = ORIENTED_EDGE ( 'NONE', *, *, #287, .F. ) ;
#200 = DIRECTION ( 'NONE',  ( 0.000000000000000000, 0.000000000000000000, -1.000000000000000000 ) ) ;
#201 =( NAMED_UNIT ( * ) SI_UNIT ( $, .STERADIAN. ) SOLID_ANGLE_UNIT ( ) );
#202 = EDGE_CURVE ( 'NONE', #336, #260, #240, .T. ) ;
#203 = CARTESIAN_POINT ( 'NONE',  ( 0.000000000000000000, 0.1562500000000000278, 0.000000000000000000 ) ) ;
#204 = PRESENTATION_LAYER_ASSIGNMENT (  '', '', ( #293 ) ) ;
#205 = AXIS2_PLACEMENT_3D ( 'NONE', #183, #353, #68 ) ;
#206 = CARTESIAN_POINT ( 'NONE',  ( 0.000000000000000000, 0.1562500000000000278, 0.000000000000000000 ) ) ;
#207 = DIRECTION ( 'NONE',  ( -1.000000000000000000, 0.000000000000000000, 0.000000000000000000 ) ) ;
#208 = SURFACE_SIDE_STYLE ('',( #119 ) ) ;
#209 = MANIFOLD_SOLID_BREP ( 'Revolve - Tool Body (Straight Shanked)', #330 ) ;
#210 = CIRCLE ( 'NONE', #46, 0.1562499999999999722 ) ;
#211 = CIRCLE ( 'NONE', #91, 0.1562499999999999722 ) ;
#212 =( LENGTH_UNIT ( ) NAMED_UNIT ( * ) SI_UNIT ( $, .METRE. ) );
#213 =( NAMED_UNIT ( * ) SI_UNIT ( $, .STERADIAN. ) SOLID_ANGLE_UNIT ( ) );
#214 = PLANE ( 'NONE',  #96 ) ;
#215 = ADVANCED_FACE ( 'NONE', ( #156 ), #267, .F. ) ;
#216 =( NAMED_UNIT ( * ) PLANE_ANGLE_UNIT ( ) SI_UNIT ( $, .RADIAN. ) );
#217 = AXIS2_PLACEMENT_3D ( 'NONE', #347, #328, #60 ) ;
#218 = PRESENTATION_LAYER_ASSIGNMENT (  '', '', ( #316 ) ) ;
#219 = DIRECTION ( 'NONE',  ( -1.725845967062844906E-16, 1.000000000000000000, -0.000000000000000000 ) ) ;
#220 = ADVANCED_FACE ( 'NONE', ( #238 ), #15, .T. ) ;
#221 = ORIENTED_EDGE ( 'NONE', *, *, #83, .T. ) ;
#222 =( NAMED_UNIT ( * ) PLANE_ANGLE_UNIT ( ) SI_UNIT ( $, .RADIAN. ) );
#223 = COLOUR_RGB ( '',1.000000000000000000, 0.000000000000000000, 0.000000000000000000 ) ;
#224 = EDGE_LOOP ( 'NONE', ( #47, #343 ) ) ;
#225 = DIRECTION ( 'NONE',  ( -0.000000000000000000, -1.000000000000000000, -0.000000000000000000 ) ) ;
#226 = EDGE_LOOP ( 'NONE', ( #80, #319, #191, #49 ) ) ;
#227 = CARTESIAN_POINT ( 'NONE',  ( 2.982102745568331467E-16, 1.562500000000000000, 0.000000000000000000 ) ) ;
#228 =( NAMED_UNIT ( * ) SI_UNIT ( $, .STERADIAN. ) SOLID_ANGLE_UNIT ( ) );
#229 = ORIENTED_EDGE ( 'NONE', *, *, #63, .T. ) ;
#230 = LINE ( 'NONE', #89, #4 ) ;
#231 = PRESENTATION_LAYER_ASSIGNMENT (  '', '', ( #16 ) ) ;
#232 = AXIS2_PLACEMENT_3D ( 'NONE', #362, #108, #128 ) ;
#233 = VERTEX_POINT ( 'NONE', #124 ) ;
#234 = FILL_AREA_STYLE_COLOUR ( '', #125 ) ;
#235 = FILL_AREA_STYLE ('',( #234 ) ) ;
#236 = CIRCLE ( 'NONE', #264, 0.1562500000000000000 ) ;
#237 = SURFACE_STYLE_USAGE ( .BOTH. , #208 ) ;
#238 = FACE_OUTER_BOUND ( 'NONE', #22, .T. ) ;
#239 = DIRECTION ( 'NONE',  ( -1.725845967062844906E-16, 1.000000000000000000, -0.000000000000000000 ) ) ;
#240 = CIRCLE ( 'NONE', #197, 0.1562499999999995559 ) ;
#241 =( NAMED_UNIT ( * ) SI_UNIT ( $, .STERADIAN. ) SOLID_ANGLE_UNIT ( ) );
#242 = CIRCLE ( 'NONE', #67, 0.1562500000000000000 ) ;
#243 = CARTESIAN_POINT ( 'NONE',  ( -0.1562499999999992506, 1.562500000000000000, 0.000000000000000000 ) ) ;
#244 = CARTESIAN_POINT ( 'NONE',  ( 0.1562499999999998335, 4.000000000000000000, 0.000000000000000000 ) ) ;
#245 = DIRECTION ( 'NONE',  ( 1.000000000000000000, 0.000000000000000000, 0.000000000000000000 ) ) ;
#246 = VECTOR ( 'NONE', #51, 39.37007874015748143 ) ;
#247 = FACE_OUTER_BOUND ( 'NONE', #113, .T. ) ;
#248 = ORIENTED_EDGE ( 'NONE', *, *, #1, .F. ) ;
#249 = UNCERTAINTY_MEASURE_WITH_UNIT (LENGTH_MEASURE( 1.000000000000000082E-05 ), #270, 'distance_accuracy_value', 'NONE');
#250 =( LENGTH_UNIT ( ) NAMED_UNIT ( * ) SI_UNIT ( $, .METRE. ) );
#251 = VERTEX_POINT ( 'NONE', #334 ) ;
#252 = DIRECTION ( 'NONE',  ( -1.000000000000000000, 0.000000000000000000, 0.000000000000000000 ) ) ;
#253 = FILL_AREA_STYLE_COLOUR ( '', #39 ) ;
#254 = CARTESIAN_POINT ( 'NONE',  ( 1.913510623667738539E-17, 0.000000000000000000, 0.1562499999999999445 ) ) ;
#255 = CYLINDRICAL_SURFACE ( 'NONE', #205, 0.1562499999999999445 ) ;
#256 = EDGE_CURVE ( 'NONE', #318, #84, #280, .T. ) ;
#257 = FILL_AREA_STYLE ('',( #253 ) ) ;
#258 = VERTEX_POINT ( 'NONE', #365 ) ;
#259 = DIRECTION ( 'NONE',  ( -0.000000000000000000, -1.000000000000000000, -0.000000000000000000 ) ) ;
#260 = VERTEX_POINT ( 'NONE', #192 ) ;
#261 = SURFACE_STYLE_FILL_AREA ( #235 ) ;
#262 = ADVANCED_FACE ( 'NONE', ( #247 ), #103, .T. ) ;
#263 = DIRECTION ( 'NONE',  ( 0.000000000000000000, 0.000000000000000000, -1.000000000000000000 ) ) ;
#264 = AXIS2_PLACEMENT_3D ( 'NONE', #203, #259, #112 ) ;
#265 = COLOUR_RGB ( '',1.000000000000000000, 0.000000000000000000, 0.000000000000000000 ) ;
#266 = AXIS2_PLACEMENT_3D ( 'NONE', #350, #276, #154 ) ;
#267 = PLANE ( 'NONE',  #5 ) ;
#268 =( NAMED_UNIT ( * ) PLANE_ANGLE_UNIT ( ) SI_UNIT ( $, .RADIAN. ) );
#269 = SURFACE_STYLE_USAGE ( .BOTH. , #327 ) ;
#270 =( CONVERSION_BASED_UNIT ( 'INCH', #41 ) LENGTH_UNIT ( ) NAMED_UNIT ( #271 ) );
#271 = DIMENSIONAL_EXPONENTS ( 1.000000000000000000, 0.000000000000000000, 0.000000000000000000, 0.000000000000000000, 0.000000000000000000, 0.000000000000000000, 0.000000000000000000 ) ;
#272 = EDGE_CURVE ( 'NONE', #260, #336, #146, .T. ) ;
#273 = STYLED_ITEM ( 'NONE', ( #155 ), #40 ) ;
#274 = DIRECTION ( 'NONE',  ( -1.000000000000000000, 0.000000000000000000, 0.000000000000000000 ) ) ;
#275 = MECHANICAL_DESIGN_GEOMETRIC_PRESENTATION_REPRESENTATION (  '', ( #316 ), #34 ) ;
#276 = DIRECTION ( 'NONE',  ( -1.725845967062844906E-16, 1.000000000000000000, -0.000000000000000000 ) ) ;
#277 = UNCERTAINTY_MEASURE_WITH_UNIT (LENGTH_MEASURE( 1.000000000000000082E-05 ), #148, 'distance_accuracy_value', 'NONE');
#278 = DIMENSIONAL_EXPONENTS ( 1.000000000000000000, 0.000000000000000000, 0.000000000000000000, 0.000000000000000000, 0.000000000000000000, 0.000000000000000000, 0.000000000000000000 ) ;
#279 = LENGTH_MEASURE_WITH_UNIT ( LENGTH_MEASURE( 0.02539999999999999897 ), #307 );
#280 = CIRCLE ( 'NONE', #300, 0.1562500000000000000 ) ;
#281 = VERTEX_POINT ( 'NONE', #335 ) ;
#282 = APPLICATION_PROTOCOL_DEFINITION ( 'draft international standard', 'automotive_design', 1998, #356 ) ;
#283 = ORIENTED_EDGE ( 'NONE', *, *, #45, .T. ) ;
#284 = LINE ( 'NONE', #93, #129 ) ;
#285 = DIRECTION ( 'NONE',  ( -0.000000000000000000, -1.000000000000000000, -0.000000000000000000 ) ) ;
#286 = FILL_AREA_STYLE_COLOUR ( '', #265 ) ;
#287 = EDGE_CURVE ( 'NONE', #371, #318, #242, .T. ) ;
#288 = DIRECTION ( 'NONE',  ( -1.725845967062844906E-16, 1.000000000000000000, -0.000000000000000000 ) ) ;
#289 = LINE ( 'NONE', #254, #246 ) ;
#290 = EDGE_LOOP ( 'NONE', ( #193, #340 ) ) ;
#291 = EDGE_CURVE ( 'NONE', #281, #84, #326, .T. ) ;
#292 = CARTESIAN_POINT ( 'NONE',  ( 0.000000000000000000, 0.000000000000000000, 0.000000000000000000 ) ) ;
#293 = STYLED_ITEM ( 'NONE', ( #31 ), #14 ) ;
#294 = DIRECTION ( 'NONE',  ( -0.000000000000000000, -1.000000000000000000, -0.000000000000000000 ) ) ;
#295 = SURFACE_STYLE_FILL_AREA ( #257 ) ;
#296 = CARTESIAN_POINT ( 'NONE',  ( 0.000000000000000000, 0.1562500000000000278, -0.1562500000000000000 ) ) ;
#297 = PRODUCT_RELATED_PRODUCT_CATEGORY ( 'part', '', ( #28 ) ) ;
#298 =( LENGTH_UNIT ( ) NAMED_UNIT ( * ) SI_UNIT ( $, .METRE. ) );
#299 =( GEOMETRIC_REPRESENTATION_CONTEXT ( 3 ) GLOBAL_UNCERTAINTY_ASSIGNED_CONTEXT ( ( #346 ) ) GLOBAL_UNIT_ASSIGNED_CONTEXT ( ( #118, #126, #58 ) ) REPRESENTATION_CONTEXT ( 'NONE', 'WORKASPACE' ) );
#300 = AXIS2_PLACEMENT_3D ( 'NONE', #20, #135, #252 ) ;
#301 =( LENGTH_UNIT ( ) NAMED_UNIT ( * ) SI_UNIT ( $, .METRE. ) );
#302 = SURFACE_SIDE_STYLE ('',( #261 ) ) ;
#303 = DIMENSIONAL_EXPONENTS ( 1.000000000000000000, 0.000000000000000000, 0.000000000000000000, 0.000000000000000000, 0.000000000000000000, 0.000000000000000000, 0.000000000000000000 ) ;
#304 = SURFACE_STYLE_USAGE ( .BOTH. , #302 ) ;
#305 = DIRECTION ( 'NONE',  ( -1.725845967062844906E-16, 1.000000000000000000, 0.000000000000000000 ) ) ;
#306 = CARTESIAN_POINT ( 'NONE',  ( -1.913510623667739463E-17, 0.1562500000000000000, 0.000000000000000000 ) ) ;
#307 =( LENGTH_UNIT ( ) NAMED_UNIT ( * ) SI_UNIT ( $, .METRE. ) );
#308 = AXIS2_PLACEMENT_3D ( 'NONE', #206, #225, #3 ) ;
#309 = ORIENTED_EDGE ( 'NONE', *, *, #98, .F. ) ;
#310 = DIMENSIONAL_EXPONENTS ( 1.000000000000000000, 0.000000000000000000, 0.000000000000000000, 0.000000000000000000, 0.000000000000000000, 0.000000000000000000, 0.000000000000000000 ) ;
#311 = ADVANCED_FACE ( 'NONE', ( #313 ), #255, .T. ) ;
#312 = DIRECTION ( 'NONE',  ( 0.000000000000000000, 0.000000000000000000, -1.000000000000000000 ) ) ;
#313 = FACE_OUTER_BOUND ( 'NONE', #373, .T. ) ;
#314 = CARTESIAN_POINT ( 'NONE',  ( -0.1562500000000001110, 4.000000000000000000, 0.000000000000000000 ) ) ;
#315 = SURFACE_STYLE_FILL_AREA ( #195 ) ;
#316 = STYLED_ITEM ( 'NONE', ( #182 ), #220 ) ;
#317 = FILL_AREA_STYLE ('',( #341 ) ) ;
#318 = VERTEX_POINT ( 'NONE', #10 ) ;
#319 = ORIENTED_EDGE ( 'NONE', *, *, #98, .T. ) ;
#320 = AXIS2_PLACEMENT_3D ( 'NONE', #26, #179, #144 ) ;
#321 = AXIS2_PLACEMENT_3D ( 'NONE', #361, #52, #105 ) ;
#322 = CARTESIAN_POINT ( 'NONE',  ( -0.1562499999999998612, 4.000000000000000000, 0.000000000000000000 ) ) ;
#323 =( LENGTH_UNIT ( ) NAMED_UNIT ( * ) SI_UNIT ( $, .METRE. ) );
#324 = DIMENSIONAL_EXPONENTS ( 1.000000000000000000, 0.000000000000000000, 0.000000000000000000, 0.000000000000000000, 0.000000000000000000, 0.000000000000000000, 0.000000000000000000 ) ;
#325 = FILL_AREA_STYLE ('',( #94 ) ) ;
#326 = CIRCLE ( 'NONE', #321, 0.1562500000000000000 ) ;
#327 = SURFACE_SIDE_STYLE ('',( #64 ) ) ;
#328 = DIRECTION ( 'NONE',  ( 0.000000000000000000, 1.000000000000000000, 0.000000000000000000 ) ) ;
#329 = DIRECTION ( 'NONE',  ( -1.000000000000000000, 0.000000000000000000, 0.000000000000000000 ) ) ;
#330 = CLOSED_SHELL ( 'NONE', ( #162, #338, #262, #215 ) ) ;
#331 =( NAMED_UNIT ( * ) SI_UNIT ( $, .STERADIAN. ) SOLID_ANGLE_UNIT ( ) );
#332 = MECHANICAL_DESIGN_GEOMETRIC_PRESENTATION_REPRESENTATION (  '', ( #17 ), #121 ) ;
#333 = EDGE_CURVE ( 'NONE', #368, #134, #211, .T. ) ;
#334 = CARTESIAN_POINT ( 'NONE',  ( 1.913510623667738231E-17, 1.562500000000000000, 0.1562499999999998335 ) ) ;
#335 = CARTESIAN_POINT ( 'NONE',  ( -0.1562500000000000000, 0.1562500000000000278, 1.913510623667738847E-17 ) ) ;
#336 = VERTEX_POINT ( 'NONE', #243 ) ;
#337 = MECHANICAL_DESIGN_GEOMETRIC_PRESENTATION_REPRESENTATION (  '', ( #120 ), #102 ) ;
#338 = ADVANCED_FACE ( 'NONE', ( #100 ), #214, .F. ) ;
#339 = LENGTH_MEASURE_WITH_UNIT ( LENGTH_MEASURE( 0.02539999999999999897 ), #323 );
#340 = ORIENTED_EDGE ( 'NONE', *, *, #333, .T. ) ;
#341 = FILL_AREA_STYLE_COLOUR ( '', #72 ) ;
#342 = FILL_AREA_STYLE_COLOUR ( '', #223 ) ;
#343 = ORIENTED_EDGE ( 'NONE', *, *, #272, .F. ) ;
#344 = CIRCLE ( 'NONE', #308, 0.1562500000000000000 ) ;
#345 = ORIENTED_EDGE ( 'NONE', *, *, #114, .T. ) ;
#346 = UNCERTAINTY_MEASURE_WITH_UNIT (LENGTH_MEASURE( 1.000000000000000082E-05 ), #118, 'distance_accuracy_value', 'NONE');
#347 = CARTESIAN_POINT ( 'NONE',  ( 0.000000000000000000, 1.562500000000000000, 0.000000000000000000 ) ) ;
#348 = CIRCLE ( 'NONE', #115, 0.1562499999999998335 ) ;
#349 =( NAMED_UNIT ( * ) SI_UNIT ( $, .STERADIAN. ) SOLID_ANGLE_UNIT ( ) );
#350 = CARTESIAN_POINT ( 'NONE',  ( -1.224646799147352714E-16, 4.000000000000000000, 0.000000000000000000 ) ) ;
#351 = FILL_AREA_STYLE ('',( #357 ) ) ;
#352 = AXIS2_PLACEMENT_3D ( 'NONE', #50, #190, #23 ) ;
#353 = DIRECTION ( 'NONE',  ( -0.000000000000000000, -1.000000000000000000, -0.000000000000000000 ) ) ;
#354 = PRESENTATION_STYLE_ASSIGNMENT (( #6 ) ) ;
#355 =( CONVERSION_BASED_UNIT ( 'INCH', #8 ) LENGTH_UNIT ( ) NAMED_UNIT ( #303 ) );
#356 = APPLICATION_CONTEXT ( 'automotive_design' ) ;
#357 = FILL_AREA_STYLE_COLOUR ( '', #173 ) ;
#358 = DIRECTION ( 'NONE',  ( -1.725845967062844906E-16, 1.000000000000000000, -0.000000000000000000 ) ) ;
#359 = PRODUCT_DEFINITION ( 'UNKNOWN', '', #78, #127 ) ;
#360 = PRESENTATION_LAYER_ASSIGNMENT (  '', '', ( #367 ) ) ;
#361 = CARTESIAN_POINT ( 'NONE',  ( -1.913510623667739463E-17, 0.1562500000000000000, 0.000000000000000000 ) ) ;
#362 = CARTESIAN_POINT ( 'NONE',  ( -1.224646799147352714E-16, 4.000000000000000000, 0.000000000000000000 ) ) ;
#363 = EDGE_LOOP ( 'NONE', ( #248, #24 ) ) ;
#364 = ORIENTED_EDGE ( 'NONE', *, *, #291, .F. ) ;
#365 = CARTESIAN_POINT ( 'NONE',  ( 1.913510623667739463E-17, 0.1562500000000000278, 0.1562500000000000000 ) ) ;
#366 = MECHANICAL_DESIGN_GEOMETRIC_PRESENTATION_REPRESENTATION (  '', ( #273 ), #299 ) ;
#367 = STYLED_ITEM ( 'NONE', ( #74 ), #311 ) ;
#368 = VERTEX_POINT ( 'NONE', #12 ) ;
#369 = SURFACE_STYLE_FILL_AREA ( #170 ) ;
#370 =( CONVERSION_BASED_UNIT ( 'INCH', #339 ) LENGTH_UNIT ( ) NAMED_UNIT ( #123 ) );
#371 = VERTEX_POINT ( 'NONE', #296 ) ;
#372 = PRESENTATION_STYLE_ASSIGNMENT (( #237 ) ) ;
#373 = EDGE_LOOP ( 'NONE', ( #198, #175, #145, #199, #57 ) ) ;
ENDSEC;
END-ISO-10303-21;
