ISO-10303-21;
HEADER;
FILE_DESCRIPTION (( 'STEP AP214' ),
    '1' );
FILE_NAME ('59741.STEP',
    '2023-07-24T15:31:52',
    ( '' ),
    ( '' ),
    'SwSTEP 2.0',
    'SolidWorks 2023',
    '' );
FILE_SCHEMA (( 'AUTOMOTIVE_DESIGN' ));
ENDSEC;

DATA;
#1 = PLANE ( 'NONE',  #141 ) ;
#2 = EDGE_CURVE ( 'NONE', #150, #310, #304, .T. ) ;
#3 = CARTESIAN_POINT ( 'NONE',  ( 0.000000000000000000, 0.000000000000000000, 0.000000000000000000 ) ) ;
#4 = CARTESIAN_POINT ( 'NONE',  ( 5.204170427930421283E-15, 20.00000000000000355, 0.000000000000000000 ) ) ;
#5 = TOROIDAL_SURFACE ( 'NONE', #243, 4.500000000000000888, 0.4999999999999997780 ) ;
#6 = STYLED_ITEM ( 'NONE', ( #71 ), #359 ) ;
#7 = LINE ( 'NONE', #346, #115 ) ;
#8 = FILL_AREA_STYLE_COLOUR ( '', #146 ) ;
#9 = UNCERTAINTY_MEASURE_WITH_UNIT (LENGTH_MEASURE( 1.000000000000000082E-05 ), #117, 'distance_accuracy_value', 'NONE');
#10 = AXIS2_PLACEMENT_3D ( 'NONE', #280, #148, #214 ) ;
#11 = MECHANICAL_DESIGN_GEOMETRIC_PRESENTATION_REPRESENTATION (  '', ( #295 ), #185 ) ;
#12 = FILL_AREA_STYLE_COLOUR ( '', #171 ) ;
#13 = PRODUCT_DEFINITION ( 'UNKNOWN', '', #80, #108 ) ;
#14 = ORIENTED_EDGE ( 'NONE', *, *, #354, .F. ) ;
#15 = SURFACE_STYLE_USAGE ( .BOTH. , #177 ) ;
#16 = CARTESIAN_POINT ( 'NONE',  ( -4.999999999999992895, 63.00000000000000000, 0.000000000000000000 ) ) ;
#17 = DIRECTION ( 'NONE',  ( -0.000000000000000000, -1.000000000000000000, -0.000000000000000000 ) ) ;
#18 = STYLED_ITEM ( 'NONE', ( #35 ), #257 ) ;
#19 = CARTESIAN_POINT ( 'NONE',  ( 0.000000000000000000, 0.000000000000000000, -4.500000000000000888 ) ) ;
#20 = CARTESIAN_POINT ( 'NONE',  ( 5.204170427930421283E-15, 20.00000000000000355, 0.000000000000000000 ) ) ;
#21 = PLANE ( 'NONE',  #178 ) ;
#22 = PRESENTATION_LAYER_ASSIGNMENT (  '', '', ( #295 ) ) ;
#23 = DIRECTION ( 'NONE',  ( -0.000000000000000000, -1.000000000000000000, -0.000000000000000000 ) ) ;
#24 = DIRECTION ( 'NONE',  ( -1.000000000000000000, -4.697880814296055710E-17, 0.000000000000000000 ) ) ;
#25 = FILL_AREA_STYLE ('',( #167 ) ) ;
#26 = AXIS2_PLACEMENT_3D ( 'NONE', #227, #103, #107 ) ;
#27 = PRESENTATION_LAYER_ASSIGNMENT (  '', '', ( #286 ) ) ;
#28 = FILL_AREA_STYLE_COLOUR ( '', #264 ) ;
#29 = CARTESIAN_POINT ( 'NONE',  ( 0.000000000000000000, 0.000000000000000000, 0.000000000000000000 ) ) ;
#30 = EDGE_LOOP ( 'NONE', ( #342, #82, #210, #249 ) ) ;
#31 = CARTESIAN_POINT ( 'NONE',  ( 5.817072295949928412E-16, 0.000000000000000000, 4.500000000000000888 ) ) ;
#32 = CIRCLE ( 'NONE', #79, 4.999999999999994671 ) ;
#33 = ORIENTED_EDGE ( 'NONE', *, *, #70, .T. ) ;
#34 =( NAMED_UNIT ( * ) SI_UNIT ( $, .STERADIAN. ) SOLID_ANGLE_UNIT ( ) );
#35 = PRESENTATION_STYLE_ASSIGNMENT (( #261 ) ) ;
#36 = VERTEX_POINT ( 'NONE', #19 ) ;
#37 =( NAMED_UNIT ( * ) SI_UNIT ( $, .STERADIAN. ) SOLID_ANGLE_UNIT ( ) );
#38 = ORIENTED_EDGE ( 'NONE', *, *, #297, .T. ) ;
#39 = PRESENTATION_STYLE_ASSIGNMENT (( #15 ) ) ;
#40 = CARTESIAN_POINT ( 'NONE',  ( -4.999999999999989342, 20.00000000000000355, 0.000000000000000000 ) ) ;
#41 = EDGE_LOOP ( 'NONE', ( #14, #64 ) ) ;
#42 = COLOUR_RGB ( '',0.7921568627450980005, 0.8196078431372548767, 0.9333333333333333481 ) ;
#43 = CYLINDRICAL_SURFACE ( 'NONE', #245, 5.000000000000000000 ) ;
#44 = EDGE_LOOP ( 'NONE', ( #201, #92, #339, #159 ) ) ;
#45 = DIRECTION ( 'NONE',  ( -1.000000000000000000, 0.000000000000000000, 0.000000000000000000 ) ) ;
#46 = DIRECTION ( 'NONE',  ( -0.000000000000000000, -1.000000000000000000, -0.000000000000000000 ) ) ;
#47 = CLOSED_SHELL ( 'NONE', ( #330, #272, #225, #142, #359, #257 ) ) ;
#48 =( GEOMETRIC_REPRESENTATION_CONTEXT ( 3 ) GLOBAL_UNCERTAINTY_ASSIGNED_CONTEXT ( ( #118 ) ) GLOBAL_UNIT_ASSIGNED_CONTEXT ( ( #53, #127, #162 ) ) REPRESENTATION_CONTEXT ( 'NONE', 'WORKASPACE' ) );
#49 = CARTESIAN_POINT ( 'NONE',  ( 0.000000000000000000, 0.5000000000000000000, -4.500000000000000888 ) ) ;
#50 = CARTESIAN_POINT ( 'NONE',  ( 5.204170427930421283E-15, 20.00000000000000000, 0.000000000000000000 ) ) ;
#51 = CARTESIAN_POINT ( 'NONE',  ( -4.999999999999992006, 63.00000000000000000, 0.000000000000000000 ) ) ;
#52 = SURFACE_STYLE_USAGE ( .BOTH. , #323 ) ;
#53 =( LENGTH_UNIT ( ) NAMED_UNIT ( * ) SI_UNIT ( .MILLI., .METRE. ) );
#54 = VERTEX_POINT ( 'NONE', #40 ) ;
#55 =( LENGTH_UNIT ( ) NAMED_UNIT ( * ) SI_UNIT ( .MILLI., .METRE. ) );
#56 =( NAMED_UNIT ( * ) PLANE_ANGLE_UNIT ( ) SI_UNIT ( $, .RADIAN. ) );
#57 = CIRCLE ( 'NONE', #308, 4.999999999999996447 ) ;
#58 =( GEOMETRIC_REPRESENTATION_CONTEXT ( 3 ) GLOBAL_UNCERTAINTY_ASSIGNED_CONTEXT ( ( #149 ) ) GLOBAL_UNIT_ASSIGNED_CONTEXT ( ( #151, #240, #121 ) ) REPRESENTATION_CONTEXT ( 'NONE', 'WORKASPACE' ) );
#59 = UNCERTAINTY_MEASURE_WITH_UNIT (LENGTH_MEASURE( 1.000000000000000082E-05 ), #88, 'distance_accuracy_value', 'NONE');
#60 = SURFACE_STYLE_USAGE ( .BOTH. , #205 ) ;
#61 = EDGE_LOOP ( 'NONE', ( #242, #184 ) ) ;
#62 = VERTEX_POINT ( 'NONE', #126 ) ;
#63 = SURFACE_STYLE_FILL_AREA ( #335 ) ;
#64 = ORIENTED_EDGE ( 'NONE', *, *, #113, .F. ) ;
#65 = DIRECTION ( 'NONE',  ( -0.000000000000000000, -1.000000000000000000, -0.000000000000000000 ) ) ;
#66 = DIRECTION ( 'NONE',  ( -4.697880814296055710E-17, 1.000000000000000000, -0.000000000000000000 ) ) ;
#67 = MECHANICAL_DESIGN_GEOMETRIC_PRESENTATION_REPRESENTATION (  '', ( #275 ), #74 ) ;
#68 = STYLED_ITEM ( 'NONE', ( #276 ), #281 ) ;
#69 = DIRECTION ( 'NONE',  ( 0.000000000000000000, 0.000000000000000000, -1.000000000000000000 ) ) ;
#70 = EDGE_CURVE ( 'NONE', #332, #123, #57, .T. ) ;
#71 = PRESENTATION_STYLE_ASSIGNMENT (( #293 ) ) ;
#72 = DIRECTION ( 'NONE',  ( 1.000000000000000000, 4.697880814296055710E-17, 0.000000000000000000 ) ) ;
#73 = EDGE_CURVE ( 'NONE', #173, #150, #369, .T. ) ;
#74 =( GEOMETRIC_REPRESENTATION_CONTEXT ( 3 ) GLOBAL_UNCERTAINTY_ASSIGNED_CONTEXT ( ( #211 ) ) GLOBAL_UNIT_ASSIGNED_CONTEXT ( ( #329, #235, #34 ) ) REPRESENTATION_CONTEXT ( 'NONE', 'WORKASPACE' ) );
#75 = DIRECTION ( 'NONE',  ( 0.000000000000000000, 0.000000000000000000, -1.000000000000000000 ) ) ;
#76 = CARTESIAN_POINT ( 'NONE',  ( 0.000000000000000000, 0.5000000000000000000, 0.000000000000000000 ) ) ;
#77 = FILL_AREA_STYLE ('',( #8 ) ) ;
#78 = FACE_OUTER_BOUND ( 'NONE', #212, .T. ) ;
#79 = AXIS2_PLACEMENT_3D ( 'NONE', #20, #66, #269 ) ;
#80 = PRODUCT_DEFINITION_FORMATION_WITH_SPECIFIED_SOURCE ( 'ANY', '', #237, .NOT_KNOWN. ) ;
#81 = SURFACE_STYLE_FILL_AREA ( #326 ) ;
#82 = ORIENTED_EDGE ( 'NONE', *, *, #247, .T. ) ;
#83 = DIRECTION ( 'NONE',  ( 0.000000000000000000, -0.000000000000000000, 1.000000000000000000 ) ) ;
#84 = DIRECTION ( 'NONE',  ( 0.000000000000000000, -1.000000000000000000, -0.000000000000000000 ) ) ;
#85 = ORIENTED_EDGE ( 'NONE', *, *, #73, .F. ) ;
#86 = DIRECTION ( 'NONE',  ( 0.000000000000000000, 0.000000000000000000, -1.000000000000000000 ) ) ;
#87 = STYLED_ITEM ( 'NONE', ( #319 ), #142 ) ;
#88 =( LENGTH_UNIT ( ) NAMED_UNIT ( * ) SI_UNIT ( .MILLI., .METRE. ) );
#89 = CARTESIAN_POINT ( 'NONE',  ( 0.000000000000000000, 0.000000000000000000, -5.000000000000000000 ) ) ;
#90 = DIRECTION ( 'NONE',  ( -1.000000000000000000, 0.000000000000000000, 0.000000000000000000 ) ) ;
#91 = CIRCLE ( 'NONE', #267, 5.000000000000000000 ) ;
#92 = ORIENTED_EDGE ( 'NONE', *, *, #197, .T. ) ;
#93 = ORIENTED_EDGE ( 'NONE', *, *, #209, .T. ) ;
#94 = CARTESIAN_POINT ( 'NONE',  ( 3.184081677783117402E-15, 63.00000000000000000, 0.000000000000000000 ) ) ;
#95 = PRODUCT_CONTEXT ( 'NONE', #144, 'mechanical' ) ;
#96 = DIRECTION ( 'NONE',  ( -4.697880814296055710E-17, 1.000000000000000000, -0.000000000000000000 ) ) ;
#97 = CIRCLE ( 'NONE', #26, 4.500000000000000888 ) ;
#98 = COLOUR_RGB ( '',1.000000000000000000, 0.000000000000000000, 0.000000000000000000 ) ;
#99 = DIRECTION ( 'NONE',  ( 1.000000000000000000, 0.000000000000000000, 0.000000000000000000 ) ) ;
#100 = DIRECTION ( 'NONE',  ( 1.000000000000000000, 0.000000000000000000, -1.224646799147353207E-16 ) ) ;
#101 = DIRECTION ( 'NONE',  ( -0.000000000000000000, -1.000000000000000000, -0.000000000000000000 ) ) ;
#102 = SURFACE_STYLE_FILL_AREA ( #321 ) ;
#103 = DIRECTION ( 'NONE',  ( -0.000000000000000000, -1.000000000000000000, -0.000000000000000000 ) ) ;
#104 =( GEOMETRIC_REPRESENTATION_CONTEXT ( 3 ) GLOBAL_UNCERTAINTY_ASSIGNED_CONTEXT ( ( #306 ) ) GLOBAL_UNIT_ASSIGNED_CONTEXT ( ( #294, #56, #174 ) ) REPRESENTATION_CONTEXT ( 'NONE', 'WORKASPACE' ) );
#105 = PRESENTATION_LAYER_ASSIGNMENT (  '', '', ( #68 ) ) ;
#106 =( NAMED_UNIT ( * ) SI_UNIT ( $, .STERADIAN. ) SOLID_ANGLE_UNIT ( ) );
#107 = DIRECTION ( 'NONE',  ( 0.000000000000000000, 0.000000000000000000, -1.000000000000000000 ) ) ;
#108 = PRODUCT_DEFINITION_CONTEXT ( 'detailed design', #169, 'design' ) ;
#109 = DIRECTION ( 'NONE',  ( 0.000000000000000000, 0.000000000000000000, -1.000000000000000000 ) ) ;
#110 = AXIS2_PLACEMENT_3D ( 'NONE', #49, #45, #325 ) ;
#111 = EDGE_LOOP ( 'NONE', ( #277, #155, #38, #299 ) ) ;
#112 = SURFACE_SIDE_STYLE ('',( #296 ) ) ;
#113 = EDGE_CURVE ( 'NONE', #62, #54, #32, .T. ) ;
#114 = ADVANCED_FACE ( 'NONE', ( #355 ), #119, .T. ) ;
#115 = VECTOR ( 'NONE', #298, 1000.000000000000000 ) ;
#116 =( GEOMETRIC_REPRESENTATION_CONTEXT ( 3 ) GLOBAL_UNCERTAINTY_ASSIGNED_CONTEXT ( ( #59 ) ) GLOBAL_UNIT_ASSIGNED_CONTEXT ( ( #88, #125, #37 ) ) REPRESENTATION_CONTEXT ( 'NONE', 'WORKASPACE' ) );
#117 =( LENGTH_UNIT ( ) NAMED_UNIT ( * ) SI_UNIT ( .MILLI., .METRE. ) );
#118 = UNCERTAINTY_MEASURE_WITH_UNIT (LENGTH_MEASURE( 1.000000000000000082E-05 ), #53, 'distance_accuracy_value', 'NONE');
#119 = CYLINDRICAL_SURFACE ( 'NONE', #285, 4.999999999999995559 ) ;
#120 = EDGE_LOOP ( 'NONE', ( #85, #203 ) ) ;
#121 =( NAMED_UNIT ( * ) SI_UNIT ( $, .STERADIAN. ) SOLID_ANGLE_UNIT ( ) );
#122 = MECHANICAL_DESIGN_GEOMETRIC_PRESENTATION_REPRESENTATION (  '', ( #87 ), #259 ) ;
#123 = VERTEX_POINT ( 'NONE', #16 ) ;
#124 = MECHANICAL_DESIGN_GEOMETRIC_PRESENTATION_REPRESENTATION (  '', ( #6 ), #318 ) ;
#125 =( NAMED_UNIT ( * ) PLANE_ANGLE_UNIT ( ) SI_UNIT ( $, .RADIAN. ) );
#126 = CARTESIAN_POINT ( 'NONE',  ( 5.000000000000000000, 20.00000000000000355, 6.123233995736762338E-16 ) ) ;
#127 =( NAMED_UNIT ( * ) PLANE_ANGLE_UNIT ( ) SI_UNIT ( $, .RADIAN. ) );
#128 = CARTESIAN_POINT ( 'NONE',  ( 6.123233995736766282E-16, 0.000000000000000000, 5.000000000000000000 ) ) ;
#129 = DIRECTION ( 'NONE',  ( -0.000000000000000000, -1.000000000000000000, -0.000000000000000000 ) ) ;
#130 = SURFACE_STYLE_FILL_AREA ( #25 ) ;
#131 = AXIS2_PLACEMENT_3D ( 'NONE', #194, #320, #187 ) ;
#132 = COLOUR_RGB ( '',0.7921568627450980005, 0.8196078431372548767, 0.9333333333333333481 ) ;
#133 =( LENGTH_UNIT ( ) NAMED_UNIT ( * ) SI_UNIT ( .MILLI., .METRE. ) );
#134 = DIRECTION ( 'NONE',  ( -1.000000000000000000, 0.000000000000000000, 0.000000000000000000 ) ) ;
#135 =( NAMED_UNIT ( * ) PLANE_ANGLE_UNIT ( ) SI_UNIT ( $, .RADIAN. ) );
#136 = CIRCLE ( 'NONE', #340, 4.500000000000000888 ) ;
#137 = PRESENTATION_LAYER_ASSIGNMENT (  '', '', ( #268 ) ) ;
#138 = CARTESIAN_POINT ( 'NONE',  ( 6.123233995736766282E-16, 20.00000000000000000, 5.000000000000000000 ) ) ;
#139 =( NAMED_UNIT ( * ) PLANE_ANGLE_UNIT ( ) SI_UNIT ( $, .RADIAN. ) );
#140 = ADVANCED_FACE ( 'NONE', ( #274 ), #256, .T. ) ;
#141 = AXIS2_PLACEMENT_3D ( 'NONE', #50, #313, #24 ) ;
#142 = ADVANCED_FACE ( 'NONE', ( #289 ), #5, .T. ) ;
#143 = CARTESIAN_POINT ( 'NONE',  ( 0.000000000000000000, 20.00000000000000000, 0.000000000000000000 ) ) ;
#144 = APPLICATION_CONTEXT ( 'automotive_design' ) ;
#145 = SURFACE_SIDE_STYLE ('',( #248 ) ) ;
#146 = COLOUR_RGB ( '',1.000000000000000000, 0.000000000000000000, 0.000000000000000000 ) ;
#147 = PRESENTATION_LAYER_ASSIGNMENT (  '', '', ( #6 ) ) ;
#148 = DIRECTION ( 'NONE',  ( -0.000000000000000000, -1.000000000000000000, -0.000000000000000000 ) ) ;
#149 = UNCERTAINTY_MEASURE_WITH_UNIT (LENGTH_MEASURE( 1.000000000000000082E-05 ), #151, 'distance_accuracy_value', 'NONE');
#150 = VERTEX_POINT ( 'NONE', #138 ) ;
#151 =( LENGTH_UNIT ( ) NAMED_UNIT ( * ) SI_UNIT ( .MILLI., .METRE. ) );
#152 = DIRECTION ( 'NONE',  ( -4.697880814296055710E-17, 1.000000000000000000, -0.000000000000000000 ) ) ;
#153 = FILL_AREA_STYLE_COLOUR ( '', #132 ) ;
#154 = PRESENTATION_LAYER_ASSIGNMENT (  '', '', ( #275 ) ) ;
#155 = ORIENTED_EDGE ( 'NONE', *, *, #266, .T. ) ;
#156 = CIRCLE ( 'NONE', #349, 4.999999999999994671 ) ;
#157 = EDGE_CURVE ( 'NONE', #310, #216, #91, .T. ) ;
#158 = FILL_AREA_STYLE ('',( #12 ) ) ;
#159 = ORIENTED_EDGE ( 'NONE', *, *, #367, .F. ) ;
#160 = CARTESIAN_POINT ( 'NONE',  ( 0.000000000000000000, 0.000000000000000000, 0.000000000000000000 ) ) ;
#161 = CARTESIAN_POINT ( 'NONE',  ( 0.000000000000000000, 0.000000000000000000, 0.000000000000000000 ) ) ;
#162 =( NAMED_UNIT ( * ) SI_UNIT ( $, .STERADIAN. ) SOLID_ANGLE_UNIT ( ) );
#163 = SURFACE_SIDE_STYLE ('',( #102 ) ) ;
#164 = PRESENTATION_LAYER_ASSIGNMENT (  '', '', ( #87 ) ) ;
#165 = SURFACE_SIDE_STYLE ('',( #351 ) ) ;
#166 = DIRECTION ( 'NONE',  ( -4.697880814296055710E-17, 1.000000000000000000, -0.000000000000000000 ) ) ;
#167 = FILL_AREA_STYLE_COLOUR ( '', #230 ) ;
#168 = PRODUCT_RELATED_PRODUCT_CATEGORY ( 'part', '', ( #237 ) ) ;
#169 = APPLICATION_CONTEXT ( 'automotive_design' ) ;
#170 = AXIS2_PLACEMENT_3D ( 'NONE', #287, #100, #221 ) ;
#171 = COLOUR_RGB ( '',1.000000000000000000, 0.000000000000000000, 0.000000000000000000 ) ;
#172 = PRESENTATION_STYLE_ASSIGNMENT (( #52 ) ) ;
#173 = VERTEX_POINT ( 'NONE', #368 ) ;
#174 =( NAMED_UNIT ( * ) SI_UNIT ( $, .STERADIAN. ) SOLID_ANGLE_UNIT ( ) );
#175 = PRESENTATION_STYLE_ASSIGNMENT (( #60 ) ) ;
#176 = ORIENTED_EDGE ( 'NONE', *, *, #157, .T. ) ;
#177 = SURFACE_SIDE_STYLE ('',( #63 ) ) ;
#178 = AXIS2_PLACEMENT_3D ( 'NONE', #29, #84, #233 ) ;
#179 = ORIENTED_EDGE ( 'NONE', *, *, #196, .F. ) ;
#180 = ORIENTED_EDGE ( 'NONE', *, *, #70, .F. ) ;
#181 = ORIENTED_EDGE ( 'NONE', *, *, #73, .T. ) ;
#182 = ADVANCED_FACE ( 'NONE', ( #315 ), #1, .F. ) ;
#183 = VECTOR ( 'NONE', #17, 1000.000000000000000 ) ;
#184 = ORIENTED_EDGE ( 'NONE', *, *, #196, .T. ) ;
#185 =( GEOMETRIC_REPRESENTATION_CONTEXT ( 3 ) GLOBAL_UNCERTAINTY_ASSIGNED_CONTEXT ( ( #9 ) ) GLOBAL_UNIT_ASSIGNED_CONTEXT ( ( #117, #331, #301 ) ) REPRESENTATION_CONTEXT ( 'NONE', 'WORKASPACE' ) );
#186 = CARTESIAN_POINT ( 'NONE',  ( 5.000000000000000000, 63.00000000000000000, 6.123233995736762338E-16 ) ) ;
#187 = DIRECTION ( 'NONE',  ( 0.000000000000000000, 0.000000000000000000, -1.000000000000000000 ) ) ;
#188 = DIRECTION ( 'NONE',  ( 4.697880814296055710E-17, -1.000000000000000000, 0.000000000000000000 ) ) ;
#189 =( LENGTH_UNIT ( ) NAMED_UNIT ( * ) SI_UNIT ( .MILLI., .METRE. ) );
#190 = FACE_OUTER_BOUND ( 'NONE', #111, .T. ) ;
#191 = EDGE_CURVE ( 'NONE', #36, #234, #97, .T. ) ;
#192 = DIRECTION ( 'NONE',  ( -4.697880814296055710E-17, 1.000000000000000000, -0.000000000000000000 ) ) ;
#193 = CLOSED_SHELL ( 'NONE', ( #114, #182, #140, #334 ) ) ;
#194 = CARTESIAN_POINT ( 'NONE',  ( 0.000000000000000000, 0.5000000000000000000, 0.000000000000000000 ) ) ;
#195 = PRESENTATION_STYLE_ASSIGNMENT (( #345 ) ) ;
#196 = EDGE_CURVE ( 'NONE', #234, #36, #136, .T. ) ;
#197 = EDGE_CURVE ( 'NONE', #310, #234, #215, .T. ) ;
#198 = FILL_AREA_STYLE_COLOUR ( '', #217 ) ;
#199 = DIRECTION ( 'NONE',  ( 0.000000000000000000, 0.000000000000000000, -1.000000000000000000 ) ) ;
#200 = LINE ( 'NONE', #89, #341 ) ;
#201 = ORIENTED_EDGE ( 'NONE', *, *, #202, .T. ) ;
#202 = EDGE_CURVE ( 'NONE', #216, #310, #238, .T. ) ;
#203 = ORIENTED_EDGE ( 'NONE', *, *, #266, .F. ) ;
#204 = CIRCLE ( 'NONE', #309, 5.000000000000000000 ) ;
#205 = SURFACE_SIDE_STYLE ('',( #279 ) ) ;
#206 = EDGE_CURVE ( 'NONE', #123, #332, #251, .T. ) ;
#207 = CARTESIAN_POINT ( 'NONE',  ( 3.184081677783117402E-15, 63.00000000000000000, 0.000000000000000000 ) ) ;
#208 = TOROIDAL_SURFACE ( 'NONE', #370, 4.500000000000000888, 0.4999999999999997780 ) ;
#209 = EDGE_CURVE ( 'NONE', #54, #123, #366, .T. ) ;
#210 = ORIENTED_EDGE ( 'NONE', *, *, #206, .F. ) ;
#211 = UNCERTAINTY_MEASURE_WITH_UNIT (LENGTH_MEASURE( 1.000000000000000082E-05 ), #329, 'distance_accuracy_value', 'NONE');
#212 = EDGE_LOOP ( 'NONE', ( #250, #33 ) ) ;
#213 = FACE_OUTER_BOUND ( 'NONE', #241, .T. ) ;
#214 = DIRECTION ( 'NONE',  ( 0.000000000000000000, 0.000000000000000000, -1.000000000000000000 ) ) ;
#215 = CIRCLE ( 'NONE', #170, 0.4999999999999995559 ) ;
#216 = VERTEX_POINT ( 'NONE', #283 ) ;
#217 = COLOUR_RGB ( '',1.000000000000000000, 0.000000000000000000, 0.000000000000000000 ) ;
#218 = DIRECTION ( 'NONE',  ( -4.697880814296055710E-17, 1.000000000000000000, -0.000000000000000000 ) ) ;
#219 = CARTESIAN_POINT ( 'NONE',  ( 3.184081677783117402E-15, 63.00000000000000000, 0.000000000000000000 ) ) ;
#220 = SURFACE_STYLE_USAGE ( .BOTH. , #163 ) ;
#221 = DIRECTION ( 'NONE',  ( -1.224646799147353454E-16, 0.000000000000000000, -1.000000000000000000 ) ) ;
#222 = AXIS2_PLACEMENT_3D ( 'NONE', #364, #166, #134 ) ;
#223 =( GEOMETRIC_REPRESENTATION_CONTEXT ( 3 ) GLOBAL_UNCERTAINTY_ASSIGNED_CONTEXT ( ( #226 ) ) GLOBAL_UNIT_ASSIGNED_CONTEXT ( ( #55, #324, #263 ) ) REPRESENTATION_CONTEXT ( 'NONE', 'WORKASPACE' ) );
#224 = FACE_OUTER_BOUND ( 'NONE', #61, .T. ) ;
#225 = ADVANCED_FACE ( 'NONE', ( #224 ), #21, .T. ) ;
#226 = UNCERTAINTY_MEASURE_WITH_UNIT (LENGTH_MEASURE( 1.000000000000000082E-05 ), #55, 'distance_accuracy_value', 'NONE');
#227 = CARTESIAN_POINT ( 'NONE',  ( 0.000000000000000000, 0.000000000000000000, 0.000000000000000000 ) ) ;
#228 = FACE_OUTER_BOUND ( 'NONE', #120, .T. ) ;
#229 = PRESENTATION_LAYER_ASSIGNMENT (  '', '', ( #18 ) ) ;
#230 = COLOUR_RGB ( '',1.000000000000000000, 0.000000000000000000, 0.000000000000000000 ) ;
#231 =( NAMED_UNIT ( * ) SI_UNIT ( $, .STERADIAN. ) SOLID_ANGLE_UNIT ( ) );
#232 = MECHANICAL_DESIGN_GEOMETRIC_PRESENTATION_REPRESENTATION (  '', ( #268 ), #58 ) ;
#233 = DIRECTION ( 'NONE',  ( 0.000000000000000000, 0.000000000000000000, -1.000000000000000000 ) ) ;
#234 = VERTEX_POINT ( 'NONE', #31 ) ;
#235 =( NAMED_UNIT ( * ) PLANE_ANGLE_UNIT ( ) SI_UNIT ( $, .RADIAN. ) );
#236 = DIRECTION ( 'NONE',  ( 0.000000000000000000, 1.000000000000000000, 0.000000000000000000 ) ) ;
#237 = PRODUCT ( '59741', '59741', '', ( #95 ) ) ;
#238 = CIRCLE ( 'NONE', #131, 5.000000000000000000 ) ;
#239 = SURFACE_STYLE_USAGE ( .BOTH. , #145 ) ;
#240 =( NAMED_UNIT ( * ) PLANE_ANGLE_UNIT ( ) SI_UNIT ( $, .RADIAN. ) );
#241 = EDGE_LOOP ( 'NONE', ( #181, #246, #307, #357 ) ) ;
#242 = ORIENTED_EDGE ( 'NONE', *, *, #191, .T. ) ;
#243 = AXIS2_PLACEMENT_3D ( 'NONE', #76, #344, #75 ) ;
#244 = FILL_AREA_STYLE_COLOUR ( '', #42 ) ;
#245 = AXIS2_PLACEMENT_3D ( 'NONE', #160, #129, #109 ) ;
#246 = ORIENTED_EDGE ( 'NONE', *, *, #2, .T. ) ;
#247 = EDGE_CURVE ( 'NONE', #62, #332, #7, .T. ) ;
#248 = SURFACE_STYLE_FILL_AREA ( #358 ) ;
#249 = ORIENTED_EDGE ( 'NONE', *, *, #209, .F. ) ;
#250 = ORIENTED_EDGE ( 'NONE', *, *, #206, .T. ) ;
#251 = CIRCLE ( 'NONE', #361, 4.999999999999996447 ) ;
#252 = SURFACE_SIDE_STYLE ('',( #130 ) ) ;
#253 = AXIS2_PLACEMENT_3D ( 'NONE', #311, #254, #99 ) ;
#254 = DIRECTION ( 'NONE',  ( 0.000000000000000000, 0.000000000000000000, 1.000000000000000000 ) ) ;
#255 = DIRECTION ( 'NONE',  ( -1.000000000000000000, 0.000000000000000000, 0.000000000000000000 ) ) ;
#256 = CYLINDRICAL_SURFACE ( 'NONE', #222, 4.999999999999995559 ) ;
#257 = ADVANCED_FACE ( 'NONE', ( #228 ), #292, .T. ) ;
#258 = DIRECTION ( 'NONE',  ( -4.697880814296055710E-17, 1.000000000000000000, -0.000000000000000000 ) ) ;
#259 =( GEOMETRIC_REPRESENTATION_CONTEXT ( 3 ) GLOBAL_UNCERTAINTY_ASSIGNED_CONTEXT ( ( #312 ) ) GLOBAL_UNIT_ASSIGNED_CONTEXT ( ( #189, #135, #106 ) ) REPRESENTATION_CONTEXT ( 'NONE', 'WORKASPACE' ) );
#260 = DIRECTION ( 'NONE',  ( 0.000000000000000000, 0.000000000000000000, -1.000000000000000000 ) ) ;
#261 = SURFACE_STYLE_USAGE ( .BOTH. , #112 ) ;
#262 = CYLINDRICAL_SURFACE ( 'NONE', #333, 5.000000000000000000 ) ;
#263 =( NAMED_UNIT ( * ) SI_UNIT ( $, .STERADIAN. ) SOLID_ANGLE_UNIT ( ) );
#264 = COLOUR_RGB ( '',1.000000000000000000, 0.000000000000000000, 0.000000000000000000 ) ;
#265 = ORIENTED_EDGE ( 'NONE', *, *, #367, .T. ) ;
#266 = EDGE_CURVE ( 'NONE', #150, #173, #204, .T. ) ;
#267 = AXIS2_PLACEMENT_3D ( 'NONE', #288, #23, #260 ) ;
#268 = STYLED_ITEM ( 'NONE', ( #39 ), #278 ) ;
#269 = DIRECTION ( 'NONE',  ( -1.000000000000000000, 0.000000000000000000, 0.000000000000000000 ) ) ;
#270 = PRODUCT_DEFINITION_SHAPE ( 'NONE', 'NONE',  #13 ) ;
#271 = DIRECTION ( 'NONE',  ( -1.000000000000000000, 0.000000000000000000, 0.000000000000000000 ) ) ;
#272 = ADVANCED_FACE ( 'NONE', ( #347 ), #208, .T. ) ;
#273 = CARTESIAN_POINT ( 'NONE',  ( 0.000000000000000000, 0.5000000000000000000, 0.000000000000000000 ) ) ;
#274 = FACE_OUTER_BOUND ( 'NONE', #360, .T. ) ;
#275 = STYLED_ITEM ( 'NONE', ( #195 ), #225 ) ;
#276 = PRESENTATION_STYLE_ASSIGNMENT (( #239 ) ) ;
#277 = ORIENTED_EDGE ( 'NONE', *, *, #2, .F. ) ;
#278 = MANIFOLD_SOLID_BREP ( 'Revolve - Cutting Edge', #47 ) ;
#279 = SURFACE_STYLE_FILL_AREA ( #158 ) ;
#280 = CARTESIAN_POINT ( 'NONE',  ( 0.000000000000000000, 20.00000000000000000, 0.000000000000000000 ) ) ;
#281 = MANIFOLD_SOLID_BREP ( 'Revolve - Tool Body (Straight Shanked)', #193 ) ;
#282 = PLANE ( 'NONE',  #328 ) ;
#283 = CARTESIAN_POINT ( 'NONE',  ( 0.000000000000000000, 0.5000000000000000000, -5.000000000000000000 ) ) ;
#284 = SHAPE_DEFINITION_REPRESENTATION ( #270, #350 ) ;
#285 = AXIS2_PLACEMENT_3D ( 'NONE', #207, #152, #90 ) ;
#286 = STYLED_ITEM ( 'NONE', ( #172 ), #272 ) ;
#287 = CARTESIAN_POINT ( 'NONE',  ( 5.510910596163089556E-16, 0.5000000000000000000, 4.500000000000000888 ) ) ;
#288 = CARTESIAN_POINT ( 'NONE',  ( 0.000000000000000000, 0.5000000000000000000, 0.000000000000000000 ) ) ;
#289 = FACE_OUTER_BOUND ( 'NONE', #336, .T. ) ;
#290 = MECHANICAL_DESIGN_GEOMETRIC_PRESENTATION_REPRESENTATION (  '', ( #68 ), #116 ) ;
#291 = FILL_AREA_STYLE ('',( #314 ) ) ;
#292 = PLANE ( 'NONE',  #327 ) ;
#293 = SURFACE_STYLE_USAGE ( .BOTH. , #165 ) ;
#294 =( LENGTH_UNIT ( ) NAMED_UNIT ( * ) SI_UNIT ( .MILLI., .METRE. ) );
#295 = STYLED_ITEM ( 'NONE', ( #175 ), #330 ) ;
#296 = SURFACE_STYLE_FILL_AREA ( #77 ) ;
#297 = EDGE_CURVE ( 'NONE', #173, #216, #200, .T. ) ;
#298 = DIRECTION ( 'NONE',  ( -4.697880814296055710E-17, 1.000000000000000000, -0.000000000000000000 ) ) ;
#299 = ORIENTED_EDGE ( 'NONE', *, *, #157, .F. ) ;
#300 = MECHANICAL_DESIGN_GEOMETRIC_PRESENTATION_REPRESENTATION (  '', ( #286 ), #223 ) ;
#301 =( NAMED_UNIT ( * ) SI_UNIT ( $, .STERADIAN. ) SOLID_ANGLE_UNIT ( ) );
#302 = ORIENTED_EDGE ( 'NONE', *, *, #247, .F. ) ;
#303 = CARTESIAN_POINT ( 'NONE',  ( 6.123233995736766282E-16, 0.5000000000000000000, 5.000000000000000000 ) ) ;
#304 = LINE ( 'NONE', #128, #183 ) ;
#305 = DIRECTION ( 'NONE',  ( 0.000000000000000000, 0.000000000000000000, -1.000000000000000000 ) ) ;
#306 = UNCERTAINTY_MEASURE_WITH_UNIT (LENGTH_MEASURE( 1.000000000000000082E-05 ), #294, 'distance_accuracy_value', 'NONE');
#307 = ORIENTED_EDGE ( 'NONE', *, *, #202, .F. ) ;
#308 = AXIS2_PLACEMENT_3D ( 'NONE', #94, #96, #271 ) ;
#309 = AXIS2_PLACEMENT_3D ( 'NONE', #353, #352, #86 ) ;
#310 = VERTEX_POINT ( 'NONE', #303 ) ;
#311 = CARTESIAN_POINT ( 'NONE',  ( 0.000000000000000000, 0.000000000000000000, 0.000000000000000000 ) ) ;
#312 = UNCERTAINTY_MEASURE_WITH_UNIT (LENGTH_MEASURE( 1.000000000000000082E-05 ), #189, 'distance_accuracy_value', 'NONE');
#313 = DIRECTION ( 'NONE',  ( -4.697880814296055710E-17, 1.000000000000000000, 0.000000000000000000 ) ) ;
#314 = FILL_AREA_STYLE_COLOUR ( '', #98 ) ;
#315 = FACE_OUTER_BOUND ( 'NONE', #41, .T. ) ;
#316 = CARTESIAN_POINT ( 'NONE',  ( 5.000000000000000000, 63.00000000000000000, 0.000000000000000000 ) ) ;
#317 = MECHANICAL_DESIGN_GEOMETRIC_PRESENTATION_REPRESENTATION (  '', ( #18 ), #104 ) ;
#318 =( GEOMETRIC_REPRESENTATION_CONTEXT ( 3 ) GLOBAL_UNCERTAINTY_ASSIGNED_CONTEXT ( ( #322 ) ) GLOBAL_UNIT_ASSIGNED_CONTEXT ( ( #133, #139, #231 ) ) REPRESENTATION_CONTEXT ( 'NONE', 'WORKASPACE' ) );
#319 = PRESENTATION_STYLE_ASSIGNMENT (( #220 ) ) ;
#320 = DIRECTION ( 'NONE',  ( -0.000000000000000000, -1.000000000000000000, -0.000000000000000000 ) ) ;
#321 = FILL_AREA_STYLE ('',( #28 ) ) ;
#322 = UNCERTAINTY_MEASURE_WITH_UNIT (LENGTH_MEASURE( 1.000000000000000082E-05 ), #133, 'distance_accuracy_value', 'NONE');
#323 = SURFACE_SIDE_STYLE ('',( #81 ) ) ;
#324 =( NAMED_UNIT ( * ) PLANE_ANGLE_UNIT ( ) SI_UNIT ( $, .RADIAN. ) );
#325 = DIRECTION ( 'NONE',  ( 0.000000000000000000, 0.000000000000000000, 1.000000000000000000 ) ) ;
#326 = FILL_AREA_STYLE ('',( #198 ) ) ;
#327 = AXIS2_PLACEMENT_3D ( 'NONE', #143, #236, #83 ) ;
#328 = AXIS2_PLACEMENT_3D ( 'NONE', #316, #188, #72 ) ;
#329 =( LENGTH_UNIT ( ) NAMED_UNIT ( * ) SI_UNIT ( .MILLI., .METRE. ) );
#330 = ADVANCED_FACE ( 'NONE', ( #213 ), #43, .T. ) ;
#331 =( NAMED_UNIT ( * ) PLANE_ANGLE_UNIT ( ) SI_UNIT ( $, .RADIAN. ) );
#332 = VERTEX_POINT ( 'NONE', #186 ) ;
#333 = AXIS2_PLACEMENT_3D ( 'NONE', #3, #101, #199 ) ;
#334 = ADVANCED_FACE ( 'NONE', ( #78 ), #282, .F. ) ;
#335 = FILL_AREA_STYLE ('',( #153 ) ) ;
#336 = EDGE_LOOP ( 'NONE', ( #337, #176, #265, #179 ) ) ;
#337 = ORIENTED_EDGE ( 'NONE', *, *, #197, .F. ) ;
#338 = DIRECTION ( 'NONE',  ( -0.000000000000000000, -1.000000000000000000, -0.000000000000000000 ) ) ;
#339 = ORIENTED_EDGE ( 'NONE', *, *, #191, .F. ) ;
#340 = AXIS2_PLACEMENT_3D ( 'NONE', #161, #46, #69 ) ;
#341 = VECTOR ( 'NONE', #338, 1000.000000000000000 ) ;
#342 = ORIENTED_EDGE ( 'NONE', *, *, #354, .T. ) ;
#343 = APPLICATION_PROTOCOL_DEFINITION ( 'draft international standard', 'automotive_design', 1998, #169 ) ;
#344 = DIRECTION ( 'NONE',  ( -0.000000000000000000, -1.000000000000000000, -0.000000000000000000 ) ) ;
#345 = SURFACE_STYLE_USAGE ( .BOTH. , #252 ) ;
#346 = CARTESIAN_POINT ( 'NONE',  ( 4.999999999999999112, 63.00000000000000000, 6.123233995736761352E-16 ) ) ;
#347 = FACE_OUTER_BOUND ( 'NONE', #44, .T. ) ;
#348 = VECTOR ( 'NONE', #192, 1000.000000000000000 ) ;
#349 = AXIS2_PLACEMENT_3D ( 'NONE', #4, #218, #365 ) ;
#350 = ADVANCED_BREP_SHAPE_REPRESENTATION ( '59741', ( #278, #281, #253 ), #48 ) ;
#351 = SURFACE_STYLE_FILL_AREA ( #291 ) ;
#352 = DIRECTION ( 'NONE',  ( -0.000000000000000000, -1.000000000000000000, -0.000000000000000000 ) ) ;
#353 = CARTESIAN_POINT ( 'NONE',  ( 0.000000000000000000, 20.00000000000000000, 0.000000000000000000 ) ) ;
#354 = EDGE_CURVE ( 'NONE', #54, #62, #156, .T. ) ;
#355 = FACE_OUTER_BOUND ( 'NONE', #30, .T. ) ;
#356 = ORIENTED_EDGE ( 'NONE', *, *, #113, .T. ) ;
#357 = ORIENTED_EDGE ( 'NONE', *, *, #297, .F. ) ;
#358 = FILL_AREA_STYLE ('',( #244 ) ) ;
#359 = ADVANCED_FACE ( 'NONE', ( #190 ), #262, .T. ) ;
#360 = EDGE_LOOP ( 'NONE', ( #302, #356, #93, #180 ) ) ;
#361 = AXIS2_PLACEMENT_3D ( 'NONE', #219, #258, #255 ) ;
#362 = APPLICATION_PROTOCOL_DEFINITION ( 'draft international standard', 'automotive_design', 1998, #144 ) ;
#363 = CIRCLE ( 'NONE', #110, 0.4999999999999995559 ) ;
#364 = CARTESIAN_POINT ( 'NONE',  ( 3.184081677783117402E-15, 63.00000000000000000, 0.000000000000000000 ) ) ;
#365 = DIRECTION ( 'NONE',  ( -1.000000000000000000, 0.000000000000000000, 0.000000000000000000 ) ) ;
#366 = LINE ( 'NONE', #51, #348 ) ;
#367 = EDGE_CURVE ( 'NONE', #216, #36, #363, .T. ) ;
#368 = CARTESIAN_POINT ( 'NONE',  ( 0.000000000000000000, 20.00000000000000000, -5.000000000000000000 ) ) ;
#369 = CIRCLE ( 'NONE', #10, 5.000000000000000000 ) ;
#370 = AXIS2_PLACEMENT_3D ( 'NONE', #273, #65, #305 ) ;
ENDSEC;
END-ISO-10303-21;
