ISO-10303-21;
HEADER;
FILE_DESCRIPTION (( 'STEP AP214' ),
    '1' );
FILE_NAME ('Micro_RDB-60.STEP',
    '2021-08-31T17:00:12',
    ( '' ),
    ( '' ),
    'SwSTEP 2.0',
    'SolidWorks 2020',
    '' );
FILE_SCHEMA (( 'AUTOMOTIVE_DESIGN' ));
ENDSEC;

DATA;
#1 = EDGE_CURVE ( 'NONE', #36, #194, #234, .T. ) ;
#2 =( GEOMETRIC_REPRESENTATION_CONTEXT ( 3 ) GLOBAL_UNCERTAINTY_ASSIGNED_CONTEXT ( ( #272 ) ) GLOBAL_UNIT_ASSIGNED_CONTEXT ( ( #34, #218, #83 ) ) REPRESENTATION_CONTEXT ( 'NONE', 'WORKASPACE' ) );
#3 = CIRCLE ( 'NONE', #188, 0.1250000000000000000 ) ;
#4 =( LENGTH_UNIT ( ) NAMED_UNIT ( * ) SI_UNIT ( $, .METRE. ) );
#5 = ADVANCED_FACE ( 'NONE', ( #235 ), #11, .T. ) ;
#6 = ORIENTED_EDGE ( 'NONE', *, *, #138, .F. ) ;
#7 = CYLINDRICAL_SURFACE ( 'NONE', #102, 0.1248750000000000276 ) ;
#8 = ORIENTED_EDGE ( 'NONE', *, *, #53, .T. ) ;
#9 = DIRECTION ( 'NONE',  ( -1.224646799147353207E-16, -0.0000000000000000000, -1.000000000000000000 ) ) ;
#10 = ORIENTED_EDGE ( 'NONE', *, *, #111, .F. ) ;
#11 = CONICAL_SURFACE ( 'NONE', #162, 0.1248750000000000276, 0.1745329251994337805 ) ;
#12 = ORIENTED_EDGE ( 'NONE', *, *, #146, .F. ) ;
#13 = APPLICATION_PROTOCOL_DEFINITION ( 'draft international standard', 'automotive_design', 1998, #255 ) ;
#14 = ORIENTED_EDGE ( 'NONE', *, *, #167, .T. ) ;
#15 = CARTESIAN_POINT ( 'NONE',  ( 0.0000000000000000000, 0.0000000000000000000, 0.0000000000000000000 ) ) ;
#16 = EDGE_CURVE ( 'NONE', #174, #287, #284, .T. ) ;
#17 = DIRECTION ( 'NONE',  ( 0.0000000000000000000, 0.0000000000000000000, -1.000000000000000000 ) ) ;
#18 = AXIS2_PLACEMENT_3D ( 'NONE', #132, #249, #20 ) ;
#19 = LENGTH_MEASURE_WITH_UNIT ( LENGTH_MEASURE( 0.02539999999999999897 ), #223 );
#20 = DIRECTION ( 'NONE',  ( -1.000000000000000000, 0.0000000000000000000, 1.224646799147353207E-16 ) ) ;
#21 = DIRECTION ( 'NONE',  ( -0.0000000000000000000, -0.0000000000000000000, -1.000000000000000000 ) ) ;
#22 = CARTESIAN_POINT ( 'NONE',  ( -0.1099999999999996397, 0.0000000000000000000, 2.000000000000000000 ) ) ;
#23 = CARTESIAN_POINT ( 'NONE',  ( 0.0000000000000000000, 0.0000000000000000000, 2.000000000000000000 ) ) ;
#24 = CONICAL_SURFACE ( 'NONE', #44, 0.1248750000000000276, 0.1745329251994337805 ) ;
#25 = DIRECTION ( 'NONE',  ( 1.000000000000000000, 0.0000000000000000000, 0.0000000000000000000 ) ) ;
#26 = ORIENTED_EDGE ( 'NONE', *, *, #53, .F. ) ;
#27 = CIRCLE ( 'NONE', #217, 0.1248749999999999999 ) ;
#28 = CARTESIAN_POINT ( 'NONE',  ( 9.193532640014470902E-17, 0.0000000000000000000, 0.7507089102274521197 ) ) ;
#29 = ORIENTED_EDGE ( 'NONE', *, *, #1, .T. ) ;
#30 = DIRECTION ( 'NONE',  ( -0.0000000000000000000, -0.0000000000000000000, -1.000000000000000000 ) ) ;
#31 = DIRECTION ( 'NONE',  ( 1.000000000000000000, 0.0000000000000000000, 0.0000000000000000000 ) ) ;
#32 = ADVANCED_FACE ( 'NONE', ( #262 ), #113, .T. ) ;
#33 = ORIENTED_EDGE ( 'NONE', *, *, #187, .F. ) ;
#34 =( CONVERSION_BASED_UNIT ( 'INCH', #19 ) LENGTH_UNIT ( ) NAMED_UNIT ( #239 ) );
#35 = AXIS2_PLACEMENT_3D ( 'NONE', #136, #21, #45 ) ;
#36 = VERTEX_POINT ( 'NONE', #158 ) ;
#37 = DIRECTION ( 'NONE',  ( -0.0000000000000000000, -0.0000000000000000000, -1.000000000000000000 ) ) ;
#38 = PLANE ( 'NONE',  #179 ) ;
#39 = SURFACE_SIDE_STYLE ('',( #293 ) ) ;
#40 = CYLINDRICAL_SURFACE ( 'NONE', #35, 0.1250000000000000000 ) ;
#41 = ADVANCED_FACE ( 'NONE', ( #203 ), #49, .T. ) ;
#42 = DIRECTION ( 'NONE',  ( -1.224646799147353207E-16, -0.0000000000000000000, -1.000000000000000000 ) ) ;
#43 = DIRECTION ( 'NONE',  ( 0.7071067811865434649, 8.659560562354883554E-17, -0.7071067811865515695 ) ) ;
#44 = AXIS2_PLACEMENT_3D ( 'NONE', #87, #230, #212 ) ;
#45 = DIRECTION ( 'NONE',  ( -1.000000000000000000, 0.0000000000000000000, 0.0000000000000000000 ) ) ;
#46 = EDGE_CURVE ( 'NONE', #130, #99, #27, .T. ) ;
#47 = CARTESIAN_POINT ( 'NONE',  ( 0.0000000000000000000, 0.0000000000000000000, 0.0000000000000000000 ) ) ;
#48 = EDGE_LOOP ( 'NONE', ( #169, #90, #215, #79 ) ) ;
#49 = CONICAL_SURFACE ( 'NONE', #143, 0.1099999999999996397, 0.7853981633974426169 ) ;
#50 = CIRCLE ( 'NONE', #241, 0.1250000000000000000 ) ;
#51 = DIRECTION ( 'NONE',  ( -1.000000000000000000, 0.0000000000000000000, 0.0000000000000000000 ) ) ;
#52 = AXIS2_PLACEMENT_3D ( 'NONE', #122, #149, #25 ) ;
#53 = EDGE_CURVE ( 'NONE', #99, #130, #114, .T. ) ;
#54 = ORIENTED_EDGE ( 'NONE', *, *, #128, .T. ) ;
#55 = ORIENTED_EDGE ( 'NONE', *, *, #16, .T. ) ;
#56 = ORIENTED_EDGE ( 'NONE', *, *, #290, .T. ) ;
#57 = DIRECTION ( 'NONE',  ( 1.000000000000000000, 0.0000000000000000000, 0.0000000000000000000 ) ) ;
#58 = DIRECTION ( 'NONE',  ( 0.0000000000000000000, 0.0000000000000000000, 1.000000000000000000 ) ) ;
#59 = DIRECTION ( 'NONE',  ( 0.0000000000000000000, 0.0000000000000000000, 1.000000000000000000 ) ) ;
#60 =( NAMED_UNIT ( * ) PLANE_ANGLE_UNIT ( ) SI_UNIT ( $, .RADIAN. ) );
#61 = CARTESIAN_POINT ( 'NONE',  ( 0.0000000000000000000, 0.0000000000000000000, 2.000000000000000000 ) ) ;
#62 = AXIS2_PLACEMENT_3D ( 'NONE', #23, #226, #51 ) ;
#63 = MANIFOLD_SOLID_BREP ( 'Cut-Revolve1', #91 ) ;
#64 = LENGTH_MEASURE_WITH_UNIT ( LENGTH_MEASURE( 0.02539999999999999897 ), #297 );
#65 = PRODUCT_DEFINITION_CONTEXT ( 'detailed design', #255, 'design' ) ;
#66 = CARTESIAN_POINT ( 'NONE',  ( -0.1249999999999999167, 0.0000000000000000000, 0.7507089102274521197 ) ) ;
#67 = DIRECTION ( 'NONE',  ( -1.224646799147353207E-16, -0.0000000000000000000, -1.000000000000000000 ) ) ;
#68 = CIRCLE ( 'NONE', #52, 0.1250000000000000000 ) ;
#69 = CARTESIAN_POINT ( 'NONE',  ( 0.1250000000000000000, 1.530808498934191509E-17, 1.984999999999999432 ) ) ;
#70 = VECTOR ( 'NONE', #189, 39.37007874015748143 ) ;
#71 = DIRECTION ( 'NONE',  ( 1.000000000000000000, 0.0000000000000000000, -0.0000000000000000000 ) ) ;
#72 = CARTESIAN_POINT ( 'NONE',  ( 0.0000000000000000000, 0.0000000000000000000, 2.000000000000000000 ) ) ;
#73 = DIRECTION ( 'NONE',  ( -1.224646799147353207E-16, -0.0000000000000000000, -1.000000000000000000 ) ) ;
#74 = ORIENTED_EDGE ( 'NONE', *, *, #46, .T. ) ;
#75 = VECTOR ( 'NONE', #145, 39.37007874015748143 ) ;
#76 = DIRECTION ( 'NONE',  ( -0.1736481776669310528, 2.126576849575781776E-17, 0.9848077530122080203 ) ) ;
#77 = PRODUCT_CONTEXT ( 'NONE', #275, 'mechanical' ) ;
#78 = ORIENTED_EDGE ( 'NONE', *, *, #128, .F. ) ;
#79 = ORIENTED_EDGE ( 'NONE', *, *, #173, .F. ) ;
#80 = EDGE_CURVE ( 'NONE', #174, #258, #228, .T. ) ;
#81 = FILL_AREA_STYLE ('',( #197 ) ) ;
#82 = CARTESIAN_POINT ( 'NONE',  ( 0.0000000000000000000, 0.0000000000000000000, 2.000000000000000000 ) ) ;
#83 =( NAMED_UNIT ( * ) SI_UNIT ( $, .STERADIAN. ) SOLID_ANGLE_UNIT ( ) );
#84 = DIRECTION ( 'NONE',  ( -1.000000000000000000, 0.0000000000000000000, 1.224646799147353454E-16 ) ) ;
#85 = DIRECTION ( 'NONE',  ( -1.000000000000000000, 0.0000000000000000000, 0.0000000000000000000 ) ) ;
#86 = MECHANICAL_DESIGN_GEOMETRIC_PRESENTATION_REPRESENTATION (  '', ( #256 ), #251 ) ;
#87 = CARTESIAN_POINT ( 'NONE',  ( 9.184850993605150903E-17, 0.0000000000000000000, 0.7500000000000001110 ) ) ;
#88 = EDGE_CURVE ( 'NONE', #194, #36, #225, .T. ) ;
#89 = LINE ( 'NONE', #170, #70 ) ;
#90 = ORIENTED_EDGE ( 'NONE', *, *, #118, .T. ) ;
#91 = CLOSED_SHELL ( 'NONE', ( #200, #178, #106, #233, #119, #116, #41, #5, #32, #286 ) ) ;
#92 = CIRCLE ( 'NONE', #266, 0.1248750000000000276 ) ;
#93 = ORIENTED_EDGE ( 'NONE', *, *, #16, .F. ) ;
#94 = PRODUCT_RELATED_PRODUCT_CATEGORY ( 'part', '', ( #274 ) ) ;
#95 = FACE_OUTER_BOUND ( 'NONE', #191, .T. ) ;
#96 = EDGE_LOOP ( 'NONE', ( #6, #198, #152, #125 ) ) ;
#97 = DIMENSIONAL_EXPONENTS ( 1.000000000000000000, 0.0000000000000000000, 0.0000000000000000000, 0.0000000000000000000, 0.0000000000000000000, 0.0000000000000000000, 0.0000000000000000000 ) ;
#98 = FACE_OUTER_BOUND ( 'NONE', #123, .T. ) ;
#99 = VERTEX_POINT ( 'NONE', #271 ) ;
#100 = AXIS2_PLACEMENT_3D ( 'NONE', #72, #237, #31 ) ;
#101 = DIMENSIONAL_EXPONENTS ( 1.000000000000000000, 0.0000000000000000000, 0.0000000000000000000, 0.0000000000000000000, 0.0000000000000000000, 0.0000000000000000000, 0.0000000000000000000 ) ;
#102 = AXIS2_PLACEMENT_3D ( 'NONE', #161, #9, #193 ) ;
#103 =( NAMED_UNIT ( * ) PLANE_ANGLE_UNIT ( ) SI_UNIT ( $, .RADIAN. ) );
#104 = EDGE_LOOP ( 'NONE', ( #14, #56, #282, #10 ) ) ;
#105 = PRESENTATION_STYLE_ASSIGNMENT (( #263 ) ) ;
#106 = ADVANCED_FACE ( 'NONE', ( #183 ), #294, .T. ) ;
#107 = VERTEX_POINT ( 'NONE', #224 ) ;
#108 = FILL_AREA_STYLE ('',( #242 ) ) ;
#109 = PRESENTATION_LAYER_ASSIGNMENT (  '', '', ( #256 ) ) ;
#110 = FACE_OUTER_BOUND ( 'NONE', #48, .T. ) ;
#111 = EDGE_CURVE ( 'NONE', #288, #287, #155, .T. ) ;
#112 = DIRECTION ( 'NONE',  ( 1.000000000000000000, 0.0000000000000000000, 0.0000000000000000000 ) ) ;
#113 = CYLINDRICAL_SURFACE ( 'NONE', #18, 0.1248750000000000276 ) ;
#114 = CIRCLE ( 'NONE', #209, 0.1248749999999999999 ) ;
#115 = DIRECTION ( 'NONE',  ( -1.000000000000000000, 0.0000000000000000000, 1.224646799147353454E-16 ) ) ;
#116 = ADVANCED_FACE ( 'NONE', ( #131 ), #38, .T. ) ;
#117 = CARTESIAN_POINT ( 'NONE',  ( 0.1250000000000000000, 1.530808498934191509E-17, 2.000000000000000000 ) ) ;
#118 = EDGE_CURVE ( 'NONE', #153, #288, #159, .T. ) ;
#119 = ADVANCED_FACE ( 'NONE', ( #110 ), #40, .T. ) ;
#120 = ORIENTED_EDGE ( 'NONE', *, *, #88, .T. ) ;
#121 = STYLED_ITEM ( 'NONE', ( #105 ), #220 ) ;
#122 = CARTESIAN_POINT ( 'NONE',  ( 9.193532640014470902E-17, 0.0000000000000000000, 0.7507089102274521197 ) ) ;
#123 = EDGE_LOOP ( 'NONE', ( #8, #74 ) ) ;
#124 = CARTESIAN_POINT ( 'NONE',  ( -0.1248750000000000276, 0.0000000000000000000, 1.529277690435257783E-17 ) ) ;
#125 = ORIENTED_EDGE ( 'NONE', *, *, #46, .F. ) ;
#126 = EDGE_LOOP ( 'NONE', ( #120, #29 ) ) ;
#127 = AXIS2_PLACEMENT_3D ( 'NONE', #185, #160, #112 ) ;
#128 = EDGE_CURVE ( 'NONE', #36, #153, #208, .T. ) ;
#129 = PRESENTATION_LAYER_ASSIGNMENT (  '', '', ( #121 ) ) ;
#130 = VERTEX_POINT ( 'NONE', #163 ) ;
#131 = FACE_OUTER_BOUND ( 'NONE', #126, .T. ) ;
#132 = CARTESIAN_POINT ( 'NONE',  ( 0.0000000000000000000, 0.0000000000000000000, 0.0000000000000000000 ) ) ;
#133 =( NAMED_UNIT ( * ) SI_UNIT ( $, .STERADIAN. ) SOLID_ANGLE_UNIT ( ) );
#134 = MECHANICAL_DESIGN_GEOMETRIC_PRESENTATION_REPRESENTATION (  '', ( #121 ), #2 ) ;
#135 =( CONVERSION_BASED_UNIT ( 'INCH', #64 ) LENGTH_UNIT ( ) NAMED_UNIT ( #97 ) );
#136 = CARTESIAN_POINT ( 'NONE',  ( 0.0000000000000000000, 0.0000000000000000000, 2.000000000000000000 ) ) ;
#137 = DIRECTION ( 'NONE',  ( -1.224646799147353207E-16, -0.0000000000000000000, -1.000000000000000000 ) ) ;
#138 = EDGE_CURVE ( 'NONE', #258, #130, #140, .T. ) ;
#139 = VECTOR ( 'NONE', #37, 39.37007874015748143 ) ;
#140 = LINE ( 'NONE', #276, #154 ) ;
#141 = CYLINDRICAL_SURFACE ( 'NONE', #62, 0.1250000000000000000 ) ;
#142 = PRODUCT_DEFINITION ( 'UNKNOWN', '', #164, #65 ) ;
#143 = AXIS2_PLACEMENT_3D ( 'NONE', #204, #17, #85 ) ;
#144 = FACE_OUTER_BOUND ( 'NONE', #192, .T. ) ;
#145 = DIRECTION ( 'NONE',  ( -1.224646799147353207E-16, -0.0000000000000000000, -1.000000000000000000 ) ) ;
#146 = EDGE_CURVE ( 'NONE', #258, #174, #92, .T. ) ;
#147 = EDGE_LOOP ( 'NONE', ( #93, #12, #177, #211 ) ) ;
#148 = AXIS2_PLACEMENT_3D ( 'NONE', #82, #180, #267 ) ;
#149 = DIRECTION ( 'NONE',  ( -1.224646799147353207E-16, -0.0000000000000000000, -1.000000000000000000 ) ) ;
#150 = ORIENTED_EDGE ( 'NONE', *, *, #80, .T. ) ;
#151 = SHAPE_DEFINITION_REPRESENTATION ( #247, #220 ) ;
#152 = ORIENTED_EDGE ( 'NONE', *, *, #187, .T. ) ;
#153 = VERTEX_POINT ( 'NONE', #69 ) ;
#154 = VECTOR ( 'NONE', #67, 39.37007874015748143 ) ;
#155 = LINE ( 'NONE', #268, #139 ) ;
#156 = EDGE_CURVE ( 'NONE', #194, #288, #89, .T. ) ;
#157 = DIRECTION ( 'NONE',  ( 1.000000000000000000, 0.0000000000000000000, -0.0000000000000000000 ) ) ;
#158 = CARTESIAN_POINT ( 'NONE',  ( 0.1099999999999996397, 1.438959988998137757E-17, 2.000000000000000000 ) ) ;
#159 = CIRCLE ( 'NONE', #166, 0.1250000000000000000 ) ;
#160 = DIRECTION ( 'NONE',  ( 0.0000000000000000000, 0.0000000000000000000, 1.000000000000000000 ) ) ;
#161 = CARTESIAN_POINT ( 'NONE',  ( 0.0000000000000000000, 0.0000000000000000000, 0.0000000000000000000 ) ) ;
#162 = AXIS2_PLACEMENT_3D ( 'NONE', #265, #196, #57 ) ;
#163 = CARTESIAN_POINT ( 'NONE',  ( 0.1248749999999999999, 1.529277690435257475E-17, 1.895600338963814870E-33 ) ) ;
#164 = PRODUCT_DEFINITION_FORMATION_WITH_SPECIFIED_SOURCE ( 'ANY', '', #274, .NOT_KNOWN. ) ;
#165 = DIRECTION ( 'NONE',  ( -1.000000000000000000, 0.0000000000000000000, 0.0000000000000000000 ) ) ;
#166 = AXIS2_PLACEMENT_3D ( 'NONE', #244, #182, #222 ) ;
#167 = EDGE_CURVE ( 'NONE', #288, #153, #3, .T. ) ;
#168 = LINE ( 'NONE', #117, #277 ) ;
#169 = ORIENTED_EDGE ( 'NONE', *, *, #290, .F. ) ;
#170 = CARTESIAN_POINT ( 'NONE',  ( -0.1099999999999996397, 0.0000000000000000000, 2.000000000000000000 ) ) ;
#171 = ORIENTED_EDGE ( 'NONE', *, *, #167, .F. ) ;
#172 = AXIS2_PLACEMENT_3D ( 'NONE', #47, #195, #71 ) ;
#173 = EDGE_CURVE ( 'NONE', #107, #287, #50, .T. ) ;
#174 = VERTEX_POINT ( 'NONE', #259 ) ;
#175 = SURFACE_STYLE_FILL_AREA ( #81 ) ;
#176 = ORIENTED_EDGE ( 'NONE', *, *, #88, .F. ) ;
#177 = ORIENTED_EDGE ( 'NONE', *, *, #296, .T. ) ;
#178 = ADVANCED_FACE ( 'NONE', ( #95 ), #24, .T. ) ;
#179 = AXIS2_PLACEMENT_3D ( 'NONE', #61, #58, #157 ) ;
#180 = DIRECTION ( 'NONE',  ( 0.0000000000000000000, 0.0000000000000000000, -1.000000000000000000 ) ) ;
#181 =( CONVERSION_BASED_UNIT ( 'INCH', #279 ) LENGTH_UNIT ( ) NAMED_UNIT ( #101 ) );
#182 = DIRECTION ( 'NONE',  ( 0.0000000000000000000, 0.0000000000000000000, -1.000000000000000000 ) ) ;
#183 = FACE_OUTER_BOUND ( 'NONE', #216, .T. ) ;
#184 = UNCERTAINTY_MEASURE_WITH_UNIT (LENGTH_MEASURE( 1.000000000000000082E-05 ), #181, 'distance_accuracy_value', 'NONE');
#185 = CARTESIAN_POINT ( 'NONE',  ( 0.0000000000000000000, 0.0000000000000000000, 2.000000000000000000 ) ) ;
#186 = DIRECTION ( 'NONE',  ( 0.0000000000000000000, 0.0000000000000000000, -1.000000000000000000 ) ) ;
#187 = EDGE_CURVE ( 'NONE', #174, #99, #210, .T. ) ;
#188 = AXIS2_PLACEMENT_3D ( 'NONE', #232, #186, #257 ) ;
#189 = DIRECTION ( 'NONE',  ( -0.7071067811865434649, 0.0000000000000000000, -0.7071067811865515695 ) ) ;
#190 = VECTOR ( 'NONE', #273, 39.37007874015748143 ) ;
#191 = EDGE_LOOP ( 'NONE', ( #213, #55, #260, #278 ) ) ;
#192 = EDGE_LOOP ( 'NONE', ( #150, #280, #26, #33 ) ) ;
#193 = DIRECTION ( 'NONE',  ( -1.000000000000000000, 0.0000000000000000000, 1.224646799147353207E-16 ) ) ;
#194 = VERTEX_POINT ( 'NONE', #22 ) ;
#195 = DIRECTION ( 'NONE',  ( 0.0000000000000000000, 0.0000000000000000000, 1.000000000000000000 ) ) ;
#196 = DIRECTION ( 'NONE',  ( 1.224646799147353207E-16, 0.0000000000000000000, 1.000000000000000000 ) ) ;
#197 = FILL_AREA_STYLE_COLOUR ( '', #202 ) ;
#198 = ORIENTED_EDGE ( 'NONE', *, *, #146, .T. ) ;
#199 = ORIENTED_EDGE ( 'NONE', *, *, #118, .F. ) ;
#200 = ADVANCED_FACE ( 'NONE', ( #144 ), #7, .T. ) ;
#201 = AXIS2_PLACEMENT_3D ( 'NONE', #289, #248, #270 ) ;
#202 = COLOUR_RGB ( '',0.7921568627450980005, 0.8196078431372548767, 0.9333333333333333481 ) ;
#203 = FACE_OUTER_BOUND ( 'NONE', #238, .T. ) ;
#204 = CARTESIAN_POINT ( 'NONE',  ( 0.0000000000000000000, 0.0000000000000000000, 2.000000000000000000 ) ) ;
#205 = VECTOR ( 'NONE', #43, 39.37007874015748143 ) ;
#206 = PRESENTATION_STYLE_ASSIGNMENT (( #292 ) ) ;
#207 = LINE ( 'NONE', #298, #190 ) ;
#208 = LINE ( 'NONE', #281, #205 ) ;
#209 = AXIS2_PLACEMENT_3D ( 'NONE', #291, #137, #84 ) ;
#210 = LINE ( 'NONE', #124, #75 ) ;
#211 = ORIENTED_EDGE ( 'NONE', *, *, #173, .T. ) ;
#212 = DIRECTION ( 'NONE',  ( 1.000000000000000000, 0.0000000000000000000, 0.0000000000000000000 ) ) ;
#213 = ORIENTED_EDGE ( 'NONE', *, *, #80, .F. ) ;
#214 = CARTESIAN_POINT ( 'NONE',  ( 0.1248750000000001109, 0.0000000000000000000, 0.7500000000000001110 ) ) ;
#215 = ORIENTED_EDGE ( 'NONE', *, *, #111, .T. ) ;
#216 = EDGE_LOOP ( 'NONE', ( #240, #54, #171, #264 ) ) ;
#217 = AXIS2_PLACEMENT_3D ( 'NONE', #246, #42, #115 ) ;
#218 =( NAMED_UNIT ( * ) PLANE_ANGLE_UNIT ( ) SI_UNIT ( $, .RADIAN. ) );
#219 = ORIENTED_EDGE ( 'NONE', *, *, #156, .T. ) ;
#220 = ADVANCED_BREP_SHAPE_REPRESENTATION ( 'Micro_RDB-60', ( #63, #229 ), #295 ) ;
#221 =( NAMED_UNIT ( * ) SI_UNIT ( $, .STERADIAN. ) SOLID_ANGLE_UNIT ( ) );
#222 = DIRECTION ( 'NONE',  ( 1.000000000000000000, 0.0000000000000000000, 0.0000000000000000000 ) ) ;
#223 =( LENGTH_UNIT ( ) NAMED_UNIT ( * ) SI_UNIT ( $, .METRE. ) );
#224 = CARTESIAN_POINT ( 'NONE',  ( 0.1250000000000000833, 1.530808498934192433E-17, 0.7507089102274521197 ) ) ;
#225 = CIRCLE ( 'NONE', #127, 0.1099999999999996397 ) ;
#226 = DIRECTION ( 'NONE',  ( -0.0000000000000000000, -0.0000000000000000000, -1.000000000000000000 ) ) ;
#227 = DIRECTION ( 'NONE',  ( -1.224646799147353207E-16, -0.0000000000000000000, -1.000000000000000000 ) ) ;
#228 = CIRCLE ( 'NONE', #201, 0.1248750000000000276 ) ;
#229 = AXIS2_PLACEMENT_3D ( 'NONE', #15, #59, #285 ) ;
#230 = DIRECTION ( 'NONE',  ( 1.224646799147353207E-16, 0.0000000000000000000, 1.000000000000000000 ) ) ;
#231 = CARTESIAN_POINT ( 'NONE',  ( -0.1248749999999999444, 1.529277690435257783E-17, 0.7500000000000001110 ) ) ;
#232 = CARTESIAN_POINT ( 'NONE',  ( 0.0000000000000000000, 0.0000000000000000000, 1.984999999999999432 ) ) ;
#233 = ADVANCED_FACE ( 'NONE', ( #253 ), #141, .T. ) ;
#234 = CIRCLE ( 'NONE', #100, 0.1099999999999996397 ) ;
#235 = FACE_OUTER_BOUND ( 'NONE', #147, .T. ) ;
#236 = PLANE ( 'NONE',  #172 ) ;
#237 = DIRECTION ( 'NONE',  ( 0.0000000000000000000, 0.0000000000000000000, 1.000000000000000000 ) ) ;
#238 = EDGE_LOOP ( 'NONE', ( #78, #176, #219, #199 ) ) ;
#239 = DIMENSIONAL_EXPONENTS ( 1.000000000000000000, 0.0000000000000000000, 0.0000000000000000000, 0.0000000000000000000, 0.0000000000000000000, 0.0000000000000000000, 0.0000000000000000000 ) ;
#240 = ORIENTED_EDGE ( 'NONE', *, *, #1, .F. ) ;
#241 = AXIS2_PLACEMENT_3D ( 'NONE', #28, #227, #254 ) ;
#242 = FILL_AREA_STYLE_COLOUR ( '', #269 ) ;
#243 = UNCERTAINTY_MEASURE_WITH_UNIT (LENGTH_MEASURE( 1.000000000000000082E-05 ), #135, 'distance_accuracy_value', 'NONE');
#244 = CARTESIAN_POINT ( 'NONE',  ( 0.0000000000000000000, 0.0000000000000000000, 1.984999999999999432 ) ) ;
#245 = APPLICATION_PROTOCOL_DEFINITION ( 'draft international standard', 'automotive_design', 1998, #275 ) ;
#246 = CARTESIAN_POINT ( 'NONE',  ( 1.872825028598994811E-33, 0.0000000000000000000, 1.529277690435257475E-17 ) ) ;
#247 = PRODUCT_DEFINITION_SHAPE ( 'NONE', 'NONE',  #142 ) ;
#248 = DIRECTION ( 'NONE',  ( -1.224646799147353207E-16, -0.0000000000000000000, -1.000000000000000000 ) ) ;
#249 = DIRECTION ( 'NONE',  ( -1.224646799147353207E-16, -0.0000000000000000000, -1.000000000000000000 ) ) ;
#250 = CARTESIAN_POINT ( 'NONE',  ( -0.1250000000000000000, 0.0000000000000000000, 1.984999999999999432 ) ) ;
#251 =( GEOMETRIC_REPRESENTATION_CONTEXT ( 3 ) GLOBAL_UNCERTAINTY_ASSIGNED_CONTEXT ( ( #243 ) ) GLOBAL_UNIT_ASSIGNED_CONTEXT ( ( #135, #60, #221 ) ) REPRESENTATION_CONTEXT ( 'NONE', 'WORKASPACE' ) );
#252 = EDGE_CURVE ( 'NONE', #287, #107, #68, .T. ) ;
#253 = FACE_OUTER_BOUND ( 'NONE', #104, .T. ) ;
#254 = DIRECTION ( 'NONE',  ( 1.000000000000000000, 0.0000000000000000000, 0.0000000000000000000 ) ) ;
#255 = APPLICATION_CONTEXT ( 'automotive_design' ) ;
#256 = STYLED_ITEM ( 'NONE', ( #206 ), #63 ) ;
#257 = DIRECTION ( 'NONE',  ( 1.000000000000000000, 0.0000000000000000000, 0.0000000000000000000 ) ) ;
#258 = VERTEX_POINT ( 'NONE', #214 ) ;
#259 = CARTESIAN_POINT ( 'NONE',  ( -0.1248749999999999444, 1.530043094684724646E-17, 0.7500000000000001110 ) ) ;
#260 = ORIENTED_EDGE ( 'NONE', *, *, #252, .T. ) ;
#261 = SURFACE_SIDE_STYLE ('',( #175 ) ) ;
#262 = FACE_OUTER_BOUND ( 'NONE', #96, .T. ) ;
#263 = SURFACE_STYLE_USAGE ( .BOTH. , #261 ) ;
#264 = ORIENTED_EDGE ( 'NONE', *, *, #156, .F. ) ;
#265 = CARTESIAN_POINT ( 'NONE',  ( 9.184850993605150903E-17, 0.0000000000000000000, 0.7500000000000001110 ) ) ;
#266 = AXIS2_PLACEMENT_3D ( 'NONE', #299, #73, #165 ) ;
#267 = DIRECTION ( 'NONE',  ( -1.000000000000000000, 0.0000000000000000000, 0.0000000000000000000 ) ) ;
#268 = CARTESIAN_POINT ( 'NONE',  ( -0.1250000000000000000, 0.0000000000000000000, 2.000000000000000000 ) ) ;
#269 = COLOUR_RGB ( '',0.7921568627450980005, 0.8196078431372548767, 0.9333333333333333481 ) ;
#270 = DIRECTION ( 'NONE',  ( -1.000000000000000000, 0.0000000000000000000, 0.0000000000000000000 ) ) ;
#271 = CARTESIAN_POINT ( 'NONE',  ( -0.1248749999999999999, 0.0000000000000000000, 3.058555380870514950E-17 ) ) ;
#272 = UNCERTAINTY_MEASURE_WITH_UNIT (LENGTH_MEASURE( 1.000000000000000082E-05 ), #34, 'distance_accuracy_value', 'NONE');
#273 = DIRECTION ( 'NONE',  ( 0.1736481776669312749, 0.0000000000000000000, 0.9848077530122077983 ) ) ;
#274 = PRODUCT ( 'Micro_RDB-60', 'Micro_RDB-60', '', ( #77 ) ) ;
#275 = APPLICATION_CONTEXT ( 'automotive_design' ) ;
#276 = CARTESIAN_POINT ( 'NONE',  ( 0.1248750000000000276, 1.529277690435257783E-17, -1.529277690435257783E-17 ) ) ;
#277 = VECTOR ( 'NONE', #30, 39.37007874015748143 ) ;
#278 = ORIENTED_EDGE ( 'NONE', *, *, #296, .F. ) ;
#279 = LENGTH_MEASURE_WITH_UNIT ( LENGTH_MEASURE( 0.02539999999999999897 ), #4 );
#280 = ORIENTED_EDGE ( 'NONE', *, *, #138, .T. ) ;
#281 = CARTESIAN_POINT ( 'NONE',  ( 0.1099999999999996397, 1.347111479062084158E-17, 2.000000000000000000 ) ) ;
#282 = ORIENTED_EDGE ( 'NONE', *, *, #252, .F. ) ;
#283 = VECTOR ( 'NONE', #76, 39.37007874015748854 ) ;
#284 = LINE ( 'NONE', #231, #283 ) ;
#285 = DIRECTION ( 'NONE',  ( 1.000000000000000000, 0.0000000000000000000, 0.0000000000000000000 ) ) ;
#286 = ADVANCED_FACE ( 'NONE', ( #98 ), #236, .F. ) ;
#287 = VERTEX_POINT ( 'NONE', #66 ) ;
#288 = VERTEX_POINT ( 'NONE', #250 ) ;
#289 = CARTESIAN_POINT ( 'NONE',  ( 9.184850993605150903E-17, 0.0000000000000000000, 0.7500000000000001110 ) ) ;
#290 = EDGE_CURVE ( 'NONE', #153, #107, #168, .T. ) ;
#291 = CARTESIAN_POINT ( 'NONE',  ( 1.872825028598994811E-33, 0.0000000000000000000, 1.529277690435257475E-17 ) ) ;
#292 = SURFACE_STYLE_USAGE ( .BOTH. , #39 ) ;
#293 = SURFACE_STYLE_FILL_AREA ( #108 ) ;
#294 = CONICAL_SURFACE ( 'NONE', #148, 0.1099999999999996397, 0.7853981633974426169 ) ;
#295 =( GEOMETRIC_REPRESENTATION_CONTEXT ( 3 ) GLOBAL_UNCERTAINTY_ASSIGNED_CONTEXT ( ( #184 ) ) GLOBAL_UNIT_ASSIGNED_CONTEXT ( ( #181, #103, #133 ) ) REPRESENTATION_CONTEXT ( 'NONE', 'WORKASPACE' ) );
#296 = EDGE_CURVE ( 'NONE', #258, #107, #207, .T. ) ;
#297 =( LENGTH_UNIT ( ) NAMED_UNIT ( * ) SI_UNIT ( $, .METRE. ) );
#298 = CARTESIAN_POINT ( 'NONE',  ( 0.1248750000000001109, 0.0000000000000000000, 0.7500000000000001110 ) ) ;
#299 = CARTESIAN_POINT ( 'NONE',  ( 9.184850993605150903E-17, 0.0000000000000000000, 0.7500000000000001110 ) ) ;
ENDSEC;
END-ISO-10303-21;
