ISO-10303-21;
HEADER;
FILE_DESCRIPTION (( 'STEP AP214' ),
    '1' );
FILE_NAME ('Micro_SME-015-2X.STEP',
    '2021-09-02T10:23:21',
    ( '' ),
    ( '' ),
    'SwSTEP 2.0',
    'SolidWorks 2020',
    '' );
FILE_SCHEMA (( 'AUTOMOTIVE_DESIGN' ));
ENDSEC;

DATA;
#1 = FACE_OUTER_BOUND ( 'NONE', #163, .T. ) ;
#2 = COLOUR_RGB ( '',0.7921568627450980005, 0.8196078431372548767, 0.9333333333333333481 ) ;
#3 = ADVANCED_FACE ( 'NONE', ( #244 ), #226, .T. ) ;
#4 = CARTESIAN_POINT ( 'NONE',  ( -0.04750000000000064587, 0.0000000000000000000, 1.500000000000000222 ) ) ;
#5 = AXIS2_PLACEMENT_3D ( 'NONE', #31, #129, #205 ) ;
#6 = DIRECTION ( 'NONE',  ( 0.7071067811865462405, 8.659560562354916834E-17, -0.7071067811865486830 ) ) ;
#7 = ADVANCED_FACE ( 'NONE', ( #297 ), #184, .T. ) ;
#8 = CARTESIAN_POINT ( 'NONE',  ( 4.089867614698532979E-17, 0.0000000000000000000, 0.3339630346926196203 ) ) ;
#9 = PRESENTATION_STYLE_ASSIGNMENT (( #281 ) ) ;
#10 = FILL_AREA_STYLE_COLOUR ( '', #2 ) ;
#11 = AXIS2_PLACEMENT_3D ( 'NONE', #71, #148, #203 ) ;
#12 = APPLICATION_PROTOCOL_DEFINITION ( 'draft international standard', 'automotive_design', 1998, #141 ) ;
#13 = EDGE_CURVE ( 'NONE', #172, #243, #15, .T. ) ;
#14 = ORIENTED_EDGE ( 'NONE', *, *, #259, .T. ) ;
#15 = CIRCLE ( 'NONE', #79, 0.007492500000000001763 ) ;
#16 = VERTEX_POINT ( 'NONE', #144 ) ;
#17 = CYLINDRICAL_SURFACE ( 'NONE', #108, 0.06250000000000002776 ) ;
#18 = EDGE_LOOP ( 'NONE', ( #190, #256 ) ) ;
#19 = SURFACE_STYLE_FILL_AREA ( #151 ) ;
#20 = DIRECTION ( 'NONE',  ( -1.000000000000000000, 0.0000000000000000000, 1.224646799147353700E-16 ) ) ;
#21 = CARTESIAN_POINT ( 'NONE',  ( -0.007492500000000000028, 0.0000000000000000000, 1.835133228522309586E-18 ) ) ;
#22 = CARTESIAN_POINT ( 'NONE',  ( 2.694222958124177638E-18, 0.0000000000000000000, 0.02199999999999999872 ) ) ;
#23 = DIMENSIONAL_EXPONENTS ( 1.000000000000000000, 0.0000000000000000000, 0.0000000000000000000, 0.0000000000000000000, 0.0000000000000000000, 0.0000000000000000000, 0.0000000000000000000 ) ;
#24 = LINE ( 'NONE', #118, #156 ) ;
#25 = EDGE_CURVE ( 'NONE', #70, #45, #110, .T. ) ;
#26 = CIRCLE ( 'NONE', #261, 0.04750000000000064587 ) ;
#27 = EDGE_CURVE ( 'NONE', #44, #120, #143, .T. ) ;
#28 = CARTESIAN_POINT ( 'NONE',  ( 2.694222958124177638E-18, 0.0000000000000000000, 0.02199999999999999872 ) ) ;
#29 = CARTESIAN_POINT ( 'NONE',  ( 2.694222958124177638E-18, 0.0000000000000000000, 0.02199999999999999872 ) ) ;
#30 = COLOUR_RGB ( '',0.7921568627450980005, 0.8196078431372548767, 0.9333333333333333481 ) ;
#31 = CARTESIAN_POINT ( 'NONE',  ( 0.0000000000000000000, 0.0000000000000000000, 0.0000000000000000000 ) ) ;
#32 = CARTESIAN_POINT ( 'NONE',  ( 0.04750000000000064587, 5.817072295950006528E-18, 1.500000000000000222 ) ) ;
#33 = PRODUCT ( 'Micro_SME-015-2X', 'Micro_SME-015-2X', '', ( #40 ) ) ;
#34 = CONICAL_SURFACE ( 'NONE', #250, 0.007492500000000001763, 0.1745329251994338637 ) ;
#35 = AXIS2_PLACEMENT_3D ( 'NONE', #8, #128, #277 ) ;
#36 = ORIENTED_EDGE ( 'NONE', *, *, #85, .T. ) ;
#37 = EDGE_LOOP ( 'NONE', ( #147, #36, #257, #160 ) ) ;
#38 = EDGE_CURVE ( 'NONE', #220, #293, #253, .T. ) ;
#39 = FACE_OUTER_BOUND ( 'NONE', #222, .T. ) ;
#40 = PRODUCT_CONTEXT ( 'NONE', #263, 'mechanical' ) ;
#41 = VECTOR ( 'NONE', #242, 39.37007874015748143 ) ;
#42 = LENGTH_MEASURE_WITH_UNIT ( LENGTH_MEASURE( 0.02539999999999999897 ), #58 );
#43 = ORIENTED_EDGE ( 'NONE', *, *, #188, .F. ) ;
#44 = VERTEX_POINT ( 'NONE', #229 ) ;
#45 = VERTEX_POINT ( 'NONE', #201 ) ;
#46 = EDGE_LOOP ( 'NONE', ( #59, #262, #137, #123 ) ) ;
#47 = AXIS2_PLACEMENT_3D ( 'NONE', #127, #104, #180 ) ;
#48 = DIRECTION ( 'NONE',  ( -1.224646799147353700E-16, -0.0000000000000000000, -1.000000000000000000 ) ) ;
#49 = ORIENTED_EDGE ( 'NONE', *, *, #131, .T. ) ;
#50 = DIRECTION ( 'NONE',  ( -1.000000000000000000, 0.0000000000000000000, 0.0000000000000000000 ) ) ;
#51 = DIRECTION ( 'NONE',  ( -1.000000000000000000, 0.0000000000000000000, 0.0000000000000000000 ) ) ;
#52 = AXIS2_PLACEMENT_3D ( 'NONE', #275, #75, #167 ) ;
#53 = VECTOR ( 'NONE', #67, 39.37007874015748143 ) ;
#54 = DIRECTION ( 'NONE',  ( 1.000000000000000000, 0.0000000000000000000, 0.0000000000000000000 ) ) ;
#55 = CARTESIAN_POINT ( 'NONE',  ( 0.04750000000000064587, 6.735557395310483192E-18, 1.500000000000000222 ) ) ;
#56 =( CONVERSION_BASED_UNIT ( 'INCH', #42 ) LENGTH_UNIT ( ) NAMED_UNIT ( #76 ) );
#57 = ORIENTED_EDGE ( 'NONE', *, *, #171, .T. ) ;
#58 =( LENGTH_UNIT ( ) NAMED_UNIT ( * ) SI_UNIT ( $, .METRE. ) );
#59 = ORIENTED_EDGE ( 'NONE', *, *, #109, .F. ) ;
#60 = SURFACE_STYLE_USAGE ( .BOTH. , #258 ) ;
#61 = DIRECTION ( 'NONE',  ( 1.000000000000000000, 0.0000000000000000000, 0.0000000000000000000 ) ) ;
#62 = AXIS2_PLACEMENT_3D ( 'NONE', #28, #274, #271 ) ;
#63 = ORIENTED_EDGE ( 'NONE', *, *, #25, .T. ) ;
#64 = EDGE_CURVE ( 'NONE', #135, #16, #138, .T. ) ;
#65 = APPLICATION_PROTOCOL_DEFINITION ( 'draft international standard', 'automotive_design', 1998, #263 ) ;
#66 = CARTESIAN_POINT ( 'NONE',  ( 0.0000000000000000000, 0.0000000000000000000, 0.0000000000000000000 ) ) ;
#67 = DIRECTION ( 'NONE',  ( -0.0000000000000000000, -0.0000000000000000000, -1.000000000000000000 ) ) ;
#68 = LINE ( 'NONE', #195, #41 ) ;
#69 = ADVANCED_FACE ( 'NONE', ( #231 ), #34, .T. ) ;
#70 = VERTEX_POINT ( 'NONE', #206 ) ;
#71 = CARTESIAN_POINT ( 'NONE',  ( 0.0000000000000000000, 0.0000000000000000000, 1.485000000000000764 ) ) ;
#72 = CARTESIAN_POINT ( 'NONE',  ( 0.0000000000000000000, 0.0000000000000000000, 1.485000000000000764 ) ) ;
#73 =( GEOMETRIC_REPRESENTATION_CONTEXT ( 3 ) GLOBAL_UNCERTAINTY_ASSIGNED_CONTEXT ( ( #228 ) ) GLOBAL_UNIT_ASSIGNED_CONTEXT ( ( #56, #186, #134 ) ) REPRESENTATION_CONTEXT ( 'NONE', 'WORKASPACE' ) );
#74 = PRESENTATION_LAYER_ASSIGNMENT (  '', '', ( #92 ) ) ;
#75 = DIRECTION ( 'NONE',  ( 0.0000000000000000000, 0.0000000000000000000, 1.000000000000000000 ) ) ;
#76 = DIMENSIONAL_EXPONENTS ( 1.000000000000000000, 0.0000000000000000000, 0.0000000000000000000, 0.0000000000000000000, 0.0000000000000000000, 0.0000000000000000000, 0.0000000000000000000 ) ;
#77 = DIRECTION ( 'NONE',  ( 1.224646799147353700E-16, 0.0000000000000000000, 1.000000000000000000 ) ) ;
#78 = CYLINDRICAL_SURFACE ( 'NONE', #150, 0.007492500000000000028 ) ;
#79 = AXIS2_PLACEMENT_3D ( 'NONE', #22, #101, #51 ) ;
#80 = ADVANCED_FACE ( 'NONE', ( #187 ), #78, .T. ) ;
#81 = VECTOR ( 'NONE', #154, 39.37007874015748143 ) ;
#82 = CARTESIAN_POINT ( 'NONE',  ( 0.0000000000000000000, 0.0000000000000000000, 0.0000000000000000000 ) ) ;
#83 = MANIFOLD_SOLID_BREP ( 'Cut-Revolve1', #210 ) ;
#84 = FACE_OUTER_BOUND ( 'NONE', #140, .T. ) ;
#85 = EDGE_CURVE ( 'NONE', #44, #45, #270, .T. ) ;
#86 = PRESENTATION_LAYER_ASSIGNMENT (  '', '', ( #105 ) ) ;
#87 =( GEOMETRIC_REPRESENTATION_CONTEXT ( 3 ) GLOBAL_UNCERTAINTY_ASSIGNED_CONTEXT ( ( #102 ) ) GLOBAL_UNIT_ASSIGNED_CONTEXT ( ( #221, #159, #132 ) ) REPRESENTATION_CONTEXT ( 'NONE', 'WORKASPACE' ) );
#88 = ORIENTED_EDGE ( 'NONE', *, *, #276, .F. ) ;
#89 = SURFACE_SIDE_STYLE ('',( #19 ) ) ;
#90 = SURFACE_STYLE_FILL_AREA ( #111 ) ;
#91 = ORIENTED_EDGE ( 'NONE', *, *, #64, .F. ) ;
#92 = STYLED_ITEM ( 'NONE', ( #9 ), #165 ) ;
#93 = CARTESIAN_POINT ( 'NONE',  ( 0.007492500000000000028, 9.175666142611544079E-19, 0.0000000000000000000 ) ) ;
#94 = CARTESIAN_POINT ( 'NONE',  ( 0.0000000000000000000, 0.0000000000000000000, 1.500000000000000222 ) ) ;
#95 = DIRECTION ( 'NONE',  ( -0.0000000000000000000, -0.0000000000000000000, -1.000000000000000000 ) ) ;
#96 = ADVANCED_FACE ( 'NONE', ( #39 ), #240, .T. ) ;
#97 = ORIENTED_EDGE ( 'NONE', *, *, #212, .F. ) ;
#98 = CARTESIAN_POINT ( 'NONE',  ( -0.007492500000000000028, 0.0000000000000000000, 9.175666142611547931E-19 ) ) ;
#99 = LINE ( 'NONE', #4, #273 ) ;
#100 = CARTESIAN_POINT ( 'NONE',  ( -0.007492499999999998293, 4.285804554466057710E-18, 0.02199999999999999872 ) ) ;
#101 = DIRECTION ( 'NONE',  ( -1.224646799147353700E-16, -0.0000000000000000000, -1.000000000000000000 ) ) ;
#102 = UNCERTAINTY_MEASURE_WITH_UNIT (LENGTH_MEASURE( 1.000000000000000082E-05 ), #221, 'distance_accuracy_value', 'NONE');
#103 = ORIENTED_EDGE ( 'NONE', *, *, #27, .T. ) ;
#104 = DIRECTION ( 'NONE',  ( 0.0000000000000000000, 0.0000000000000000000, 1.000000000000000000 ) ) ;
#105 = STYLED_ITEM ( 'NONE', ( #153 ), #83 ) ;
#106 = DIRECTION ( 'NONE',  ( -0.7071067811865462405, 0.0000000000000000000, -0.7071067811865486830 ) ) ;
#107 = DIRECTION ( 'NONE',  ( 0.0000000000000000000, 0.0000000000000000000, -1.000000000000000000 ) ) ;
#108 = AXIS2_PLACEMENT_3D ( 'NONE', #162, #237, #236 ) ;
#109 = EDGE_CURVE ( 'NONE', #135, #44, #155, .T. ) ;
#110 = CIRCLE ( 'NONE', #202, 0.06250000000000002776 ) ;
#111 = FILL_AREA_STYLE ('',( #10 ) ) ;
#112 = ADVANCED_FACE ( 'NONE', ( #84 ), #169, .T. ) ;
#113 = EDGE_LOOP ( 'NONE', ( #199, #14 ) ) ;
#114 = ORIENTED_EDGE ( 'NONE', *, *, #252, .T. ) ;
#115 = CIRCLE ( 'NONE', #62, 0.007492500000000001763 ) ;
#116 = FACE_OUTER_BOUND ( 'NONE', #46, .T. ) ;
#117 = ORIENTED_EDGE ( 'NONE', *, *, #259, .F. ) ;
#118 = CARTESIAN_POINT ( 'NONE',  ( 0.007492500000000000028, 9.175666142611544079E-19, -9.175666142611547931E-19 ) ) ;
#119 = DIRECTION ( 'NONE',  ( 1.000000000000000000, 0.0000000000000000000, 0.0000000000000000000 ) ) ;
#120 = VERTEX_POINT ( 'NONE', #251 ) ;
#121 = PRODUCT_DEFINITION_CONTEXT ( 'detailed design', #141, 'design' ) ;
#122 = DIRECTION ( 'NONE',  ( -1.224646799147353700E-16, -0.0000000000000000000, -1.000000000000000000 ) ) ;
#123 = ORIENTED_EDGE ( 'NONE', *, *, #27, .F. ) ;
#124 = CIRCLE ( 'NONE', #35, 0.06250000000000002776 ) ;
#125 = ORIENTED_EDGE ( 'NONE', *, *, #276, .T. ) ;
#126 = LINE ( 'NONE', #142, #278 ) ;
#127 = CARTESIAN_POINT ( 'NONE',  ( 0.0000000000000000000, 0.0000000000000000000, 1.500000000000000222 ) ) ;
#128 = DIRECTION ( 'NONE',  ( -1.224646799147353700E-16, -0.0000000000000000000, -1.000000000000000000 ) ) ;
#129 = DIRECTION ( 'NONE',  ( -1.224646799147353700E-16, -0.0000000000000000000, -1.000000000000000000 ) ) ;
#130 = DIRECTION ( 'NONE',  ( -1.000000000000000000, 0.0000000000000000000, 1.224646799147353700E-16 ) ) ;
#131 = EDGE_CURVE ( 'NONE', #45, #70, #124, .T. ) ;
#132 =( NAMED_UNIT ( * ) SI_UNIT ( $, .STERADIAN. ) SOLID_ANGLE_UNIT ( ) );
#133 = DIRECTION ( 'NONE',  ( 0.0000000000000000000, 0.0000000000000000000, 1.000000000000000000 ) ) ;
#134 =( NAMED_UNIT ( * ) SI_UNIT ( $, .STERADIAN. ) SOLID_ANGLE_UNIT ( ) );
#135 = VERTEX_POINT ( 'NONE', #55 ) ;
#136 = DIRECTION ( 'NONE',  ( 0.0000000000000000000, 0.0000000000000000000, 1.000000000000000000 ) ) ;
#137 = ORIENTED_EDGE ( 'NONE', *, *, #209, .T. ) ;
#138 = CIRCLE ( 'NONE', #52, 0.04750000000000064587 ) ;
#139 = EDGE_LOOP ( 'NONE', ( #230, #207, #175, #88 ) ) ;
#140 = EDGE_LOOP ( 'NONE', ( #97, #284, #125, #117 ) ) ;
#141 = APPLICATION_CONTEXT ( 'automotive_design' ) ;
#142 = CARTESIAN_POINT ( 'NONE',  ( -0.007492499999999998293, 9.175666142611546005E-19, 0.02199999999999999872 ) ) ;
#143 = CIRCLE ( 'NONE', #296, 0.06250000000000002776 ) ;
#144 = CARTESIAN_POINT ( 'NONE',  ( -0.04750000000000064587, 0.0000000000000000000, 1.500000000000000222 ) ) ;
#145 = AXIS2_PLACEMENT_3D ( 'NONE', #269, #183, #50 ) ;
#146 = DIRECTION ( 'NONE',  ( -1.000000000000000000, 0.0000000000000000000, 1.224646799147353700E-16 ) ) ;
#147 = ORIENTED_EDGE ( 'NONE', *, *, #200, .T. ) ;
#148 = DIRECTION ( 'NONE',  ( 0.0000000000000000000, 0.0000000000000000000, -1.000000000000000000 ) ) ;
#149 = DIRECTION ( 'NONE',  ( -1.224646799147353700E-16, -0.0000000000000000000, -1.000000000000000000 ) ) ;
#150 = AXIS2_PLACEMENT_3D ( 'NONE', #82, #198, #130 ) ;
#151 = FILL_AREA_STYLE ('',( #249 ) ) ;
#152 = EDGE_LOOP ( 'NONE', ( #164, #57, #63, #283 ) ) ;
#153 = PRESENTATION_STYLE_ASSIGNMENT (( #60 ) ) ;
#154 = DIRECTION ( 'NONE',  ( -1.224646799147353700E-16, -0.0000000000000000000, -1.000000000000000000 ) ) ;
#155 = LINE ( 'NONE', #32, #181 ) ;
#156 = VECTOR ( 'NONE', #122, 39.37007874015748143 ) ;
#157 = FACE_OUTER_BOUND ( 'NONE', #113, .T. ) ;
#158 = ADVANCED_FACE ( 'NONE', ( #1 ), #213, .T. ) ;
#159 =( NAMED_UNIT ( * ) PLANE_ANGLE_UNIT ( ) SI_UNIT ( $, .RADIAN. ) );
#160 = ORIENTED_EDGE ( 'NONE', *, *, #252, .F. ) ;
#161 = PRODUCT_DEFINITION_SHAPE ( 'NONE', 'NONE',  #248 ) ;
#162 = CARTESIAN_POINT ( 'NONE',  ( 0.0000000000000000000, 0.0000000000000000000, 1.500000000000000222 ) ) ;
#163 = EDGE_LOOP ( 'NONE', ( #91, #216, #234, #265 ) ) ;
#164 = ORIENTED_EDGE ( 'NONE', *, *, #13, .F. ) ;
#165 = ADVANCED_BREP_SHAPE_REPRESENTATION ( 'Micro_SME-015-2X', ( #83, #211 ), #204 ) ;
#166 = DIRECTION ( 'NONE',  ( 1.000000000000000000, 0.0000000000000000000, 0.0000000000000000000 ) ) ;
#167 = DIRECTION ( 'NONE',  ( 1.000000000000000000, 0.0000000000000000000, 0.0000000000000000000 ) ) ;
#168 = MECHANICAL_DESIGN_GEOMETRIC_PRESENTATION_REPRESENTATION (  '', ( #105 ), #73 ) ;
#169 = CYLINDRICAL_SURFACE ( 'NONE', #5, 0.007492500000000000028 ) ;
#170 =( NAMED_UNIT ( * ) PLANE_ANGLE_UNIT ( ) SI_UNIT ( $, .RADIAN. ) );
#171 = EDGE_CURVE ( 'NONE', #172, #70, #126, .T. ) ;
#172 = VERTEX_POINT ( 'NONE', #100 ) ;
#173 =( CONVERSION_BASED_UNIT ( 'INCH', #255 ) LENGTH_UNIT ( ) NAMED_UNIT ( #208 ) );
#174 = LINE ( 'NONE', #267, #53 ) ;
#175 = ORIENTED_EDGE ( 'NONE', *, *, #38, .F. ) ;
#176 = VECTOR ( 'NONE', #95, 39.37007874015748143 ) ;
#177 = PRODUCT_DEFINITION_FORMATION_WITH_SPECIFIED_SOURCE ( 'ANY', '', #33, .NOT_KNOWN. ) ;
#178 = CARTESIAN_POINT ( 'NONE',  ( 0.0000000000000000000, 0.0000000000000000000, 1.500000000000000222 ) ) ;
#179 = CARTESIAN_POINT ( 'NONE',  ( 0.0000000000000000000, 0.0000000000000000000, 1.500000000000000222 ) ) ;
#180 = DIRECTION ( 'NONE',  ( 1.000000000000000000, 0.0000000000000000000, -0.0000000000000000000 ) ) ;
#181 = VECTOR ( 'NONE', #6, 39.37007874015748854 ) ;
#182 = DIRECTION ( 'NONE',  ( -1.224646799147353700E-16, -0.0000000000000000000, -1.000000000000000000 ) ) ;
#183 = DIRECTION ( 'NONE',  ( 0.0000000000000000000, 0.0000000000000000000, -1.000000000000000000 ) ) ;
#184 = PLANE ( 'NONE',  #47 ) ;
#185 = AXIS2_PLACEMENT_3D ( 'NONE', #178, #196, #299 ) ;
#186 =( NAMED_UNIT ( * ) PLANE_ANGLE_UNIT ( ) SI_UNIT ( $, .RADIAN. ) );
#187 = FACE_OUTER_BOUND ( 'NONE', #139, .T. ) ;
#188 = EDGE_CURVE ( 'NONE', #243, #172, #115, .T. ) ;
#189 =( LENGTH_UNIT ( ) NAMED_UNIT ( * ) SI_UNIT ( $, .METRE. ) );
#190 = ORIENTED_EDGE ( 'NONE', *, *, #282, .T. ) ;
#191 = PRODUCT_RELATED_PRODUCT_CATEGORY ( 'part', '', ( #33 ) ) ;
#192 = DIRECTION ( 'NONE',  ( 0.0000000000000000000, 0.0000000000000000000, -1.000000000000000000 ) ) ;
#193 = ORIENTED_EDGE ( 'NONE', *, *, #85, .F. ) ;
#194 = CONICAL_SURFACE ( 'NONE', #280, 0.04750000000000064587, 0.7853981633974466137 ) ;
#195 = CARTESIAN_POINT ( 'NONE',  ( 0.007492500000000004365, 0.0000000000000000000, 0.02199999999999999872 ) ) ;
#196 = DIRECTION ( 'NONE',  ( -0.0000000000000000000, -0.0000000000000000000, -1.000000000000000000 ) ) ;
#197 = UNCERTAINTY_MEASURE_WITH_UNIT (LENGTH_MEASURE( 1.000000000000000082E-05 ), #173, 'distance_accuracy_value', 'NONE');
#198 = DIRECTION ( 'NONE',  ( -1.224646799147353700E-16, -0.0000000000000000000, -1.000000000000000000 ) ) ;
#199 = ORIENTED_EDGE ( 'NONE', *, *, #38, .T. ) ;
#200 = EDGE_CURVE ( 'NONE', #120, #44, #227, .T. ) ;
#201 = CARTESIAN_POINT ( 'NONE',  ( 0.06250000000000006939, 7.654042494670963708E-18, 0.3339630346926196203 ) ) ;
#202 = AXIS2_PLACEMENT_3D ( 'NONE', #272, #182, #54 ) ;
#203 = DIRECTION ( 'NONE',  ( 1.000000000000000000, 0.0000000000000000000, 0.0000000000000000000 ) ) ;
#204 =( GEOMETRIC_REPRESENTATION_CONTEXT ( 3 ) GLOBAL_UNCERTAINTY_ASSIGNED_CONTEXT ( ( #197 ) ) GLOBAL_UNIT_ASSIGNED_CONTEXT ( ( #173, #170, #292 ) ) REPRESENTATION_CONTEXT ( 'NONE', 'WORKASPACE' ) );
#205 = DIRECTION ( 'NONE',  ( -1.000000000000000000, 0.0000000000000000000, 1.224646799147353700E-16 ) ) ;
#206 = CARTESIAN_POINT ( 'NONE',  ( -0.06249999999999997918, 0.0000000000000000000, 0.3339630346926196203 ) ) ;
#207 = ORIENTED_EDGE ( 'NONE', *, *, #212, .T. ) ;
#208 = DIMENSIONAL_EXPONENTS ( 1.000000000000000000, 0.0000000000000000000, 0.0000000000000000000, 0.0000000000000000000, 0.0000000000000000000, 0.0000000000000000000, 0.0000000000000000000 ) ;
#209 = EDGE_CURVE ( 'NONE', #16, #120, #99, .T. ) ;
#210 = CLOSED_SHELL ( 'NONE', ( #80, #69, #158, #3, #224, #7, #239, #96, #112, #298 ) ) ;
#211 = AXIS2_PLACEMENT_3D ( 'NONE', #266, #285, #214 ) ;
#212 = EDGE_CURVE ( 'NONE', #243, #293, #24, .T. ) ;
#213 = CONICAL_SURFACE ( 'NONE', #145, 0.04750000000000064587, 0.7853981633974466137 ) ;
#214 = DIRECTION ( 'NONE',  ( 1.000000000000000000, 0.0000000000000000000, 0.0000000000000000000 ) ) ;
#215 = DIRECTION ( 'NONE',  ( -1.000000000000000000, 0.0000000000000000000, 0.0000000000000000000 ) ) ;
#216 = ORIENTED_EDGE ( 'NONE', *, *, #109, .T. ) ;
#217 = DIRECTION ( 'NONE',  ( 1.000000000000000000, 0.0000000000000000000, 0.0000000000000000000 ) ) ;
#218 = EDGE_CURVE ( 'NONE', #243, #45, #68, .T. ) ;
#219 = CARTESIAN_POINT ( 'NONE',  ( 0.06250000000000002776, 7.654042494670959086E-18, 1.500000000000000222 ) ) ;
#220 = VERTEX_POINT ( 'NONE', #21 ) ;
#221 =( CONVERSION_BASED_UNIT ( 'INCH', #288 ) LENGTH_UNIT ( ) NAMED_UNIT ( #23 ) );
#222 = EDGE_LOOP ( 'NONE', ( #279, #43, #264, #49 ) ) ;
#223 = CARTESIAN_POINT ( 'NONE',  ( 2.694222958124177638E-18, 0.0000000000000000000, 0.02199999999999999872 ) ) ;
#224 = ADVANCED_FACE ( 'NONE', ( #286 ), #17, .T. ) ;
#225 = DIRECTION ( 'NONE',  ( -0.1736481776669311639, 2.126576849575783008E-17, 0.9848077530122080203 ) ) ;
#226 = CYLINDRICAL_SURFACE ( 'NONE', #185, 0.06250000000000002776 ) ;
#227 = CIRCLE ( 'NONE', #11, 0.06250000000000002776 ) ;
#228 = UNCERTAINTY_MEASURE_WITH_UNIT (LENGTH_MEASURE( 1.000000000000000082E-05 ), #56, 'distance_accuracy_value', 'NONE');
#229 = CARTESIAN_POINT ( 'NONE',  ( 0.06250000000000002776, 7.654042494670959086E-18, 1.485000000000000764 ) ) ;
#230 = ORIENTED_EDGE ( 'NONE', *, *, #13, .T. ) ;
#231 = FACE_OUTER_BOUND ( 'NONE', #152, .T. ) ;
#232 = CIRCLE ( 'NONE', #246, 0.007492500000000000028 ) ;
#233 = MECHANICAL_DESIGN_GEOMETRIC_PRESENTATION_REPRESENTATION (  '', ( #92 ), #87 ) ;
#234 = ORIENTED_EDGE ( 'NONE', *, *, #200, .F. ) ;
#235 = AXIS2_PLACEMENT_3D ( 'NONE', #66, #136, #287 ) ;
#236 = DIRECTION ( 'NONE',  ( -1.000000000000000000, 0.0000000000000000000, 0.0000000000000000000 ) ) ;
#237 = DIRECTION ( 'NONE',  ( -0.0000000000000000000, -0.0000000000000000000, -1.000000000000000000 ) ) ;
#238 = EDGE_LOOP ( 'NONE', ( #193, #103, #114, #289 ) ) ;
#239 = ADVANCED_FACE ( 'NONE', ( #116 ), #194, .T. ) ;
#240 = CONICAL_SURFACE ( 'NONE', #295, 0.007492500000000001763, 0.1745329251994338637 ) ;
#241 = CARTESIAN_POINT ( 'NONE',  ( 1.123695017159397759E-34, 0.0000000000000000000, 9.175666142611547931E-19 ) ) ;
#242 = DIRECTION ( 'NONE',  ( 0.1736481776669313581, 0.0000000000000000000, 0.9848077530122077983 ) ) ;
#243 = VERTEX_POINT ( 'NONE', #291 ) ;
#244 = FACE_OUTER_BOUND ( 'NONE', #37, .T. ) ;
#245 = DIRECTION ( 'NONE',  ( 1.224646799147353700E-16, 0.0000000000000000000, 1.000000000000000000 ) ) ;
#246 = AXIS2_PLACEMENT_3D ( 'NONE', #241, #48, #20 ) ;
#247 = CARTESIAN_POINT ( 'NONE',  ( 1.123695017159397759E-34, 0.0000000000000000000, 9.175666142611547931E-19 ) ) ;
#248 = PRODUCT_DEFINITION ( 'UNKNOWN', '', #177, #121 ) ;
#249 = FILL_AREA_STYLE_COLOUR ( '', #30 ) ;
#250 = AXIS2_PLACEMENT_3D ( 'NONE', #29, #77, #119 ) ;
#251 = CARTESIAN_POINT ( 'NONE',  ( -0.06250000000000002776, 0.0000000000000000000, 1.485000000000000764 ) ) ;
#252 = EDGE_CURVE ( 'NONE', #120, #70, #174, .T. ) ;
#253 = CIRCLE ( 'NONE', #268, 0.007492500000000000028 ) ;
#254 =( LENGTH_UNIT ( ) NAMED_UNIT ( * ) SI_UNIT ( $, .METRE. ) );
#255 = LENGTH_MEASURE_WITH_UNIT ( LENGTH_MEASURE( 0.02539999999999999897 ), #254 );
#256 = ORIENTED_EDGE ( 'NONE', *, *, #64, .T. ) ;
#257 = ORIENTED_EDGE ( 'NONE', *, *, #25, .F. ) ;
#258 = SURFACE_SIDE_STYLE ('',( #90 ) ) ;
#259 = EDGE_CURVE ( 'NONE', #293, #220, #232, .T. ) ;
#260 = SHAPE_DEFINITION_REPRESENTATION ( #161, #165 ) ;
#261 = AXIS2_PLACEMENT_3D ( 'NONE', #179, #133, #217 ) ;
#262 = ORIENTED_EDGE ( 'NONE', *, *, #282, .F. ) ;
#263 = APPLICATION_CONTEXT ( 'automotive_design' ) ;
#264 = ORIENTED_EDGE ( 'NONE', *, *, #218, .T. ) ;
#265 = ORIENTED_EDGE ( 'NONE', *, *, #209, .F. ) ;
#266 = CARTESIAN_POINT ( 'NONE',  ( 0.0000000000000000000, 0.0000000000000000000, 0.0000000000000000000 ) ) ;
#267 = CARTESIAN_POINT ( 'NONE',  ( -0.06250000000000002776, 0.0000000000000000000, 1.500000000000000222 ) ) ;
#268 = AXIS2_PLACEMENT_3D ( 'NONE', #247, #149, #146 ) ;
#269 = CARTESIAN_POINT ( 'NONE',  ( 0.0000000000000000000, 0.0000000000000000000, 1.500000000000000222 ) ) ;
#270 = LINE ( 'NONE', #219, #176 ) ;
#271 = DIRECTION ( 'NONE',  ( -1.000000000000000000, 0.0000000000000000000, 0.0000000000000000000 ) ) ;
#272 = CARTESIAN_POINT ( 'NONE',  ( 4.089867614698532979E-17, 0.0000000000000000000, 0.3339630346926196203 ) ) ;
#273 = VECTOR ( 'NONE', #106, 39.37007874015748854 ) ;
#274 = DIRECTION ( 'NONE',  ( -1.224646799147353700E-16, -0.0000000000000000000, -1.000000000000000000 ) ) ;
#275 = CARTESIAN_POINT ( 'NONE',  ( 0.0000000000000000000, 0.0000000000000000000, 1.500000000000000222 ) ) ;
#276 = EDGE_CURVE ( 'NONE', #172, #220, #294, .T. ) ;
#277 = DIRECTION ( 'NONE',  ( 1.000000000000000000, 0.0000000000000000000, 0.0000000000000000000 ) ) ;
#278 = VECTOR ( 'NONE', #225, 39.37007874015747433 ) ;
#279 = ORIENTED_EDGE ( 'NONE', *, *, #171, .F. ) ;
#280 = AXIS2_PLACEMENT_3D ( 'NONE', #94, #192, #215 ) ;
#281 = SURFACE_STYLE_USAGE ( .BOTH. , #89 ) ;
#282 = EDGE_CURVE ( 'NONE', #16, #135, #26, .T. ) ;
#283 = ORIENTED_EDGE ( 'NONE', *, *, #218, .F. ) ;
#284 = ORIENTED_EDGE ( 'NONE', *, *, #188, .T. ) ;
#285 = DIRECTION ( 'NONE',  ( 0.0000000000000000000, 0.0000000000000000000, 1.000000000000000000 ) ) ;
#286 = FACE_OUTER_BOUND ( 'NONE', #238, .T. ) ;
#287 = DIRECTION ( 'NONE',  ( 1.000000000000000000, 0.0000000000000000000, -0.0000000000000000000 ) ) ;
#288 = LENGTH_MEASURE_WITH_UNIT ( LENGTH_MEASURE( 0.02539999999999999897 ), #189 );
#289 = ORIENTED_EDGE ( 'NONE', *, *, #131, .F. ) ;
#290 = PLANE ( 'NONE',  #235 ) ;
#291 = CARTESIAN_POINT ( 'NONE',  ( 0.007492500000000004365, 0.0000000000000000000, 0.02199999999999999872 ) ) ;
#292 =( NAMED_UNIT ( * ) SI_UNIT ( $, .STERADIAN. ) SOLID_ANGLE_UNIT ( ) );
#293 = VERTEX_POINT ( 'NONE', #93 ) ;
#294 = LINE ( 'NONE', #98, #81 ) ;
#295 = AXIS2_PLACEMENT_3D ( 'NONE', #223, #245, #61 ) ;
#296 = AXIS2_PLACEMENT_3D ( 'NONE', #72, #107, #166 ) ;
#297 = FACE_OUTER_BOUND ( 'NONE', #18, .T. ) ;
#298 = ADVANCED_FACE ( 'NONE', ( #157 ), #290, .F. ) ;
#299 = DIRECTION ( 'NONE',  ( -1.000000000000000000, 0.0000000000000000000, 0.0000000000000000000 ) ) ;
ENDSEC;
END-ISO-10303-21;
