ISO-10303-21;
HEADER;
FILE_DESCRIPTION (( 'STEP AP214' ),
    '1' );
FILE_NAME ('Micro_MMBM-005-10.STEP',
    '2021-09-03T16:22:36',
    ( '' ),
    ( '' ),
    'SwSTEP 2.0',
    'SolidWorks 2020',
    '' );
FILE_SCHEMA (( 'AUTOMOTIVE_DESIGN' ));
ENDSEC;

DATA;
#1 = CONICAL_SURFACE ( 'NONE', #200, 0.009841515750000005142, 0.1745329251994333919 ) ;
#2 = VECTOR ( 'NONE', #42, 39.37007874015748854 ) ;
#3 = CARTESIAN_POINT ( 'NONE',  ( 0.0000000000000000000, 0.0000000000000000000, 0.0000000000000000000 ) ) ;
#4 = VERTEX_POINT ( 'NONE', #304 ) ;
#5 = FACE_OUTER_BOUND ( 'NONE', #103, .T. ) ;
#6 = ORIENTED_EDGE ( 'NONE', *, *, #328, .T. ) ;
#7 = CARTESIAN_POINT ( 'NONE',  ( 0.07874000000000001831, 9.642868896486260050E-18, 0.3937009999999999121 ) ) ;
#8 = EDGE_LOOP ( 'NONE', ( #234, #187, #11, #86 ) ) ;
#9 = AXIS2_PLACEMENT_3D ( 'NONE', #3, #306, #194 ) ;
#10 = CARTESIAN_POINT ( 'NONE',  ( -0.06374000000000018540, 0.0000000000000000000, 1.968503999999999809 ) ) ;
#11 = ORIENTED_EDGE ( 'NONE', *, *, #342, .F. ) ;
#12 = CARTESIAN_POINT ( 'NONE',  ( -0.009841515750000005142, 0.0000000000000000000, 0.01968500000000000111 ) ) ;
#13 = EDGE_LOOP ( 'NONE', ( #302, #6, #96, #356 ) ) ;
#14 = EDGE_CURVE ( 'NONE', #251, #76, #377, .T. ) ;
#15 = DIRECTION ( 'NONE',  ( 0.0000000000000000000, 0.0000000000000000000, 1.000000000000000000 ) ) ;
#16 = DIRECTION ( 'NONE',  ( -1.000000000000000000, 0.0000000000000000000, 0.0000000000000000000 ) ) ;
#17 = AXIS2_PLACEMENT_3D ( 'NONE', #78, #154, #303 ) ;
#18 = DIRECTION ( 'NONE',  ( 1.000000000000000000, 0.0000000000000000000, 0.0000000000000000000 ) ) ;
#19 = CYLINDRICAL_SURFACE ( 'NONE', #57, 0.009449000000000025087 ) ;
#20 = CARTESIAN_POINT ( 'NONE',  ( 0.0000000000000000000, 0.0000000000000000000, 1.968503999999999809 ) ) ;
#21 = ADVANCED_FACE ( 'NONE', ( #228 ), #19, .T. ) ;
#22 = CARTESIAN_POINT ( 'NONE',  ( 0.0000000000000000000, 0.0000000000000000000, 1.968503999999999809 ) ) ;
#23 = LINE ( 'NONE', #298, #359 ) ;
#24 = LINE ( 'NONE', #322, #364 ) ;
#25 = CARTESIAN_POINT ( 'NONE',  ( 0.0000000000000000000, 0.0000000000000000000, 1.968503999999999809 ) ) ;
#26 = FACE_BOUND ( 'NONE', #334, .T. ) ;
#27 = CARTESIAN_POINT ( 'NONE',  ( 0.0000000000000000000, 0.0000000000000000000, 1.968503999999999809 ) ) ;
#28 = CARTESIAN_POINT ( 'NONE',  ( 0.0000000000000000000, 0.0000000000000000000, 0.3937009999999999676 ) ) ;
#29 = CARTESIAN_POINT ( 'NONE',  ( 0.0000000000000000000, 0.0000000000000000000, 1.968503999999999809 ) ) ;
#30 = CIRCLE ( 'NONE', #180, 0.06374000000000018540 ) ;
#31 = EDGE_CURVE ( 'NONE', #368, #310, #287, .T. ) ;
#32 = EDGE_LOOP ( 'NONE', ( #123, #113, #159, #67 ) ) ;
#33 = COLOUR_RGB ( '',0.7921568627450980005, 0.8196078431372548767, 0.9333333333333333481 ) ;
#34 = LINE ( 'NONE', #75, #354 ) ;
#35 = ORIENTED_EDGE ( 'NONE', *, *, #63, .T. ) ;
#36 = EDGE_CURVE ( 'NONE', #341, #253, #30, .T. ) ;
#37 = PLANE ( 'NONE',  #369 ) ;
#38 = EDGE_LOOP ( 'NONE', ( #336, #281, #98, #151 ) ) ;
#39 = DIRECTION ( 'NONE',  ( -1.000000000000000000, 0.0000000000000000000, 0.0000000000000000000 ) ) ;
#40 = EDGE_LOOP ( 'NONE', ( #43, #73, #95, #218 ) ) ;
#41 = AXIS2_PLACEMENT_3D ( 'NONE', #262, #370, #372 ) ;
#42 = DIRECTION ( 'NONE',  ( 0.1736481776669307475, 2.126576849575776537E-17, -0.9848077530122077983 ) ) ;
#43 = ORIENTED_EDGE ( 'NONE', *, *, #212, .F. ) ;
#44 =( CONVERSION_BASED_UNIT ( 'INCH', #198 ) LENGTH_UNIT ( ) NAMED_UNIT ( #132 ) );
#45 = CARTESIAN_POINT ( 'NONE',  ( 0.0000000000000000000, 0.0000000000000000000, 1.953504000000000129 ) ) ;
#46 = PRODUCT_CONTEXT ( 'NONE', #52, 'mechanical' ) ;
#47 = DIRECTION ( 'NONE',  ( 0.0000000000000000000, 0.0000000000000000000, 1.000000000000000000 ) ) ;
#48 = EDGE_CURVE ( 'NONE', #310, #368, #166, .T. ) ;
#49 = AXIS2_PLACEMENT_3D ( 'NONE', #134, #315, #107 ) ;
#50 = STYLED_ITEM ( 'NONE', ( #186 ), #283 ) ;
#51 = DIRECTION ( 'NONE',  ( -0.7071067811865507924, 0.0000000000000000000, -0.7071067811865443531 ) ) ;
#52 = APPLICATION_CONTEXT ( 'automotive_design' ) ;
#53 = ADVANCED_FACE ( 'NONE', ( #81 ), #1, .T. ) ;
#54 = DIRECTION ( 'NONE',  ( -0.0000000000000000000, -0.0000000000000000000, -1.000000000000000000 ) ) ;
#55 = CARTESIAN_POINT ( 'NONE',  ( 0.009449000000000025087, 1.157168760514336944E-18, 0.0000000000000000000 ) ) ;
#56 = CARTESIAN_POINT ( 'NONE',  ( 0.0000000000000000000, 0.0000000000000000000, 0.01968500000000000111 ) ) ;
#57 = AXIS2_PLACEMENT_3D ( 'NONE', #136, #344, #16 ) ;
#58 = EDGE_CURVE ( 'NONE', #4, #362, #250, .T. ) ;
#59 = CYLINDRICAL_SURFACE ( 'NONE', #274, 0.07874000000000001831 ) ;
#60 = DIRECTION ( 'NONE',  ( -1.000000000000000000, 0.0000000000000000000, 0.0000000000000000000 ) ) ;
#61 = DIRECTION ( 'NONE',  ( -1.000000000000000000, 0.0000000000000000000, 0.0000000000000000000 ) ) ;
#62 = LENGTH_MEASURE_WITH_UNIT ( LENGTH_MEASURE( 0.02539999999999999897 ), #374 );
#63 = EDGE_CURVE ( 'NONE', #341, #368, #285, .T. ) ;
#64 = CONICAL_SURFACE ( 'NONE', #327, 0.06374000000000018540, 0.7853981633974528309 ) ;
#65 = CIRCLE ( 'NONE', #129, 0.009841515750000005142 ) ;
#66 = ORIENTED_EDGE ( 'NONE', *, *, #108, .T. ) ;
#67 = ORIENTED_EDGE ( 'NONE', *, *, #139, .F. ) ;
#68 = ADVANCED_FACE ( 'NONE', ( #289 ), #321, .T. ) ;
#69 = VECTOR ( 'NONE', #172, 39.37007874015748143 ) ;
#70 = SURFACE_STYLE_USAGE ( .BOTH. , #333 ) ;
#71 = ORIENTED_EDGE ( 'NONE', *, *, #244, .F. ) ;
#72 = CARTESIAN_POINT ( 'NONE',  ( 0.009841515750000005142, 1.205238076199577027E-18, 0.01968500000000000111 ) ) ;
#73 = ORIENTED_EDGE ( 'NONE', *, *, #48, .T. ) ;
#74 = EDGE_CURVE ( 'NONE', #329, #153, #150, .T. ) ;
#75 = CARTESIAN_POINT ( 'NONE',  ( 0.06374000000000018540, 7.805898697765251255E-18, 1.968503999999999809 ) ) ;
#76 = VERTEX_POINT ( 'NONE', #366 ) ;
#77 = CIRCLE ( 'NONE', #17, 0.009449000000000002536 ) ;
#78 = CARTESIAN_POINT ( 'NONE',  ( 0.0000000000000000000, 0.0000000000000000000, 0.02191106743688862185 ) ) ;
#79 = CARTESIAN_POINT ( 'NONE',  ( 0.0000000000000000000, 0.0000000000000000000, 0.3937009999999999121 ) ) ;
#80 = CARTESIAN_POINT ( 'NONE',  ( -0.06374000000000018540, 0.0000000000000000000, 1.968503999999999809 ) ) ;
#81 = FACE_OUTER_BOUND ( 'NONE', #221, .T. ) ;
#82 = CIRCLE ( 'NONE', #308, 0.009841515750000005142 ) ;
#83 = CIRCLE ( 'NONE', #269, 0.009841515750000005142 ) ;
#84 = FACE_OUTER_BOUND ( 'NONE', #226, .T. ) ;
#85 = CARTESIAN_POINT ( 'NONE',  ( 0.009841515750000005142, 1.205238076199577027E-18, 0.0000000000000000000 ) ) ;
#86 = ORIENTED_EDGE ( 'NONE', *, *, #232, .F. ) ;
#87 =( NAMED_UNIT ( * ) PLANE_ANGLE_UNIT ( ) SI_UNIT ( $, .RADIAN. ) );
#88 = DIRECTION ( 'NONE',  ( -0.0000000000000000000, -0.0000000000000000000, -1.000000000000000000 ) ) ;
#89 = STYLED_ITEM ( 'NONE', ( #230 ), #227 ) ;
#90 =( GEOMETRIC_REPRESENTATION_CONTEXT ( 3 ) GLOBAL_UNCERTAINTY_ASSIGNED_CONTEXT ( ( #309 ) ) GLOBAL_UNIT_ASSIGNED_CONTEXT ( ( #44, #311, #163 ) ) REPRESENTATION_CONTEXT ( 'NONE', 'WORKASPACE' ) );
#91 = DIRECTION ( 'NONE',  ( 0.0000000000000000000, 0.0000000000000000000, 1.000000000000000000 ) ) ;
#92 = DIRECTION ( 'NONE',  ( -0.0000000000000000000, -0.0000000000000000000, -1.000000000000000000 ) ) ;
#93 =( CONVERSION_BASED_UNIT ( 'INCH', #62 ) LENGTH_UNIT ( ) NAMED_UNIT ( #224 ) );
#94 = AXIS2_PLACEMENT_3D ( 'NONE', #20, #313, #257 ) ;
#95 = ORIENTED_EDGE ( 'NONE', *, *, #139, .T. ) ;
#96 = ORIENTED_EDGE ( 'NONE', *, *, #31, .F. ) ;
#97 = FILL_AREA_STYLE ('',( #357 ) ) ;
#98 = ORIENTED_EDGE ( 'NONE', *, *, #324, .F. ) ;
#99 = VECTOR ( 'NONE', #240, 39.37007874015748143 ) ;
#100 = VERTEX_POINT ( 'NONE', #116 ) ;
#101 = EDGE_CURVE ( 'NONE', #362, #4, #82, .T. ) ;
#102 =( NAMED_UNIT ( * ) SI_UNIT ( $, .STERADIAN. ) SOLID_ANGLE_UNIT ( ) );
#103 = EDGE_LOOP ( 'NONE', ( #222, #331, #133, #277 ) ) ;
#104 = DIMENSIONAL_EXPONENTS ( 1.000000000000000000, 0.0000000000000000000, 0.0000000000000000000, 0.0000000000000000000, 0.0000000000000000000, 0.0000000000000000000, 0.0000000000000000000 ) ;
#105 = ORIENTED_EDGE ( 'NONE', *, *, #195, .T. ) ;
#106 = VECTOR ( 'NONE', #51, 39.37007874015748143 ) ;
#107 = DIRECTION ( 'NONE',  ( -1.000000000000000000, 0.0000000000000000000, 0.0000000000000000000 ) ) ;
#108 = EDGE_CURVE ( 'NONE', #260, #358, #83, .T. ) ;
#109 = DIRECTION ( 'NONE',  ( 1.000000000000000000, 0.0000000000000000000, 0.0000000000000000000 ) ) ;
#110 = DIRECTION ( 'NONE',  ( 1.000000000000000000, 0.0000000000000000000, -0.0000000000000000000 ) ) ;
#111 = VECTOR ( 'NONE', #235, 39.37007874015748143 ) ;
#112 = EDGE_CURVE ( 'NONE', #4, #260, #24, .T. ) ;
#113 = ORIENTED_EDGE ( 'NONE', *, *, #212, .T. ) ;
#114 = DIRECTION ( 'NONE',  ( -0.0000000000000000000, 0.0000000000000000000, -1.000000000000000000 ) ) ;
#115 = FACE_OUTER_BOUND ( 'NONE', #8, .T. ) ;
#116 = CARTESIAN_POINT ( 'NONE',  ( -0.009449000000000002536, 0.0000000000000000000, 0.02191106743688862185 ) ) ;
#117 = MECHANICAL_DESIGN_GEOMETRIC_PRESENTATION_REPRESENTATION (  '', ( #89 ), #225 ) ;
#118 = EDGE_CURVE ( 'NONE', #76, #251, #245, .T. ) ;
#119 = CARTESIAN_POINT ( 'NONE',  ( 0.009449000000000002536, 1.181203418356955733E-18, 0.02191106743688862185 ) ) ;
#120 = APPLICATION_CONTEXT ( 'automotive_design' ) ;
#121 = UNCERTAINTY_MEASURE_WITH_UNIT (LENGTH_MEASURE( 1.000000000000000082E-05 ), #93, 'distance_accuracy_value', 'NONE');
#122 = AXIS2_PLACEMENT_3D ( 'NONE', #325, #264, #61 ) ;
#123 = ORIENTED_EDGE ( 'NONE', *, *, #31, .T. ) ;
#124 =( LENGTH_UNIT ( ) NAMED_UNIT ( * ) SI_UNIT ( $, .METRE. ) );
#125 = ORIENTED_EDGE ( 'NONE', *, *, #271, .F. ) ;
#126 = EDGE_LOOP ( 'NONE', ( #279, #284, #318, #363 ) ) ;
#127 = CARTESIAN_POINT ( 'NONE',  ( 0.07874000000000001831, 9.642868896486260050E-18, 1.953504000000000129 ) ) ;
#128 = ORIENTED_EDGE ( 'NONE', *, *, #342, .T. ) ;
#129 = AXIS2_PLACEMENT_3D ( 'NONE', #360, #330, #282 ) ;
#130 = ORIENTED_EDGE ( 'NONE', *, *, #317, .F. ) ;
#131 = LENGTH_MEASURE_WITH_UNIT ( LENGTH_MEASURE( 0.02539999999999999897 ), #124 );
#132 = DIMENSIONAL_EXPONENTS ( 1.000000000000000000, 0.0000000000000000000, 0.0000000000000000000, 0.0000000000000000000, 0.0000000000000000000, 0.0000000000000000000, 0.0000000000000000000 ) ;
#133 = ORIENTED_EDGE ( 'NONE', *, *, #232, .T. ) ;
#134 = CARTESIAN_POINT ( 'NONE',  ( 0.0000000000000000000, 0.0000000000000000000, 0.01968500000000000111 ) ) ;
#135 = CARTESIAN_POINT ( 'NONE',  ( 0.0000000000000000000, 0.0000000000000000000, 1.968503999999999809 ) ) ;
#136 = CARTESIAN_POINT ( 'NONE',  ( 0.0000000000000000000, 0.0000000000000000000, 0.0000000000000000000 ) ) ;
#137 = CARTESIAN_POINT ( 'NONE',  ( 0.07874000000000001831, 9.642868896486260050E-18, 1.968503999999999809 ) ) ;
#138 = CARTESIAN_POINT ( 'NONE',  ( 0.0000000000000000000, 0.0000000000000000000, 0.0000000000000000000 ) ) ;
#139 = EDGE_CURVE ( 'NONE', #368, #153, #147, .T. ) ;
#140 = CIRCLE ( 'NONE', #191, 0.009449000000000002536 ) ;
#141 = DIRECTION ( 'NONE',  ( -0.0000000000000000000, -0.0000000000000000000, -1.000000000000000000 ) ) ;
#142 = CARTESIAN_POINT ( 'NONE',  ( 0.0000000000000000000, 0.0000000000000000000, 0.0000000000000000000 ) ) ;
#143 = ADVANCED_FACE ( 'NONE', ( #26, #266 ), #270, .T. ) ;
#144 = DIRECTION ( 'NONE',  ( -0.0000000000000000000, -0.0000000000000000000, -1.000000000000000000 ) ) ;
#145 = UNCERTAINTY_MEASURE_WITH_UNIT (LENGTH_MEASURE( 1.000000000000000082E-05 ), #252, 'distance_accuracy_value', 'NONE');
#146 = DIRECTION ( 'NONE',  ( 1.000000000000000000, 0.0000000000000000000, 0.0000000000000000000 ) ) ;
#147 = LINE ( 'NONE', #373, #99 ) ;
#148 = ADVANCED_FACE ( 'NONE', ( #319 ), #59, .T. ) ;
#149 = AXIS2_PLACEMENT_3D ( 'NONE', #349, #88, #60 ) ;
#150 = CIRCLE ( 'NONE', #350, 0.07874000000000001831 ) ;
#151 = ORIENTED_EDGE ( 'NONE', *, *, #195, .F. ) ;
#152 = LINE ( 'NONE', #72, #2 ) ;
#153 = VERTEX_POINT ( 'NONE', #293 ) ;
#154 = DIRECTION ( 'NONE',  ( -0.0000000000000000000, -0.0000000000000000000, -1.000000000000000000 ) ) ;
#155 = CARTESIAN_POINT ( 'NONE',  ( 0.0000000000000000000, 0.0000000000000000000, 0.3937009999999999676 ) ) ;
#156 = CYLINDRICAL_SURFACE ( 'NONE', #9, 0.009841515750000005142 ) ;
#157 = PRODUCT_DEFINITION ( 'UNKNOWN', '', #239, #216 ) ;
#158 = CIRCLE ( 'NONE', #353, 0.06374000000000018540 ) ;
#159 = ORIENTED_EDGE ( 'NONE', *, *, #177, .F. ) ;
#160 = MECHANICAL_DESIGN_GEOMETRIC_PRESENTATION_REPRESENTATION (  '', ( #50 ), #90 ) ;
#161 = DIRECTION ( 'NONE',  ( 1.000000000000000000, 0.0000000000000000000, -0.0000000000000000000 ) ) ;
#162 = EDGE_LOOP ( 'NONE', ( #125, #307, #105, #130 ) ) ;
#163 =( NAMED_UNIT ( * ) SI_UNIT ( $, .STERADIAN. ) SOLID_ANGLE_UNIT ( ) );
#164 = DIRECTION ( 'NONE',  ( -1.000000000000000000, 0.0000000000000000000, 0.0000000000000000000 ) ) ;
#165 = CARTESIAN_POINT ( 'NONE',  ( 0.0000000000000000000, 0.0000000000000000000, 1.953504000000000129 ) ) ;
#166 = CIRCLE ( 'NONE', #217, 0.07874000000000001831 ) ;
#167 = PRESENTATION_LAYER_ASSIGNMENT (  '', '', ( #50 ) ) ;
#168 = DIRECTION ( 'NONE',  ( -1.000000000000000000, 0.0000000000000000000, 0.0000000000000000000 ) ) ;
#169 = ADVANCED_FACE ( 'NONE', ( #351 ), #340, .T. ) ;
#170 = CYLINDRICAL_SURFACE ( 'NONE', #332, 0.009841515750000005142 ) ;
#171 = SHAPE_DEFINITION_REPRESENTATION ( #205, #283 ) ;
#172 = DIRECTION ( 'NONE',  ( -0.0000000000000000000, -0.0000000000000000000, -1.000000000000000000 ) ) ;
#173 = DIRECTION ( 'NONE',  ( -1.000000000000000000, 0.0000000000000000000, 0.0000000000000000000 ) ) ;
#174 = CARTESIAN_POINT ( 'NONE',  ( -0.009841515750000005142, 0.0000000000000000000, 0.0000000000000000000 ) ) ;
#175 = DIRECTION ( 'NONE',  ( -0.0000000000000000000, -0.0000000000000000000, -1.000000000000000000 ) ) ;
#176 = SURFACE_STYLE_USAGE ( .BOTH. , #259 ) ;
#177 = EDGE_CURVE ( 'NONE', #153, #329, #238, .T. ) ;
#178 = DIRECTION ( 'NONE',  ( -1.000000000000000000, 0.0000000000000000000, 0.0000000000000000000 ) ) ;
#179 =( NAMED_UNIT ( * ) SI_UNIT ( $, .STERADIAN. ) SOLID_ANGLE_UNIT ( ) );
#180 = AXIS2_PLACEMENT_3D ( 'NONE', #135, #47, #109 ) ;
#181 = ADVANCED_FACE ( 'NONE', ( #115 ), #170, .T. ) ;
#182 = ORIENTED_EDGE ( 'NONE', *, *, #328, .F. ) ;
#183 = ORIENTED_EDGE ( 'NONE', *, *, #118, .F. ) ;
#184 = APPLICATION_PROTOCOL_DEFINITION ( 'draft international standard', 'automotive_design', 1998, #52 ) ;
#185 = ORIENTED_EDGE ( 'NONE', *, *, #337, .T. ) ;
#186 = PRESENTATION_STYLE_ASSIGNMENT (( #70 ) ) ;
#187 = ORIENTED_EDGE ( 'NONE', *, *, #112, .T. ) ;
#188 = CARTESIAN_POINT ( 'NONE',  ( 0.0000000000000000000, 0.0000000000000000000, 0.02191106743688862185 ) ) ;
#189 = ORIENTED_EDGE ( 'NONE', *, *, #177, .T. ) ;
#190 = CARTESIAN_POINT ( 'NONE',  ( 0.0000000000000000000, 0.0000000000000000000, 0.0000000000000000000 ) ) ;
#191 = AXIS2_PLACEMENT_3D ( 'NONE', #188, #338, #39 ) ;
#192 = ORIENTED_EDGE ( 'NONE', *, *, #74, .T. ) ;
#193 = PRODUCT ( 'Micro_MMBM-005-10', 'Micro_MMBM-005-10', '', ( #46 ) ) ;
#194 = DIRECTION ( 'NONE',  ( -1.000000000000000000, 0.0000000000000000000, 0.0000000000000000000 ) ) ;
#195 = EDGE_CURVE ( 'NONE', #76, #100, #23, .T. ) ;
#196 = CARTESIAN_POINT ( 'NONE',  ( 0.0000000000000000000, 0.0000000000000000000, 0.01968500000000000111 ) ) ;
#197 = DIRECTION ( 'NONE',  ( -1.000000000000000000, 0.0000000000000000000, 0.0000000000000000000 ) ) ;
#198 = LENGTH_MEASURE_WITH_UNIT ( LENGTH_MEASURE( 0.02539999999999999897 ), #286 );
#199 = DIRECTION ( 'NONE',  ( -0.0000000000000000000, -0.0000000000000000000, -1.000000000000000000 ) ) ;
#200 = AXIS2_PLACEMENT_3D ( 'NONE', #196, #199, #168 ) ;
#201 = ADVANCED_FACE ( 'NONE', ( #296 ), #320, .T. ) ;
#202 = DIRECTION ( 'NONE',  ( 0.0000000000000000000, 0.0000000000000000000, -1.000000000000000000 ) ) ;
#203 = LINE ( 'NONE', #55, #69 ) ;
#204 = CARTESIAN_POINT ( 'NONE',  ( 0.0000000000000000000, 0.0000000000000000000, 1.968503999999999809 ) ) ;
#205 = PRODUCT_DEFINITION_SHAPE ( 'NONE', 'NONE',  #157 ) ;
#206 = AXIS2_PLACEMENT_3D ( 'NONE', #28, #295, #297 ) ;
#207 = DIRECTION ( 'NONE',  ( -1.000000000000000000, 0.0000000000000000000, 0.0000000000000000000 ) ) ;
#208 = LINE ( 'NONE', #174, #256 ) ;
#209 = CARTESIAN_POINT ( 'NONE',  ( 0.009449000000000047639, 0.0000000000000000000, 0.3937009999999999676 ) ) ;
#210 = DIRECTION ( 'NONE',  ( -1.000000000000000000, 0.0000000000000000000, 0.0000000000000000000 ) ) ;
#211 = COLOUR_RGB ( '',0.7921568627450980005, 0.8196078431372548767, 0.9333333333333333481 ) ;
#212 = EDGE_CURVE ( 'NONE', #310, #329, #291, .T. ) ;
#213 = DIRECTION ( 'NONE',  ( -0.0000000000000000000, -0.0000000000000000000, -1.000000000000000000 ) ) ;
#214 = EDGE_LOOP ( 'NONE', ( #128, #66 ) ) ;
#215 = SURFACE_STYLE_FILL_AREA ( #97 ) ;
#216 = PRODUCT_DEFINITION_CONTEXT ( 'detailed design', #120, 'design' ) ;
#217 = AXIS2_PLACEMENT_3D ( 'NONE', #45, #367, #229 ) ;
#218 = ORIENTED_EDGE ( 'NONE', *, *, #74, .F. ) ;
#219 = PRODUCT_RELATED_PRODUCT_CATEGORY ( 'part', '', ( #193 ) ) ;
#220 = DIRECTION ( 'NONE',  ( -1.000000000000000000, 0.0000000000000000000, 0.0000000000000000000 ) ) ;
#221 = EDGE_LOOP ( 'NONE', ( #300, #185, #361, #71 ) ) ;
#222 = ORIENTED_EDGE ( 'NONE', *, *, #112, .F. ) ;
#223 = FACE_OUTER_BOUND ( 'NONE', #32, .T. ) ;
#224 = DIMENSIONAL_EXPONENTS ( 1.000000000000000000, 0.0000000000000000000, 0.0000000000000000000, 0.0000000000000000000, 0.0000000000000000000, 0.0000000000000000000, 0.0000000000000000000 ) ;
#225 =( GEOMETRIC_REPRESENTATION_CONTEXT ( 3 ) GLOBAL_UNCERTAINTY_ASSIGNED_CONTEXT ( ( #121 ) ) GLOBAL_UNIT_ASSIGNED_CONTEXT ( ( #93, #87, #179 ) ) REPRESENTATION_CONTEXT ( 'NONE', 'WORKASPACE' ) );
#226 = EDGE_LOOP ( 'NONE', ( #182, #301, #35, #371 ) ) ;
#227 = MANIFOLD_SOLID_BREP ( 'Cut-Revolve1', #273 ) ;
#228 = FACE_OUTER_BOUND ( 'NONE', #162, .T. ) ;
#229 = DIRECTION ( 'NONE',  ( 1.000000000000000000, 0.0000000000000000000, 0.0000000000000000000 ) ) ;
#230 = PRESENTATION_STYLE_ASSIGNMENT (( #176 ) ) ;
#231 = AXIS2_PLACEMENT_3D ( 'NONE', #22, #237, #110 ) ;
#232 = EDGE_CURVE ( 'NONE', #362, #358, #208, .T. ) ;
#233 = FILL_AREA_STYLE_COLOUR ( '', #211 ) ;
#234 = ORIENTED_EDGE ( 'NONE', *, *, #101, .T. ) ;
#235 = DIRECTION ( 'NONE',  ( -0.0000000000000000000, -0.0000000000000000000, -1.000000000000000000 ) ) ;
#236 = DIRECTION ( 'NONE',  ( -1.000000000000000000, 0.0000000000000000000, 0.0000000000000000000 ) ) ;
#237 = DIRECTION ( 'NONE',  ( 0.0000000000000000000, 0.0000000000000000000, 1.000000000000000000 ) ) ;
#238 = CIRCLE ( 'NONE', #149, 0.07874000000000001831 ) ;
#239 = PRODUCT_DEFINITION_FORMATION_WITH_SPECIFIED_SOURCE ( 'ANY', '', #193, .NOT_KNOWN. ) ;
#240 = DIRECTION ( 'NONE',  ( -0.0000000000000000000, -0.0000000000000000000, -1.000000000000000000 ) ) ;
#241 = ADVANCED_FACE ( 'NONE', ( #84 ), #64, .T. ) ;
#242 = CARTESIAN_POINT ( 'NONE',  ( 0.009449000000000047639, 1.157168760514339832E-18, 0.3937009999999999676 ) ) ;
#243 = EDGE_CURVE ( 'NONE', #253, #341, #158, .T. ) ;
#244 = EDGE_CURVE ( 'NONE', #100, #362, #267, .T. ) ;
#245 = CIRCLE ( 'NONE', #206, 0.009449000000000047639 ) ;
#246 = DIRECTION ( 'NONE',  ( 0.7071067811865507924, 8.659560562354973534E-17, -0.7071067811865443531 ) ) ;
#247 = ORIENTED_EDGE ( 'NONE', *, *, #243, .T. ) ;
#248 = VERTEX_POINT ( 'NONE', #119 ) ;
#249 = CARTESIAN_POINT ( 'NONE',  ( -0.07874000000000001831, 0.0000000000000000000, 1.953504000000000129 ) ) ;
#250 = CIRCLE ( 'NONE', #49, 0.009841515750000005142 ) ;
#251 = VERTEX_POINT ( 'NONE', #242 ) ;
#252 =( CONVERSION_BASED_UNIT ( 'INCH', #131 ) LENGTH_UNIT ( ) NAMED_UNIT ( #104 ) );
#253 = VERTEX_POINT ( 'NONE', #352 ) ;
#254 = ORIENTED_EDGE ( 'NONE', *, *, #14, .F. ) ;
#255 = ADVANCED_FACE ( 'NONE', ( #326 ), #347, .T. ) ;
#256 = VECTOR ( 'NONE', #141, 39.37007874015748143 ) ;
#257 = DIRECTION ( 'NONE',  ( -1.000000000000000000, 0.0000000000000000000, 0.0000000000000000000 ) ) ;
#258 = DIRECTION ( 'NONE',  ( -0.0000000000000000000, -0.0000000000000000000, -1.000000000000000000 ) ) ;
#259 = SURFACE_SIDE_STYLE ('',( #294 ) ) ;
#260 = VERTEX_POINT ( 'NONE', #85 ) ;
#261 = APPLICATION_PROTOCOL_DEFINITION ( 'draft international standard', 'automotive_design', 1998, #120 ) ;
#262 = CARTESIAN_POINT ( 'NONE',  ( 0.0000000000000000000, 0.0000000000000000000, 0.0000000000000000000 ) ) ;
#263 = AXIS2_PLACEMENT_3D ( 'NONE', #29, #213, #220 ) ;
#264 = DIRECTION ( 'NONE',  ( -0.0000000000000000000, -0.0000000000000000000, -1.000000000000000000 ) ) ;
#265 = CARTESIAN_POINT ( 'NONE',  ( 0.0000000000000000000, 0.0000000000000000000, 0.0000000000000000000 ) ) ;
#266 = FACE_OUTER_BOUND ( 'NONE', #348, .T. ) ;
#267 = LINE ( 'NONE', #378, #345 ) ;
#268 = AXIS2_PLACEMENT_3D ( 'NONE', #155, #258, #197 ) ;
#269 = AXIS2_PLACEMENT_3D ( 'NONE', #142, #92, #236 ) ;
#270 = PLANE ( 'NONE',  #292 ) ;
#271 = EDGE_CURVE ( 'NONE', #251, #248, #203, .T. ) ;
#272 =( NAMED_UNIT ( * ) PLANE_ANGLE_UNIT ( ) SI_UNIT ( $, .RADIAN. ) );
#273 = CLOSED_SHELL ( 'NONE', ( #181, #255, #53, #68, #314, #148, #201, #241, #143, #169, #21, #376, #305 ) ) ;
#274 = AXIS2_PLACEMENT_3D ( 'NONE', #204, #375, #173 ) ;
#275 = ORIENTED_EDGE ( 'NONE', *, *, #36, .T. ) ;
#276 = CARTESIAN_POINT ( 'NONE',  ( -0.009841515750000005142, 0.0000000000000000000, 0.0000000000000000000 ) ) ;
#277 = ORIENTED_EDGE ( 'NONE', *, *, #108, .F. ) ;
#278 = CYLINDRICAL_SURFACE ( 'NONE', #263, 0.07874000000000001831 ) ;
#279 = ORIENTED_EDGE ( 'NONE', *, *, #337, .F. ) ;
#280 =( GEOMETRIC_REPRESENTATION_CONTEXT ( 3 ) GLOBAL_UNCERTAINTY_ASSIGNED_CONTEXT ( ( #145 ) ) GLOBAL_UNIT_ASSIGNED_CONTEXT ( ( #252, #272, #102 ) ) REPRESENTATION_CONTEXT ( 'NONE', 'WORKASPACE' ) );
#281 = ORIENTED_EDGE ( 'NONE', *, *, #271, .T. ) ;
#282 = DIRECTION ( 'NONE',  ( -1.000000000000000000, 0.0000000000000000000, 0.0000000000000000000 ) ) ;
#283 = ADVANCED_BREP_SHAPE_REPRESENTATION ( 'Micro_MMBM-005-10', ( #227, #365 ), #280 ) ;
#284 = ORIENTED_EDGE ( 'NONE', *, *, #317, .T. ) ;
#285 = LINE ( 'NONE', #80, #106 ) ;
#286 =( LENGTH_UNIT ( ) NAMED_UNIT ( * ) SI_UNIT ( $, .METRE. ) );
#287 = CIRCLE ( 'NONE', #379, 0.07874000000000001831 ) ;
#288 = DIRECTION ( 'NONE',  ( 0.0000000000000000000, 0.0000000000000000000, -1.000000000000000000 ) ) ;
#289 = FACE_OUTER_BOUND ( 'NONE', #13, .T. ) ;
#290 = DIRECTION ( 'NONE',  ( -0.0000000000000000000, -0.0000000000000000000, -1.000000000000000000 ) ) ;
#291 = LINE ( 'NONE', #137, #111 ) ;
#292 = AXIS2_PLACEMENT_3D ( 'NONE', #209, #114, #178 ) ;
#293 = CARTESIAN_POINT ( 'NONE',  ( -0.07874000000000001831, 0.0000000000000000000, 0.3937009999999999121 ) ) ;
#294 = SURFACE_STYLE_FILL_AREA ( #346 ) ;
#295 = DIRECTION ( 'NONE',  ( -0.0000000000000000000, -0.0000000000000000000, -1.000000000000000000 ) ) ;
#296 = FACE_OUTER_BOUND ( 'NONE', #339, .T. ) ;
#297 = DIRECTION ( 'NONE',  ( -1.000000000000000000, 0.0000000000000000000, 0.0000000000000000000 ) ) ;
#298 = CARTESIAN_POINT ( 'NONE',  ( -0.009449000000000025087, 0.0000000000000000000, 0.0000000000000000000 ) ) ;
#299 = PRESENTATION_LAYER_ASSIGNMENT (  '', '', ( #89 ) ) ;
#300 = ORIENTED_EDGE ( 'NONE', *, *, #324, .T. ) ;
#301 = ORIENTED_EDGE ( 'NONE', *, *, #36, .F. ) ;
#302 = ORIENTED_EDGE ( 'NONE', *, *, #243, .F. ) ;
#303 = DIRECTION ( 'NONE',  ( -1.000000000000000000, 0.0000000000000000000, 0.0000000000000000000 ) ) ;
#304 = CARTESIAN_POINT ( 'NONE',  ( 0.009841515750000005142, 1.205238076199577027E-18, 0.01968500000000000111 ) ) ;
#305 = ADVANCED_FACE ( 'NONE', ( #355 ), #37, .F. ) ;
#306 = DIRECTION ( 'NONE',  ( -0.0000000000000000000, -0.0000000000000000000, -1.000000000000000000 ) ) ;
#307 = ORIENTED_EDGE ( 'NONE', *, *, #14, .T. ) ;
#308 = AXIS2_PLACEMENT_3D ( 'NONE', #56, #144, #207 ) ;
#309 = UNCERTAINTY_MEASURE_WITH_UNIT (LENGTH_MEASURE( 1.000000000000000082E-05 ), #44, 'distance_accuracy_value', 'NONE');
#310 = VERTEX_POINT ( 'NONE', #127 ) ;
#311 =( NAMED_UNIT ( * ) PLANE_ANGLE_UNIT ( ) SI_UNIT ( $, .RADIAN. ) );
#312 = DIRECTION ( 'NONE',  ( -0.0000000000000000000, -0.0000000000000000000, -1.000000000000000000 ) ) ;
#313 = DIRECTION ( 'NONE',  ( 0.0000000000000000000, 0.0000000000000000000, -1.000000000000000000 ) ) ;
#314 = ADVANCED_FACE ( 'NONE', ( #223 ), #278, .T. ) ;
#315 = DIRECTION ( 'NONE',  ( -0.0000000000000000000, -0.0000000000000000000, -1.000000000000000000 ) ) ;
#316 = DIRECTION ( 'NONE',  ( -0.1736481776669307475, 0.0000000000000000000, -0.9848077530122077983 ) ) ;
#317 = EDGE_CURVE ( 'NONE', #248, #100, #140, .T. ) ;
#318 = ORIENTED_EDGE ( 'NONE', *, *, #244, .T. ) ;
#319 = FACE_OUTER_BOUND ( 'NONE', #40, .T. ) ;
#320 = PLANE ( 'NONE',  #231 ) ;
#321 = CONICAL_SURFACE ( 'NONE', #94, 0.06374000000000018540, 0.7853981633974528309 ) ;
#322 = CARTESIAN_POINT ( 'NONE',  ( 0.009841515750000005142, 1.205238076199577027E-18, 0.0000000000000000000 ) ) ;
#323 = DIRECTION ( 'NONE',  ( -1.000000000000000000, 0.0000000000000000000, 0.0000000000000000000 ) ) ;
#324 = EDGE_CURVE ( 'NONE', #100, #248, #77, .T. ) ;
#325 = CARTESIAN_POINT ( 'NONE',  ( 0.0000000000000000000, 0.0000000000000000000, 0.01968500000000000111 ) ) ;
#326 = FACE_OUTER_BOUND ( 'NONE', #38, .T. ) ;
#327 = AXIS2_PLACEMENT_3D ( 'NONE', #25, #202, #323 ) ;
#328 = EDGE_CURVE ( 'NONE', #253, #310, #34, .T. ) ;
#329 = VERTEX_POINT ( 'NONE', #7 ) ;
#330 = DIRECTION ( 'NONE',  ( -0.0000000000000000000, -0.0000000000000000000, -1.000000000000000000 ) ) ;
#331 = ORIENTED_EDGE ( 'NONE', *, *, #58, .T. ) ;
#332 = AXIS2_PLACEMENT_3D ( 'NONE', #265, #54, #210 ) ;
#333 = SURFACE_SIDE_STYLE ('',( #215 ) ) ;
#334 = EDGE_LOOP ( 'NONE', ( #183, #254 ) ) ;
#335 = DIRECTION ( 'NONE',  ( 0.0000000000000000000, 0.0000000000000000000, 1.000000000000000000 ) ) ;
#336 = ORIENTED_EDGE ( 'NONE', *, *, #118, .T. ) ;
#337 = EDGE_CURVE ( 'NONE', #248, #4, #152, .T. ) ;
#338 = DIRECTION ( 'NONE',  ( -0.0000000000000000000, -0.0000000000000000000, -1.000000000000000000 ) ) ;
#339 = EDGE_LOOP ( 'NONE', ( #275, #247 ) ) ;
#340 = CONICAL_SURFACE ( 'NONE', #122, 0.009841515750000005142, 0.1745329251994333919 ) ;
#341 = VERTEX_POINT ( 'NONE', #10 ) ;
#342 = EDGE_CURVE ( 'NONE', #358, #260, #65, .T. ) ;
#343 = DIRECTION ( 'NONE',  ( 1.000000000000000000, 0.0000000000000000000, 0.0000000000000000000 ) ) ;
#344 = DIRECTION ( 'NONE',  ( -0.0000000000000000000, -0.0000000000000000000, -1.000000000000000000 ) ) ;
#345 = VECTOR ( 'NONE', #316, 39.37007874015748854 ) ;
#346 = FILL_AREA_STYLE ('',( #233 ) ) ;
#347 = CYLINDRICAL_SURFACE ( 'NONE', #41, 0.009449000000000025087 ) ;
#348 = EDGE_LOOP ( 'NONE', ( #189, #192 ) ) ;
#349 = CARTESIAN_POINT ( 'NONE',  ( 0.0000000000000000000, 0.0000000000000000000, 0.3937009999999999121 ) ) ;
#350 = AXIS2_PLACEMENT_3D ( 'NONE', #79, #312, #164 ) ;
#351 = FACE_OUTER_BOUND ( 'NONE', #126, .T. ) ;
#352 = CARTESIAN_POINT ( 'NONE',  ( 0.06374000000000018540, 8.724383797125754882E-18, 1.968503999999999809 ) ) ;
#353 = AXIS2_PLACEMENT_3D ( 'NONE', #27, #91, #146 ) ;
#354 = VECTOR ( 'NONE', #246, 39.37007874015748143 ) ;
#355 = FACE_OUTER_BOUND ( 'NONE', #214, .T. ) ;
#356 = ORIENTED_EDGE ( 'NONE', *, *, #63, .F. ) ;
#357 = FILL_AREA_STYLE_COLOUR ( '', #33 ) ;
#358 = VERTEX_POINT ( 'NONE', #276 ) ;
#359 = VECTOR ( 'NONE', #290, 39.37007874015748143 ) ;
#360 = CARTESIAN_POINT ( 'NONE',  ( 0.0000000000000000000, 0.0000000000000000000, 0.0000000000000000000 ) ) ;
#361 = ORIENTED_EDGE ( 'NONE', *, *, #101, .F. ) ;
#362 = VERTEX_POINT ( 'NONE', #12 ) ;
#363 = ORIENTED_EDGE ( 'NONE', *, *, #58, .F. ) ;
#364 = VECTOR ( 'NONE', #175, 39.37007874015748143 ) ;
#365 = AXIS2_PLACEMENT_3D ( 'NONE', #138, #15, #18 ) ;
#366 = CARTESIAN_POINT ( 'NONE',  ( -0.009449000000000047639, 0.0000000000000000000, 0.3937009999999999676 ) ) ;
#367 = DIRECTION ( 'NONE',  ( 0.0000000000000000000, 0.0000000000000000000, -1.000000000000000000 ) ) ;
#368 = VERTEX_POINT ( 'NONE', #249 ) ;
#369 = AXIS2_PLACEMENT_3D ( 'NONE', #190, #335, #161 ) ;
#370 = DIRECTION ( 'NONE',  ( -0.0000000000000000000, -0.0000000000000000000, -1.000000000000000000 ) ) ;
#371 = ORIENTED_EDGE ( 'NONE', *, *, #48, .F. ) ;
#372 = DIRECTION ( 'NONE',  ( -1.000000000000000000, 0.0000000000000000000, 0.0000000000000000000 ) ) ;
#373 = CARTESIAN_POINT ( 'NONE',  ( -0.07874000000000001831, 0.0000000000000000000, 1.968503999999999809 ) ) ;
#374 =( LENGTH_UNIT ( ) NAMED_UNIT ( * ) SI_UNIT ( $, .METRE. ) );
#375 = DIRECTION ( 'NONE',  ( -0.0000000000000000000, -0.0000000000000000000, -1.000000000000000000 ) ) ;
#376 = ADVANCED_FACE ( 'NONE', ( #5 ), #156, .T. ) ;
#377 = CIRCLE ( 'NONE', #268, 0.009449000000000047639 ) ;
#378 = CARTESIAN_POINT ( 'NONE',  ( -0.009841515750000005142, 0.0000000000000000000, 0.01968500000000000111 ) ) ;
#379 = AXIS2_PLACEMENT_3D ( 'NONE', #165, #288, #343 ) ;
ENDSEC;
END-ISO-10303-21;
