ISO-10303-21;
HEADER;
FILE_DESCRIPTION (( 'STEP AP214' ),
    '1' );
FILE_NAME ('84590.STEP',
    '2023-07-12T13:09:07',
    ( '' ),
    ( '' ),
    'SwSTEP 2.0',
    'SolidWorks 2023',
    '' );
FILE_SCHEMA (( 'AUTOMOTIVE_DESIGN' ));
ENDSEC;

DATA;
#1 = CARTESIAN_POINT ( 'NONE',  ( 0.09374999999999987510, 2.000000000000000000, 1.148106374200642938E-17 ) ) ;
#2 = CLOSED_SHELL ( 'NONE', ( #233, #281, #163, #100 ) ) ;
#3 =( GEOMETRIC_REPRESENTATION_CONTEXT ( 3 ) GLOBAL_UNCERTAINTY_ASSIGNED_CONTEXT ( ( #238 ) ) GLOBAL_UNIT_ASSIGNED_CONTEXT ( ( #254, #257, #5 ) ) REPRESENTATION_CONTEXT ( 'NONE', 'WORKASPACE' ) );
#4 = EDGE_CURVE ( 'NONE', #38, #155, #288, .T. ) ;
#5 =( NAMED_UNIT ( * ) SI_UNIT ( $, .STERADIAN. ) SOLID_ANGLE_UNIT ( ) );
#6 = PRESENTATION_STYLE_ASSIGNMENT (( #193 ) ) ;
#7 = AXIS2_PLACEMENT_3D ( 'NONE', #103, #197, #82 ) ;
#8 =( LENGTH_UNIT ( ) NAMED_UNIT ( * ) SI_UNIT ( $, .METRE. ) );
#9 = MANIFOLD_SOLID_BREP ( 'Revolve - Cutting Edge', #2 ) ;
#10 = SURFACE_SIDE_STYLE ('',( #224 ) ) ;
#11 = CIRCLE ( 'NONE', #97, 0.09374999999999998612 ) ;
#12 = LENGTH_MEASURE_WITH_UNIT ( LENGTH_MEASURE( 0.02539999999999999897 ), #8 );
#13 = FACE_OUTER_BOUND ( 'NONE', #267, .T. ) ;
#14 = ORIENTED_EDGE ( 'NONE', *, *, #59, .T. ) ;
#15 = PRESENTATION_STYLE_ASSIGNMENT (( #87 ) ) ;
#16 = EDGE_LOOP ( 'NONE', ( #164, #228, #226, #250 ) ) ;
#17 = VECTOR ( 'NONE', #229, 39.37007874015748143 ) ;
#18 = ADVANCED_BREP_SHAPE_REPRESENTATION ( '84590', ( #9, #114, #168 ), #171 ) ;
#19 = ORIENTED_EDGE ( 'NONE', *, *, #251, .T. ) ;
#20 = DIRECTION ( 'NONE',  ( 1.000000000000000000, 0.000000000000000000, 0.000000000000000000 ) ) ;
#21 = AXIS2_PLACEMENT_3D ( 'NONE', #91, #108, #180 ) ;
#22 = DIRECTION ( 'NONE',  ( -1.000000000000000000, 0.000000000000000000, 0.000000000000000000 ) ) ;
#23 = DIMENSIONAL_EXPONENTS ( 1.000000000000000000, 0.000000000000000000, 0.000000000000000000, 0.000000000000000000, 0.000000000000000000, 0.000000000000000000, 0.000000000000000000 ) ;
#24 = CARTESIAN_POINT ( 'NONE',  ( -0.02500000000000000139, -2.053716830984488906E-34, 0.000000000000000000 ) ) ;
#25 = EDGE_CURVE ( 'NONE', #155, #38, #268, .T. ) ;
#26 = VECTOR ( 'NONE', #280, 39.37007874015748143 ) ;
#27 = FACE_OUTER_BOUND ( 'NONE', #181, .T. ) ;
#28 = SURFACE_STYLE_FILL_AREA ( #102 ) ;
#29 = EDGE_CURVE ( 'NONE', #204, #248, #165, .T. ) ;
#30 = PLANE ( 'NONE',  #179 ) ;
#31 =( NAMED_UNIT ( * ) SI_UNIT ( $, .STERADIAN. ) SOLID_ANGLE_UNIT ( ) );
#32 = FACE_OUTER_BOUND ( 'NONE', #227, .T. ) ;
#33 = PRESENTATION_LAYER_ASSIGNMENT (  '', '', ( #239 ) ) ;
#34 = FACE_OUTER_BOUND ( 'NONE', #210, .T. ) ;
#35 = SURFACE_STYLE_FILL_AREA ( #300 ) ;
#36 = DIRECTION ( 'NONE',  ( -1.000000000000000000, 0.000000000000000000, 0.000000000000000000 ) ) ;
#37 = FILL_AREA_STYLE ('',( #206 ) ) ;
#38 = VERTEX_POINT ( 'NONE', #249 ) ;
#39 = SURFACE_SIDE_STYLE ('',( #271 ) ) ;
#40 =( NAMED_UNIT ( * ) PLANE_ANGLE_UNIT ( ) SI_UNIT ( $, .RADIAN. ) );
#41 = ORIENTED_EDGE ( 'NONE', *, *, #29, .F. ) ;
#42 = STYLED_ITEM ( 'NONE', ( #116 ), #9 ) ;
#43 =( GEOMETRIC_REPRESENTATION_CONTEXT ( 3 ) GLOBAL_UNCERTAINTY_ASSIGNED_CONTEXT ( ( #89 ) ) GLOBAL_UNIT_ASSIGNED_CONTEXT ( ( #297, #40, #111 ) ) REPRESENTATION_CONTEXT ( 'NONE', 'WORKASPACE' ) );
#44 = SURFACE_SIDE_STYLE ('',( #35 ) ) ;
#45 = LINE ( 'NONE', #1, #17 ) ;
#46 = EDGE_CURVE ( 'NONE', #302, #209, #277, .T. ) ;
#47 = SURFACE_STYLE_USAGE ( .BOTH. , #72 ) ;
#48 = CARTESIAN_POINT ( 'NONE',  ( -2.369500423704768587E-34, 0.05768809964343777491, 0.000000000000000000 ) ) ;
#49 = COLOUR_RGB ( '',1.000000000000000000, 0.000000000000000000, 0.000000000000000000 ) ;
#50 = PRESENTATION_STYLE_ASSIGNMENT (( #133 ) ) ;
#51 = LENGTH_MEASURE_WITH_UNIT ( LENGTH_MEASURE( 0.02539999999999999897 ), #216 );
#52 = AXIS2_PLACEMENT_3D ( 'NONE', #186, #223, #243 ) ;
#53 = PRESENTATION_LAYER_ASSIGNMENT (  '', '', ( #234 ) ) ;
#54 = PRODUCT_DEFINITION_FORMATION_WITH_SPECIFIED_SOURCE ( 'ANY', '', #101, .NOT_KNOWN. ) ;
#55 = DIRECTION ( 'NONE',  ( -1.000000000000000000, -4.107433661968977470E-33, 0.000000000000000000 ) ) ;
#56 = COLOUR_RGB ( '',0.7921568627450980005, 0.8196078431372548767, 0.9333333333333333481 ) ;
#57 = PLANE ( 'NONE',  #21 ) ;
#58 = PRESENTATION_STYLE_ASSIGNMENT (( #66 ) ) ;
#59 = EDGE_CURVE ( 'NONE', #298, #38, #45, .T. ) ;
#60 = CARTESIAN_POINT ( 'NONE',  ( -6.123233995736763571E-17, 2.000000000000000000, 0.000000000000000000 ) ) ;
#61 =( NAMED_UNIT ( * ) PLANE_ANGLE_UNIT ( ) SI_UNIT ( $, .RADIAN. ) );
#62 = CARTESIAN_POINT ( 'NONE',  ( -0.09375000000000001388, 2.000000000000000000, 0.000000000000000000 ) ) ;
#63 = AXIS2_PLACEMENT_3D ( 'NONE', #152, #265, #240 ) ;
#64 =( NAMED_UNIT ( * ) SI_UNIT ( $, .STERADIAN. ) SOLID_ANGLE_UNIT ( ) );
#65 = FILL_AREA_STYLE_COLOUR ( '', #49 ) ;
#66 = SURFACE_STYLE_USAGE ( .BOTH. , #242 ) ;
#67 = ORIENTED_EDGE ( 'NONE', *, *, #25, .T. ) ;
#68 = FILL_AREA_STYLE ('',( #177 ) ) ;
#69 = DIRECTION ( 'NONE',  ( -1.208217220923066454E-16, 1.000000000000000000, -0.000000000000000000 ) ) ;
#70 = ORIENTED_EDGE ( 'NONE', *, *, #46, .T. ) ;
#71 = MECHANICAL_DESIGN_GEOMETRIC_PRESENTATION_REPRESENTATION (  '', ( #239 ), #3 ) ;
#72 = SURFACE_SIDE_STYLE ('',( #140 ) ) ;
#73 = CARTESIAN_POINT ( 'NONE',  ( 1.734411286840929226E-16, 0.05768809964343782348, 0.000000000000000000 ) ) ;
#74 = DIRECTION ( 'NONE',  ( -1.000000000000000000, 0.000000000000000000, 0.000000000000000000 ) ) ;
#75 = MECHANICAL_DESIGN_GEOMETRIC_PRESENTATION_REPRESENTATION (  '', ( #42 ), #219 ) ;
#76 = CIRCLE ( 'NONE', #128, 0.09374999999999981959 ) ;
#77 =( LENGTH_UNIT ( ) NAMED_UNIT ( * ) SI_UNIT ( $, .METRE. ) );
#78 = DIRECTION ( 'NONE',  ( -1.000000000000000000, -1.208217220923066454E-16, 0.000000000000000000 ) ) ;
#79 = DIRECTION ( 'NONE',  ( 1.000000000000000000, 0.000000000000000000, 0.000000000000000000 ) ) ;
#80 = CONICAL_SURFACE ( 'NONE', #245, 0.02500000000000000139, 0.8726646259971666542 ) ;
#81 = SHAPE_DEFINITION_REPRESENTATION ( #279, #18 ) ;
#82 = DIRECTION ( 'NONE',  ( 1.000000000000000000, 4.107433661968977470E-33, 0.000000000000000000 ) ) ;
#83 = APPLICATION_PROTOCOL_DEFINITION ( 'draft international standard', 'automotive_design', 1998, #253 ) ;
#84 = CARTESIAN_POINT ( 'NONE',  ( 4.217752821868972129E-67, -1.026858415492244453E-34, 0.000000000000000000 ) ) ;
#85 = EDGE_CURVE ( 'NONE', #209, #248, #151, .T. ) ;
#86 = MECHANICAL_DESIGN_GEOMETRIC_PRESENTATION_REPRESENTATION (  '', ( #234 ), #43 ) ;
#87 = SURFACE_STYLE_USAGE ( .BOTH. , #10 ) ;
#88 = EDGE_CURVE ( 'NONE', #93, #298, #76, .T. ) ;
#89 = UNCERTAINTY_MEASURE_WITH_UNIT (LENGTH_MEASURE( 1.000000000000000082E-05 ), #297, 'distance_accuracy_value', 'NONE');
#90 =( LENGTH_UNIT ( ) NAMED_UNIT ( * ) SI_UNIT ( $, .METRE. ) );
#91 = CARTESIAN_POINT ( 'NONE',  ( 0.09374999999999998612, 2.000000000000000000, 0.000000000000000000 ) ) ;
#92 = DIRECTION ( 'NONE',  ( -1.000000000000000000, -4.107433661968977470E-33, 0.000000000000000000 ) ) ;
#93 = VERTEX_POINT ( 'NONE', #283 ) ;
#94 = ORIENTED_EDGE ( 'NONE', *, *, #225, .F. ) ;
#95 = CARTESIAN_POINT ( 'NONE',  ( -6.123233995736763571E-17, 2.000000000000000000, 0.000000000000000000 ) ) ;
#96 = ADVANCED_FACE ( 'NONE', ( #98 ), #142, .T. ) ;
#97 = AXIS2_PLACEMENT_3D ( 'NONE', #255, #106, #266 ) ;
#98 = FACE_OUTER_BOUND ( 'NONE', #246, .T. ) ;
#99 =( NAMED_UNIT ( * ) SI_UNIT ( $, .STERADIAN. ) SOLID_ANGLE_UNIT ( ) );
#100 = ADVANCED_FACE ( 'NONE', ( #212 ), #173, .T. ) ;
#101 = PRODUCT ( '84590', '84590', '', ( #290 ) ) ;
#102 = FILL_AREA_STYLE ('',( #217 ) ) ;
#103 = CARTESIAN_POINT ( 'NONE',  ( 2.108876410934486064E-67, -5.134292077461222265E-35, 0.000000000000000000 ) ) ;
#104 =( CONVERSION_BASED_UNIT ( 'INCH', #51 ) LENGTH_UNIT ( ) NAMED_UNIT ( #23 ) );
#105 = CARTESIAN_POINT ( 'NONE',  ( 0.000000000000000000, 0.000000000000000000, 0.000000000000000000 ) ) ;
#106 = DIRECTION ( 'NONE',  ( 4.107433661968977470E-33, -1.000000000000000000, -0.000000000000000000 ) ) ;
#107 = COLOUR_RGB ( '',1.000000000000000000, 0.000000000000000000, 0.000000000000000000 ) ;
#108 = DIRECTION ( 'NONE',  ( 1.208217220923066454E-16, -1.000000000000000000, 0.000000000000000000 ) ) ;
#109 = EDGE_LOOP ( 'NONE', ( #129, #274 ) ) ;
#110 = DIRECTION ( 'NONE',  ( -1.208217220923066454E-16, 1.000000000000000000, -0.000000000000000000 ) ) ;
#111 =( NAMED_UNIT ( * ) SI_UNIT ( $, .STERADIAN. ) SOLID_ANGLE_UNIT ( ) );
#112 =( CONVERSION_BASED_UNIT ( 'INCH', #201 ) LENGTH_UNIT ( ) NAMED_UNIT ( #213 ) );
#113 = ORIENTED_EDGE ( 'NONE', *, *, #225, .T. ) ;
#114 = MANIFOLD_SOLID_BREP ( 'Revolve - Tool Body (Tipped Off)', #190 ) ;
#115 =( NAMED_UNIT ( * ) PLANE_ANGLE_UNIT ( ) SI_UNIT ( $, .RADIAN. ) );
#116 = PRESENTATION_STYLE_ASSIGNMENT (( #139 ) ) ;
#117 = STYLED_ITEM ( 'NONE', ( #144 ), #233 ) ;
#118 =( GEOMETRIC_REPRESENTATION_CONTEXT ( 3 ) GLOBAL_UNCERTAINTY_ASSIGNED_CONTEXT ( ( #220 ) ) GLOBAL_UNIT_ASSIGNED_CONTEXT ( ( #136, #115, #31 ) ) REPRESENTATION_CONTEXT ( 'NONE', 'WORKASPACE' ) );
#119 = DIRECTION ( 'NONE',  ( -0.7660444431189792347, 0.6427876096865379196, 0.000000000000000000 ) ) ;
#120 = UNCERTAINTY_MEASURE_WITH_UNIT (LENGTH_MEASURE( 1.000000000000000082E-05 ), #112, 'distance_accuracy_value', 'NONE');
#121 = AXIS2_PLACEMENT_3D ( 'NONE', #305, #184, #92 ) ;
#122 = CARTESIAN_POINT ( 'NONE',  ( 1.734411286840929472E-16, 0.05768809964343776797, 0.000000000000000000 ) ) ;
#123 = LENGTH_MEASURE_WITH_UNIT ( LENGTH_MEASURE( 0.02539999999999999897 ), #90 );
#124 = PLANE ( 'NONE',  #296 ) ;
#125 = UNCERTAINTY_MEASURE_WITH_UNIT (LENGTH_MEASURE( 1.000000000000000082E-05 ), #263, 'distance_accuracy_value', 'NONE');
#126 = UNCERTAINTY_MEASURE_WITH_UNIT (LENGTH_MEASURE( 1.000000000000000082E-05 ), #104, 'distance_accuracy_value', 'NONE');
#127 =( LENGTH_UNIT ( ) NAMED_UNIT ( * ) SI_UNIT ( $, .METRE. ) );
#128 = AXIS2_PLACEMENT_3D ( 'NONE', #73, #192, #309 ) ;
#129 = ORIENTED_EDGE ( 'NONE', *, *, #130, .F. ) ;
#130 = EDGE_CURVE ( 'NONE', #248, #209, #11, .T. ) ;
#131 = FACE_OUTER_BOUND ( 'NONE', #109, .T. ) ;
#132 = ORIENTED_EDGE ( 'NONE', *, *, #88, .F. ) ;
#133 = SURFACE_STYLE_USAGE ( .BOTH. , #39 ) ;
#134 =( NAMED_UNIT ( * ) SI_UNIT ( $, .STERADIAN. ) SOLID_ANGLE_UNIT ( ) );
#135 =( NAMED_UNIT ( * ) PLANE_ANGLE_UNIT ( ) SI_UNIT ( $, .RADIAN. ) );
#136 =( CONVERSION_BASED_UNIT ( 'INCH', #307 ) LENGTH_UNIT ( ) NAMED_UNIT ( #282 ) );
#137 = ORIENTED_EDGE ( 'NONE', *, *, #172, .T. ) ;
#138 = AXIS2_PLACEMENT_3D ( 'NONE', #48, #141, #20 ) ;
#139 = SURFACE_STYLE_USAGE ( .BOTH. , #44 ) ;
#140 = SURFACE_STYLE_FILL_AREA ( #68 ) ;
#141 = DIRECTION ( 'NONE',  ( 4.107433661968977470E-33, -1.000000000000000000, -0.000000000000000000 ) ) ;
#142 = CYLINDRICAL_SURFACE ( 'NONE', #203, 0.09374999999999994449 ) ;
#143 = STYLED_ITEM ( 'NONE', ( #50 ), #281 ) ;
#144 = PRESENTATION_STYLE_ASSIGNMENT (( #47 ) ) ;
#145 = PRODUCT_RELATED_PRODUCT_CATEGORY ( 'part', '', ( #101 ) ) ;
#146 = LENGTH_MEASURE_WITH_UNIT ( LENGTH_MEASURE( 0.02539999999999999897 ), #195 );
#147 = PRODUCT_DEFINITION_CONTEXT ( 'detailed design', #273, 'design' ) ;
#148 = DIMENSIONAL_EXPONENTS ( 1.000000000000000000, 0.000000000000000000, 0.000000000000000000, 0.000000000000000000, 0.000000000000000000, 0.000000000000000000, 0.000000000000000000 ) ;
#149 = CARTESIAN_POINT ( 'NONE',  ( 0.02500000000000000139, 0.000000000000000000, 7.271340369937408974E-18 ) ) ;
#150 = UNCERTAINTY_MEASURE_WITH_UNIT (LENGTH_MEASURE( 1.000000000000000082E-05 ), #185, 'distance_accuracy_value', 'NONE');
#151 = CIRCLE ( 'NONE', #138, 0.09374999999999998612 ) ;
#152 = CARTESIAN_POINT ( 'NONE',  ( 4.217752821868972129E-67, -1.026858415492244453E-34, 0.000000000000000000 ) ) ;
#153 = DIRECTION ( 'NONE',  ( -1.208217220923066454E-16, 1.000000000000000000, -0.000000000000000000 ) ) ;
#154 = CARTESIAN_POINT ( 'NONE',  ( 0.09374999999999998612, 0.05768809964343777491, 1.148106374200643401E-17 ) ) ;
#155 = VERTEX_POINT ( 'NONE', #200 ) ;
#156 = CIRCLE ( 'NONE', #278, 0.09374999999999981959 ) ;
#157 = ORIENTED_EDGE ( 'NONE', *, *, #59, .F. ) ;
#158 = DIRECTION ( 'NONE',  ( 1.000000000000000000, 4.107433661968977470E-33, 0.000000000000000000 ) ) ;
#159 = DIRECTION ( 'NONE',  ( -1.208217220923066454E-16, 1.000000000000000000, -0.000000000000000000 ) ) ;
#160 = EDGE_LOOP ( 'NONE', ( #19, #306 ) ) ;
#161 = FILL_AREA_STYLE ('',( #65 ) ) ;
#162 = CARTESIAN_POINT ( 'NONE',  ( 1.734411286840929226E-16, 0.05768809964343782348, 0.000000000000000000 ) ) ;
#163 = ADVANCED_FACE ( 'NONE', ( #208 ), #260, .T. ) ;
#164 = ORIENTED_EDGE ( 'NONE', *, *, #46, .F. ) ;
#165 = LINE ( 'NONE', #24, #174 ) ;
#166 = FILL_AREA_STYLE_COLOUR ( '', #176 ) ;
#167 = COLOUR_RGB ( '',1.000000000000000000, 0.000000000000000000, 0.000000000000000000 ) ;
#168 = AXIS2_PLACEMENT_3D ( 'NONE', #105, #292, #79 ) ;
#169 = CARTESIAN_POINT ( 'NONE',  ( 0.02500000000000000139, 0.000000000000000000, 3.061616997868383172E-18 ) ) ;
#170 = PRESENTATION_LAYER_ASSIGNMENT (  '', '', ( #143 ) ) ;
#171 =( GEOMETRIC_REPRESENTATION_CONTEXT ( 3 ) GLOBAL_UNCERTAINTY_ASSIGNED_CONTEXT ( ( #126 ) ) GLOBAL_UNIT_ASSIGNED_CONTEXT ( ( #104, #198, #286 ) ) REPRESENTATION_CONTEXT ( 'NONE', 'WORKASPACE' ) );
#172 = EDGE_CURVE ( 'NONE', #93, #155, #272, .T. ) ;
#173 = PLANE ( 'NONE',  #7 ) ;
#174 = VECTOR ( 'NONE', #119, 39.37007874015748143 ) ;
#175 = APPLICATION_PROTOCOL_DEFINITION ( 'draft international standard', 'automotive_design', 1998, #273 ) ;
#176 = COLOUR_RGB ( '',0.7921568627450980005, 0.8196078431372548767, 0.9333333333333333481 ) ;
#177 = FILL_AREA_STYLE_COLOUR ( '', #167 ) ;
#178 = PRESENTATION_LAYER_ASSIGNMENT (  '', '', ( #284 ) ) ;
#179 = AXIS2_PLACEMENT_3D ( 'NONE', #241, #237, #55 ) ;
#180 = DIRECTION ( 'NONE',  ( 1.000000000000000000, 1.208217220923066454E-16, 0.000000000000000000 ) ) ;
#181 = EDGE_LOOP ( 'NONE', ( #132, #94 ) ) ;
#182 = CARTESIAN_POINT ( 'NONE',  ( -0.09374999999999998612, 0.05768809964343777491, 0.000000000000000000 ) ) ;
#183 = ORIENTED_EDGE ( 'NONE', *, *, #4, .T. ) ;
#184 = DIRECTION ( 'NONE',  ( -4.107433661968977470E-33, 1.000000000000000000, 0.000000000000000000 ) ) ;
#185 =( CONVERSION_BASED_UNIT ( 'INCH', #123 ) LENGTH_UNIT ( ) NAMED_UNIT ( #194 ) );
#186 = CARTESIAN_POINT ( 'NONE',  ( -6.123233995736763571E-17, 2.000000000000000000, 0.000000000000000000 ) ) ;
#187 = DIRECTION ( 'NONE',  ( -1.000000000000000000, -9.106159978880894651E-17, 0.000000000000000000 ) ) ;
#188 = ORIENTED_EDGE ( 'NONE', *, *, #4, .F. ) ;
#189 = ORIENTED_EDGE ( 'NONE', *, *, #236, .F. ) ;
#190 = CLOSED_SHELL ( 'NONE', ( #275, #299, #96, #244 ) ) ;
#191 = MECHANICAL_DESIGN_GEOMETRIC_PRESENTATION_REPRESENTATION (  '', ( #284 ), #214 ) ;
#192 = DIRECTION ( 'NONE',  ( -1.208217220923066454E-16, 1.000000000000000000, -0.000000000000000000 ) ) ;
#193 = SURFACE_STYLE_USAGE ( .BOTH. , #291 ) ;
#194 = DIMENSIONAL_EXPONENTS ( 1.000000000000000000, 0.000000000000000000, 0.000000000000000000, 0.000000000000000000, 0.000000000000000000, 0.000000000000000000, 0.000000000000000000 ) ;
#195 =( LENGTH_UNIT ( ) NAMED_UNIT ( * ) SI_UNIT ( $, .METRE. ) );
#196 = CIRCLE ( 'NONE', #63, 0.02500000000000000139 ) ;
#197 = DIRECTION ( 'NONE',  ( 4.107433661968977470E-33, -1.000000000000000000, -0.000000000000000000 ) ) ;
#198 =( NAMED_UNIT ( * ) PLANE_ANGLE_UNIT ( ) SI_UNIT ( $, .RADIAN. ) );
#199 = DIRECTION ( 'NONE',  ( 4.107433661968977470E-33, -1.000000000000000000, -0.000000000000000000 ) ) ;
#200 = CARTESIAN_POINT ( 'NONE',  ( -0.09375000000000012490, 2.000000000000000000, 0.000000000000000000 ) ) ;
#201 = LENGTH_MEASURE_WITH_UNIT ( LENGTH_MEASURE( 0.02539999999999999897 ), #218 );
#202 = PRODUCT_DEFINITION ( 'UNKNOWN', '', #54, #147 ) ;
#203 = AXIS2_PLACEMENT_3D ( 'NONE', #252, #231, #22 ) ;
#204 = VERTEX_POINT ( 'NONE', #270 ) ;
#205 = DIRECTION ( 'NONE',  ( -1.000000000000000000, -4.107433661968977470E-33, 0.000000000000000000 ) ) ;
#206 = FILL_AREA_STYLE_COLOUR ( '', #107 ) ;
#207 = ORIENTED_EDGE ( 'NONE', *, *, #172, .F. ) ;
#208 = FACE_OUTER_BOUND ( 'NONE', #16, .T. ) ;
#209 = VERTEX_POINT ( 'NONE', #154 ) ;
#210 = EDGE_LOOP ( 'NONE', ( #189, #70, #276, #41 ) ) ;
#211 = CIRCLE ( 'NONE', #289, 0.02500000000000000139 ) ;
#212 = FACE_OUTER_BOUND ( 'NONE', #160, .T. ) ;
#213 = DIMENSIONAL_EXPONENTS ( 1.000000000000000000, 0.000000000000000000, 0.000000000000000000, 0.000000000000000000, 0.000000000000000000, 0.000000000000000000, 0.000000000000000000 ) ;
#214 =( GEOMETRIC_REPRESENTATION_CONTEXT ( 3 ) GLOBAL_UNCERTAINTY_ASSIGNED_CONTEXT ( ( #125 ) ) GLOBAL_UNIT_ASSIGNED_CONTEXT ( ( #263, #61, #134 ) ) REPRESENTATION_CONTEXT ( 'NONE', 'WORKASPACE' ) );
#215 = AXIS2_PLACEMENT_3D ( 'NONE', #95, #69, #74 ) ;
#216 =( LENGTH_UNIT ( ) NAMED_UNIT ( * ) SI_UNIT ( $, .METRE. ) );
#217 = FILL_AREA_STYLE_COLOUR ( '', #269 ) ;
#218 =( LENGTH_UNIT ( ) NAMED_UNIT ( * ) SI_UNIT ( $, .METRE. ) );
#219 =( GEOMETRIC_REPRESENTATION_CONTEXT ( 3 ) GLOBAL_UNCERTAINTY_ASSIGNED_CONTEXT ( ( #150 ) ) GLOBAL_UNIT_ASSIGNED_CONTEXT ( ( #185, #135, #99 ) ) REPRESENTATION_CONTEXT ( 'NONE', 'WORKASPACE' ) );
#220 = UNCERTAINTY_MEASURE_WITH_UNIT (LENGTH_MEASURE( 1.000000000000000082E-05 ), #136, 'distance_accuracy_value', 'NONE');
#221 = PRESENTATION_LAYER_ASSIGNMENT (  '', '', ( #42 ) ) ;
#222 = PRESENTATION_LAYER_ASSIGNMENT (  '', '', ( #117 ) ) ;
#223 = DIRECTION ( 'NONE',  ( -1.208217220923066454E-16, 1.000000000000000000, -0.000000000000000000 ) ) ;
#224 = SURFACE_STYLE_FILL_AREA ( #37 ) ;
#225 = EDGE_CURVE ( 'NONE', #298, #93, #156, .T. ) ;
#226 = ORIENTED_EDGE ( 'NONE', *, *, #29, .T. ) ;
#227 = EDGE_LOOP ( 'NONE', ( #67, #183 ) ) ;
#228 = ORIENTED_EDGE ( 'NONE', *, *, #251, .F. ) ;
#229 = DIRECTION ( 'NONE',  ( -1.208217220923066454E-16, 1.000000000000000000, -0.000000000000000000 ) ) ;
#230 = DIMENSIONAL_EXPONENTS ( 1.000000000000000000, 0.000000000000000000, 0.000000000000000000, 0.000000000000000000, 0.000000000000000000, 0.000000000000000000, 0.000000000000000000 ) ;
#231 = DIRECTION ( 'NONE',  ( -1.208217220923066454E-16, 1.000000000000000000, -0.000000000000000000 ) ) ;
#232 = AXIS2_PLACEMENT_3D ( 'NONE', #60, #110, #36 ) ;
#233 = ADVANCED_FACE ( 'NONE', ( #34 ), #80, .T. ) ;
#234 = STYLED_ITEM ( 'NONE', ( #58 ), #114 ) ;
#235 = FILL_AREA_STYLE_COLOUR ( '', #56 ) ;
#236 = EDGE_CURVE ( 'NONE', #302, #204, #211, .T. ) ;
#237 = DIRECTION ( 'NONE',  ( -4.107433661968977470E-33, 1.000000000000000000, 0.000000000000000000 ) ) ;
#238 = UNCERTAINTY_MEASURE_WITH_UNIT (LENGTH_MEASURE( 1.000000000000000082E-05 ), #254, 'distance_accuracy_value', 'NONE');
#239 = STYLED_ITEM ( 'NONE', ( #6 ), #100 ) ;
#240 = DIRECTION ( 'NONE',  ( 1.000000000000000000, 4.107433661968977470E-33, 0.000000000000000000 ) ) ;
#241 = CARTESIAN_POINT ( 'NONE',  ( -2.369500423704768587E-34, 0.05768809964343777491, 0.000000000000000000 ) ) ;
#242 = SURFACE_SIDE_STYLE ('',( #247 ) ) ;
#243 = DIRECTION ( 'NONE',  ( -1.000000000000000000, 0.000000000000000000, 0.000000000000000000 ) ) ;
#244 = ADVANCED_FACE ( 'NONE', ( #32 ), #57, .F. ) ;
#245 = AXIS2_PLACEMENT_3D ( 'NONE', #84, #303, #205 ) ;
#246 = EDGE_LOOP ( 'NONE', ( #157, #113, #137, #188 ) ) ;
#247 = SURFACE_STYLE_FILL_AREA ( #287 ) ;
#248 = VERTEX_POINT ( 'NONE', #182 ) ;
#249 = CARTESIAN_POINT ( 'NONE',  ( 0.09374999999999998612, 2.000000000000000000, 1.148106374200643555E-17 ) ) ;
#250 = ORIENTED_EDGE ( 'NONE', *, *, #130, .T. ) ;
#251 = EDGE_CURVE ( 'NONE', #204, #302, #196, .T. ) ;
#252 = CARTESIAN_POINT ( 'NONE',  ( -6.123233995736763571E-17, 2.000000000000000000, 0.000000000000000000 ) ) ;
#253 = APPLICATION_CONTEXT ( 'automotive_design' ) ;
#254 =( CONVERSION_BASED_UNIT ( 'INCH', #146 ) LENGTH_UNIT ( ) NAMED_UNIT ( #285 ) );
#255 = CARTESIAN_POINT ( 'NONE',  ( -2.369500423704768587E-34, 0.05768809964343777491, 0.000000000000000000 ) ) ;
#256 =( GEOMETRIC_REPRESENTATION_CONTEXT ( 3 ) GLOBAL_UNCERTAINTY_ASSIGNED_CONTEXT ( ( #120 ) ) GLOBAL_UNIT_ASSIGNED_CONTEXT ( ( #112, #259, #64 ) ) REPRESENTATION_CONTEXT ( 'NONE', 'WORKASPACE' ) );
#257 =( NAMED_UNIT ( * ) PLANE_ANGLE_UNIT ( ) SI_UNIT ( $, .RADIAN. ) );
#258 = CARTESIAN_POINT ( 'NONE',  ( 0.09374999999999998612, 0.05768809964343783042, 1.148106374200643555E-17 ) ) ;
#259 =( NAMED_UNIT ( * ) PLANE_ANGLE_UNIT ( ) SI_UNIT ( $, .RADIAN. ) );
#260 = CONICAL_SURFACE ( 'NONE', #121, 0.02500000000000000139, 0.8726646259971666542 ) ;
#261 = MECHANICAL_DESIGN_GEOMETRIC_PRESENTATION_REPRESENTATION (  '', ( #143 ), #118 ) ;
#262 = CYLINDRICAL_SURFACE ( 'NONE', #232, 0.09374999999999994449 ) ;
#263 =( CONVERSION_BASED_UNIT ( 'INCH', #301 ) LENGTH_UNIT ( ) NAMED_UNIT ( #148 ) );
#264 = ORIENTED_EDGE ( 'NONE', *, *, #88, .T. ) ;
#265 = DIRECTION ( 'NONE',  ( 4.107433661968977470E-33, -1.000000000000000000, -0.000000000000000000 ) ) ;
#266 = DIRECTION ( 'NONE',  ( 1.000000000000000000, 0.000000000000000000, 0.000000000000000000 ) ) ;
#267 = EDGE_LOOP ( 'NONE', ( #264, #14, #308, #207 ) ) ;
#268 = CIRCLE ( 'NONE', #215, 0.09375000000000005551 ) ;
#269 = COLOUR_RGB ( '',1.000000000000000000, 0.000000000000000000, 0.000000000000000000 ) ;
#270 = CARTESIAN_POINT ( 'NONE',  ( -0.02500000000000000139, -2.053716830984488906E-34, 0.000000000000000000 ) ) ;
#271 = SURFACE_STYLE_FILL_AREA ( #161 ) ;
#272 = LINE ( 'NONE', #62, #295 ) ;
#273 = APPLICATION_CONTEXT ( 'automotive_design' ) ;
#274 = ORIENTED_EDGE ( 'NONE', *, *, #85, .F. ) ;
#275 = ADVANCED_FACE ( 'NONE', ( #13 ), #262, .T. ) ;
#276 = ORIENTED_EDGE ( 'NONE', *, *, #85, .T. ) ;
#277 = LINE ( 'NONE', #169, #26 ) ;
#278 = AXIS2_PLACEMENT_3D ( 'NONE', #162, #159, #187 ) ;
#279 = PRODUCT_DEFINITION_SHAPE ( 'NONE', 'NONE',  #202 ) ;
#280 = DIRECTION ( 'NONE',  ( 0.7660444431189792347, 0.6427876096865379196, 9.381338752702745572E-17 ) ) ;
#281 = ADVANCED_FACE ( 'NONE', ( #131 ), #30, .T. ) ;
#282 = DIMENSIONAL_EXPONENTS ( 1.000000000000000000, 0.000000000000000000, 0.000000000000000000, 0.000000000000000000, 0.000000000000000000, 0.000000000000000000, 0.000000000000000000 ) ;
#283 = CARTESIAN_POINT ( 'NONE',  ( -0.09374999999999965306, 0.05768809964343781654, 0.000000000000000000 ) ) ;
#284 = STYLED_ITEM ( 'NONE', ( #15 ), #163 ) ;
#285 = DIMENSIONAL_EXPONENTS ( 1.000000000000000000, 0.000000000000000000, 0.000000000000000000, 0.000000000000000000, 0.000000000000000000, 0.000000000000000000, 0.000000000000000000 ) ;
#286 =( NAMED_UNIT ( * ) SI_UNIT ( $, .STERADIAN. ) SOLID_ANGLE_UNIT ( ) );
#287 = FILL_AREA_STYLE ('',( #235 ) ) ;
#288 = CIRCLE ( 'NONE', #52, 0.09375000000000005551 ) ;
#289 = AXIS2_PLACEMENT_3D ( 'NONE', #294, #199, #158 ) ;
#290 = PRODUCT_CONTEXT ( 'NONE', #253, 'mechanical' ) ;
#291 = SURFACE_SIDE_STYLE ('',( #28 ) ) ;
#292 = DIRECTION ( 'NONE',  ( 0.000000000000000000, 0.000000000000000000, 1.000000000000000000 ) ) ;
#293 = DIRECTION ( 'NONE',  ( -1.208217220923066454E-16, 1.000000000000000000, 0.000000000000000000 ) ) ;
#294 = CARTESIAN_POINT ( 'NONE',  ( 4.217752821868972129E-67, -1.026858415492244453E-34, 0.000000000000000000 ) ) ;
#295 = VECTOR ( 'NONE', #153, 39.37007874015748143 ) ;
#296 = AXIS2_PLACEMENT_3D ( 'NONE', #122, #293, #78 ) ;
#297 =( CONVERSION_BASED_UNIT ( 'INCH', #12 ) LENGTH_UNIT ( ) NAMED_UNIT ( #230 ) );
#298 = VERTEX_POINT ( 'NONE', #258 ) ;
#299 = ADVANCED_FACE ( 'NONE', ( #27 ), #124, .F. ) ;
#300 = FILL_AREA_STYLE ('',( #166 ) ) ;
#301 = LENGTH_MEASURE_WITH_UNIT ( LENGTH_MEASURE( 0.02539999999999999897 ), #127 );
#302 = VERTEX_POINT ( 'NONE', #149 ) ;
#303 = DIRECTION ( 'NONE',  ( -4.107433661968977470E-33, 1.000000000000000000, 0.000000000000000000 ) ) ;
#304 = MECHANICAL_DESIGN_GEOMETRIC_PRESENTATION_REPRESENTATION (  '', ( #117 ), #256 ) ;
#305 = CARTESIAN_POINT ( 'NONE',  ( 4.217752821868972129E-67, -1.026858415492244453E-34, 0.000000000000000000 ) ) ;
#306 = ORIENTED_EDGE ( 'NONE', *, *, #236, .T. ) ;
#307 = LENGTH_MEASURE_WITH_UNIT ( LENGTH_MEASURE( 0.02539999999999999897 ), #77 );
#308 = ORIENTED_EDGE ( 'NONE', *, *, #25, .F. ) ;
#309 = DIRECTION ( 'NONE',  ( -1.000000000000000000, -9.106159978880894651E-17, 0.000000000000000000 ) ) ;
ENDSEC;
END-ISO-10303-21;
