ISO-10303-21;
HEADER;
FILE_DESCRIPTION (( 'STEP AP214' ),
    '1' );
FILE_NAME ('01195.STEP',
    '2023-06-22T14:22:47',
    ( '' ),
    ( '' ),
    'SwSTEP 2.0',
    'SolidWorks 2023',
    '' );
FILE_SCHEMA (( 'AUTOMOTIVE_DESIGN' ));
ENDSEC;

DATA;
#1 = CIRCLE ( 'NONE', #75, 0.1250000000000000278 ) ;
#2 =( GEOMETRIC_REPRESENTATION_CONTEXT ( 3 ) GLOBAL_UNCERTAINTY_ASSIGNED_CONTEXT ( ( #113 ) ) GLOBAL_UNIT_ASSIGNED_CONTEXT ( ( #244, #291, #171 ) ) REPRESENTATION_CONTEXT ( 'NONE', 'WORKASPACE' ) );
#3 = DIRECTION ( 'NONE',  ( -1.000000000000000000, -3.498990854706726443E-17, 0.000000000000000000 ) ) ;
#4 =( CONVERSION_BASED_UNIT ( 'INCH', #195 ) LENGTH_UNIT ( ) NAMED_UNIT ( #302 ) );
#5 = ADVANCED_FACE ( 'NONE', ( #235 ), #7, .T. ) ;
#6 = CARTESIAN_POINT ( 'NONE',  ( 0.000000000000000000, 1.250000000000000000, 0.000000000000000000 ) ) ;
#7 = CYLINDRICAL_SURFACE ( 'NONE', #260, 0.1250000000000000000 ) ;
#8 = CIRCLE ( 'NONE', #279, 0.1250000000000000278 ) ;
#9 = LINE ( 'NONE', #34, #68 ) ;
#10 = PRODUCT_DEFINITION_FORMATION_WITH_SPECIFIED_SOURCE ( 'ANY', '', #167, .NOT_KNOWN. ) ;
#11 = SURFACE_STYLE_FILL_AREA ( #127 ) ;
#12 = CARTESIAN_POINT ( 'NONE',  ( 0.000000000000000000, 1.250000000000000000, -0.1250000000000000278 ) ) ;
#13 = CARTESIAN_POINT ( 'NONE',  ( 0.000000000000000000, 0.000000000000000000, -0.1250000000000000000 ) ) ;
#14 = SURFACE_STYLE_USAGE ( .BOTH. , #88 ) ;
#15 = MECHANICAL_DESIGN_GEOMETRIC_PRESENTATION_REPRESENTATION (  '', ( #153 ), #44 ) ;
#16 = PRESENTATION_LAYER_ASSIGNMENT (  '', '', ( #268 ) ) ;
#17 = CARTESIAN_POINT ( 'NONE',  ( -6.123233995736772199E-17, 3.000000000000000444, 0.000000000000000000 ) ) ;
#18 = PRODUCT_RELATED_PRODUCT_CATEGORY ( 'part', '', ( #167 ) ) ;
#19 = ORIENTED_EDGE ( 'NONE', *, *, #65, .F. ) ;
#20 = APPLICATION_PROTOCOL_DEFINITION ( 'draft international standard', 'automotive_design', 1998, #275 ) ;
#21 = ORIENTED_EDGE ( 'NONE', *, *, #258, .F. ) ;
#22 =( LENGTH_UNIT ( ) NAMED_UNIT ( * ) SI_UNIT ( $, .METRE. ) );
#23 = AXIS2_PLACEMENT_3D ( 'NONE', #267, #217, #3 ) ;
#24 = PLANE ( 'NONE',  #146 ) ;
#25 = DIRECTION ( 'NONE',  ( -3.498990854706726443E-17, 1.000000000000000000, -0.000000000000000000 ) ) ;
#26 =( NAMED_UNIT ( * ) PLANE_ANGLE_UNIT ( ) SI_UNIT ( $, .RADIAN. ) );
#27 = CARTESIAN_POINT ( 'NONE',  ( 0.000000000000000000, 0.000000000000000000, -0.1250000000000000000 ) ) ;
#28 = SURFACE_STYLE_USAGE ( .BOTH. , #150 ) ;
#29 = EDGE_CURVE ( 'NONE', #162, #283, #1, .T. ) ;
#30 = MECHANICAL_DESIGN_GEOMETRIC_PRESENTATION_REPRESENTATION (  '', ( #268 ), #296 ) ;
#31 = DIRECTION ( 'NONE',  ( 0.000000000000000000, 0.000000000000000000, -1.000000000000000000 ) ) ;
#32 = CARTESIAN_POINT ( 'NONE',  ( 1.530808498934191509E-17, 0.000000000000000000, 0.1250000000000000000 ) ) ;
#33 = CARTESIAN_POINT ( 'NONE',  ( 0.1250000000000000000, 3.000000000000000444, 1.530808498934192125E-17 ) ) ;
#34 = CARTESIAN_POINT ( 'NONE',  ( 1.530808498934191509E-17, 0.000000000000000000, 0.1250000000000000000 ) ) ;
#35 = SURFACE_STYLE_FILL_AREA ( #249 ) ;
#36 = ADVANCED_FACE ( 'NONE', ( #122 ), #261, .F. ) ;
#37 = FACE_OUTER_BOUND ( 'NONE', #309, .T. ) ;
#38 =( NAMED_UNIT ( * ) SI_UNIT ( $, .STERADIAN. ) SOLID_ANGLE_UNIT ( ) );
#39 = CARTESIAN_POINT ( 'NONE',  ( -0.1250000000000001110, 3.000000000000000444, 0.000000000000000000 ) ) ;
#40 = CARTESIAN_POINT ( 'NONE',  ( 0.000000000000000000, 0.000000000000000000, 0.000000000000000000 ) ) ;
#41 = ORIENTED_EDGE ( 'NONE', *, *, #81, .F. ) ;
#42 = EDGE_CURVE ( 'NONE', #138, #284, #157, .T. ) ;
#43 = ORIENTED_EDGE ( 'NONE', *, *, #42, .F. ) ;
#44 =( GEOMETRIC_REPRESENTATION_CONTEXT ( 3 ) GLOBAL_UNCERTAINTY_ASSIGNED_CONTEXT ( ( #168 ) ) GLOBAL_UNIT_ASSIGNED_CONTEXT ( ( #227, #177, #271 ) ) REPRESENTATION_CONTEXT ( 'NONE', 'WORKASPACE' ) );
#45 = EDGE_LOOP ( 'NONE', ( #91, #188 ) ) ;
#46 = EDGE_LOOP ( 'NONE', ( #93, #207, #19, #21 ) ) ;
#47 = LINE ( 'NONE', #39, #174 ) ;
#48 = ORIENTED_EDGE ( 'NONE', *, *, #148, .T. ) ;
#49 = STYLED_ITEM ( 'NONE', ( #288 ), #272 ) ;
#50 = MECHANICAL_DESIGN_GEOMETRIC_PRESENTATION_REPRESENTATION (  '', ( #72 ), #2 ) ;
#51 = UNCERTAINTY_MEASURE_WITH_UNIT (LENGTH_MEASURE( 1.000000000000000082E-05 ), #230, 'distance_accuracy_value', 'NONE');
#52 = DIRECTION ( 'NONE',  ( -3.498990854706726443E-17, 1.000000000000000000, -0.000000000000000000 ) ) ;
#53 = DIRECTION ( 'NONE',  ( -3.498990854706726443E-17, 1.000000000000000000, -0.000000000000000000 ) ) ;
#54 = CARTESIAN_POINT ( 'NONE',  ( 1.530808498934191817E-17, 1.250000000000000000, 0.1250000000000000278 ) ) ;
#55 = CYLINDRICAL_SURFACE ( 'NONE', #137, 0.1250000000000000278 ) ;
#56 = AXIS2_PLACEMENT_3D ( 'NONE', #83, #273, #225 ) ;
#57 = CARTESIAN_POINT ( 'NONE',  ( 0.000000000000000000, 0.000000000000000000, 0.000000000000000000 ) ) ;
#58 = FILL_AREA_STYLE_COLOUR ( '', #229 ) ;
#59 = SURFACE_SIDE_STYLE ('',( #35 ) ) ;
#60 = DIRECTION ( 'NONE',  ( 1.000000000000000000, 3.498990854706726443E-17, 0.000000000000000000 ) ) ;
#61 = EDGE_CURVE ( 'NONE', #283, #162, #216, .T. ) ;
#62 = CARTESIAN_POINT ( 'NONE',  ( 0.1250000000000000278, 1.250000000000000000, 1.530808498934192125E-17 ) ) ;
#63 = PRODUCT_DEFINITION_SHAPE ( 'NONE', 'NONE',  #181 ) ;
#64 = SURFACE_STYLE_FILL_AREA ( #274 ) ;
#65 = EDGE_CURVE ( 'NONE', #70, #115, #202, .T. ) ;
#66 = DIRECTION ( 'NONE',  ( 0.000000000000000000, 0.000000000000000000, 1.000000000000000000 ) ) ;
#67 =( CONVERSION_BASED_UNIT ( 'INCH', #159 ) LENGTH_UNIT ( ) NAMED_UNIT ( #130 ) );
#68 = VECTOR ( 'NONE', #300, 39.37007874015748143 ) ;
#69 = UNCERTAINTY_MEASURE_WITH_UNIT (LENGTH_MEASURE( 1.000000000000000082E-05 ), #67, 'distance_accuracy_value', 'NONE');
#70 = VERTEX_POINT ( 'NONE', #214 ) ;
#71 = STYLED_ITEM ( 'NONE', ( #142 ), #5 ) ;
#72 = STYLED_ITEM ( 'NONE', ( #246 ), #278 ) ;
#73 = LENGTH_MEASURE_WITH_UNIT ( LENGTH_MEASURE( 0.02539999999999999897 ), #22 );
#74 = ORIENTED_EDGE ( 'NONE', *, *, #29, .F. ) ;
#75 = AXIS2_PLACEMENT_3D ( 'NONE', #102, #196, #31 ) ;
#76 = FILL_AREA_STYLE ('',( #58 ) ) ;
#77 =( NAMED_UNIT ( * ) SI_UNIT ( $, .STERADIAN. ) SOLID_ANGLE_UNIT ( ) );
#78 = LINE ( 'NONE', #27, #164 ) ;
#79 = STYLED_ITEM ( 'NONE', ( #276 ), #208 ) ;
#80 = DIRECTION ( 'NONE',  ( -1.000000000000000000, 0.000000000000000000, 0.000000000000000000 ) ) ;
#81 = EDGE_CURVE ( 'NONE', #139, #115, #144, .T. ) ;
#82 = DIMENSIONAL_EXPONENTS ( 1.000000000000000000, 0.000000000000000000, 0.000000000000000000, 0.000000000000000000, 0.000000000000000000, 0.000000000000000000, 0.000000000000000000 ) ;
#83 = CARTESIAN_POINT ( 'NONE',  ( -6.123233995736772199E-17, 3.000000000000000444, 0.000000000000000000 ) ) ;
#84 = COLOUR_RGB ( '',1.000000000000000000, 0.000000000000000000, 0.000000000000000000 ) ;
#85 = CARTESIAN_POINT ( 'NONE',  ( 0.000000000000000000, 1.250000000000000000, 0.000000000000000000 ) ) ;
#86 =( LENGTH_UNIT ( ) NAMED_UNIT ( * ) SI_UNIT ( $, .METRE. ) );
#87 = DIRECTION ( 'NONE',  ( 0.000000000000000000, 0.000000000000000000, -1.000000000000000000 ) ) ;
#88 = SURFACE_SIDE_STYLE ('',( #64 ) ) ;
#89 =( CONVERSION_BASED_UNIT ( 'INCH', #73 ) LENGTH_UNIT ( ) NAMED_UNIT ( #82 ) );
#90 = CIRCLE ( 'NONE', #145, 0.1250000000000000000 ) ;
#91 = ORIENTED_EDGE ( 'NONE', *, *, #65, .T. ) ;
#92 = ORIENTED_EDGE ( 'NONE', *, *, #172, .F. ) ;
#93 = ORIENTED_EDGE ( 'NONE', *, *, #108, .T. ) ;
#94 = PRESENTATION_LAYER_ASSIGNMENT (  '', '', ( #72 ) ) ;
#95 = VERTEX_POINT ( 'NONE', #143 ) ;
#96 = DIRECTION ( 'NONE',  ( 0.000000000000000000, 0.000000000000000000, -1.000000000000000000 ) ) ;
#97 = DIRECTION ( 'NONE',  ( 0.000000000000000000, -1.000000000000000000, -0.000000000000000000 ) ) ;
#98 = EDGE_CURVE ( 'NONE', #162, #138, #78, .T. ) ;
#99 = DIRECTION ( 'NONE',  ( 0.000000000000000000, 0.000000000000000000, -1.000000000000000000 ) ) ;
#100 = CIRCLE ( 'NONE', #119, 0.1250000000000000278 ) ;
#101 = SURFACE_STYLE_FILL_AREA ( #243 ) ;
#102 = CARTESIAN_POINT ( 'NONE',  ( 0.000000000000000000, 1.250000000000000000, 0.000000000000000000 ) ) ;
#103 = FILL_AREA_STYLE_COLOUR ( '', #303 ) ;
#104 = FILL_AREA_STYLE_COLOUR ( '', #248 ) ;
#105 = PRESENTATION_LAYER_ASSIGNMENT (  '', '', ( #49 ) ) ;
#106 = CYLINDRICAL_SURFACE ( 'NONE', #56, 0.1250000000000000278 ) ;
#107 = CARTESIAN_POINT ( 'NONE',  ( 0.000000000000000000, 0.000000000000000000, 0.000000000000000000 ) ) ;
#108 = EDGE_CURVE ( 'NONE', #95, #139, #100, .T. ) ;
#109 = DIRECTION ( 'NONE',  ( 0.000000000000000000, 1.000000000000000000, 0.000000000000000000 ) ) ;
#110 =( GEOMETRIC_REPRESENTATION_CONTEXT ( 3 ) GLOBAL_UNCERTAINTY_ASSIGNED_CONTEXT ( ( #233 ) ) GLOBAL_UNIT_ASSIGNED_CONTEXT ( ( #289, #197, #77 ) ) REPRESENTATION_CONTEXT ( 'NONE', 'WORKASPACE' ) );
#111 = FACE_OUTER_BOUND ( 'NONE', #166, .T. ) ;
#112 =( LENGTH_UNIT ( ) NAMED_UNIT ( * ) SI_UNIT ( $, .METRE. ) );
#113 = UNCERTAINTY_MEASURE_WITH_UNIT (LENGTH_MEASURE( 1.000000000000000082E-05 ), #244, 'distance_accuracy_value', 'NONE');
#114 = COLOUR_RGB ( '',0.7921568627450980005, 0.8196078431372548767, 0.9333333333333333481 ) ;
#115 = VERTEX_POINT ( 'NONE', #33 ) ;
#116 = EDGE_LOOP ( 'NONE', ( #74, #287 ) ) ;
#117 = EDGE_CURVE ( 'NONE', #139, #95, #8, .T. ) ;
#118 = ORIENTED_EDGE ( 'NONE', *, *, #148, .F. ) ;
#119 = AXIS2_PLACEMENT_3D ( 'NONE', #245, #52, #215 ) ;
#120 = UNCERTAINTY_MEASURE_WITH_UNIT (LENGTH_MEASURE( 1.000000000000000082E-05 ), #89, 'distance_accuracy_value', 'NONE');
#121 = DIRECTION ( 'NONE',  ( 0.000000000000000000, 0.000000000000000000, -1.000000000000000000 ) ) ;
#122 = FACE_OUTER_BOUND ( 'NONE', #236, .T. ) ;
#123 = PRESENTATION_LAYER_ASSIGNMENT (  '', '', ( #79 ) ) ;
#124 = SURFACE_STYLE_FILL_AREA ( #76 ) ;
#125 = SURFACE_STYLE_USAGE ( .BOTH. , #269 ) ;
#126 = DIRECTION ( 'NONE',  ( -1.000000000000000000, 0.000000000000000000, 0.000000000000000000 ) ) ;
#127 = FILL_AREA_STYLE ('',( #103 ) ) ;
#128 = FILL_AREA_STYLE_COLOUR ( '', #179 ) ;
#129 = FACE_OUTER_BOUND ( 'NONE', #45, .T. ) ;
#130 = DIMENSIONAL_EXPONENTS ( 1.000000000000000000, 0.000000000000000000, 0.000000000000000000, 0.000000000000000000, 0.000000000000000000, 0.000000000000000000, 0.000000000000000000 ) ;
#131 = PLANE ( 'NONE',  #257 ) ;
#132 = AXIS2_PLACEMENT_3D ( 'NONE', #40, #97, #277 ) ;
#133 = PLANE ( 'NONE',  #132 ) ;
#134 = CARTESIAN_POINT ( 'NONE',  ( 0.1249999999999999861, 3.000000000000000444, 0.000000000000000000 ) ) ;
#135 = ADVANCED_FACE ( 'NONE', ( #264 ), #55, .T. ) ;
#136 = ORIENTED_EDGE ( 'NONE', *, *, #29, .T. ) ;
#137 = AXIS2_PLACEMENT_3D ( 'NONE', #191, #219, #270 ) ;
#138 = VERTEX_POINT ( 'NONE', #13 ) ;
#139 = VERTEX_POINT ( 'NONE', #62 ) ;
#140 = AXIS2_PLACEMENT_3D ( 'NONE', #263, #53, #80 ) ;
#141 = AXIS2_PLACEMENT_3D ( 'NONE', #107, #66, #280 ) ;
#142 = PRESENTATION_STYLE_ASSIGNMENT (( #290 ) ) ;
#143 = CARTESIAN_POINT ( 'NONE',  ( -0.1250000000000000278, 1.250000000000000000, 0.000000000000000000 ) ) ;
#144 = LINE ( 'NONE', #213, #211 ) ;
#145 = AXIS2_PLACEMENT_3D ( 'NONE', #154, #152, #251 ) ;
#146 = AXIS2_PLACEMENT_3D ( 'NONE', #134, #218, #60 ) ;
#147 =( LENGTH_UNIT ( ) NAMED_UNIT ( * ) SI_UNIT ( $, .METRE. ) );
#148 = EDGE_CURVE ( 'NONE', #283, #284, #9, .T. ) ;
#149 = SURFACE_SIDE_STYLE ('',( #101 ) ) ;
#150 = SURFACE_SIDE_STYLE ('',( #11 ) ) ;
#151 = DIMENSIONAL_EXPONENTS ( 1.000000000000000000, 0.000000000000000000, 0.000000000000000000, 0.000000000000000000, 0.000000000000000000, 0.000000000000000000, 0.000000000000000000 ) ;
#152 = DIRECTION ( 'NONE',  ( -0.000000000000000000, -1.000000000000000000, -0.000000000000000000 ) ) ;
#153 = STYLED_ITEM ( 'NONE', ( #200 ), #204 ) ;
#154 = CARTESIAN_POINT ( 'NONE',  ( 0.000000000000000000, 0.000000000000000000, 0.000000000000000000 ) ) ;
#155 = PRODUCT_CONTEXT ( 'NONE', #222, 'mechanical' ) ;
#156 = LENGTH_MEASURE_WITH_UNIT ( LENGTH_MEASURE( 0.02539999999999999897 ), #86 );
#157 = CIRCLE ( 'NONE', #221, 0.1250000000000000000 ) ;
#158 =( GEOMETRIC_REPRESENTATION_CONTEXT ( 3 ) GLOBAL_UNCERTAINTY_ASSIGNED_CONTEXT ( ( #120 ) ) GLOBAL_UNIT_ASSIGNED_CONTEXT ( ( #89, #26, #160 ) ) REPRESENTATION_CONTEXT ( 'NONE', 'WORKASPACE' ) );
#159 = LENGTH_MEASURE_WITH_UNIT ( LENGTH_MEASURE( 0.02539999999999999897 ), #112 );
#160 =( NAMED_UNIT ( * ) SI_UNIT ( $, .STERADIAN. ) SOLID_ANGLE_UNIT ( ) );
#161 =( NAMED_UNIT ( * ) PLANE_ANGLE_UNIT ( ) SI_UNIT ( $, .RADIAN. ) );
#162 = VERTEX_POINT ( 'NONE', #12 ) ;
#163 = ADVANCED_FACE ( 'NONE', ( #111 ), #106, .T. ) ;
#164 = VECTOR ( 'NONE', #173, 39.37007874015748143 ) ;
#165 = EDGE_LOOP ( 'NONE', ( #136, #48, #43, #184 ) ) ;
#166 = EDGE_LOOP ( 'NONE', ( #41, #237, #259, #256 ) ) ;
#167 = PRODUCT ( '01195', '01195', '', ( #155 ) ) ;
#168 = UNCERTAINTY_MEASURE_WITH_UNIT (LENGTH_MEASURE( 1.000000000000000082E-05 ), #227, 'distance_accuracy_value', 'NONE');
#169 = DIRECTION ( 'NONE',  ( -0.000000000000000000, -1.000000000000000000, -0.000000000000000000 ) ) ;
#170 =( NAMED_UNIT ( * ) SI_UNIT ( $, .STERADIAN. ) SOLID_ANGLE_UNIT ( ) );
#171 =( NAMED_UNIT ( * ) SI_UNIT ( $, .STERADIAN. ) SOLID_ANGLE_UNIT ( ) );
#172 = EDGE_CURVE ( 'NONE', #284, #138, #90, .T. ) ;
#173 = DIRECTION ( 'NONE',  ( -0.000000000000000000, -1.000000000000000000, -0.000000000000000000 ) ) ;
#174 = VECTOR ( 'NONE', #262, 39.37007874015748143 ) ;
#175 = DIMENSIONAL_EXPONENTS ( 1.000000000000000000, 0.000000000000000000, 0.000000000000000000, 0.000000000000000000, 0.000000000000000000, 0.000000000000000000, 0.000000000000000000 ) ;
#176 = DIRECTION ( 'NONE',  ( -3.498990854706726443E-17, 1.000000000000000000, -0.000000000000000000 ) ) ;
#177 =( NAMED_UNIT ( * ) PLANE_ANGLE_UNIT ( ) SI_UNIT ( $, .RADIAN. ) );
#178 = DIRECTION ( 'NONE',  ( -3.498990854706726443E-17, 1.000000000000000000, -0.000000000000000000 ) ) ;
#179 = COLOUR_RGB ( '',1.000000000000000000, 0.000000000000000000, 0.000000000000000000 ) ;
#180 = FILL_AREA_STYLE_COLOUR ( '', #84 ) ;
#181 = PRODUCT_DEFINITION ( 'UNKNOWN', '', #10, #255 ) ;
#182 =( NAMED_UNIT ( * ) PLANE_ANGLE_UNIT ( ) SI_UNIT ( $, .RADIAN. ) );
#183 = ORIENTED_EDGE ( 'NONE', *, *, #108, .F. ) ;
#184 = ORIENTED_EDGE ( 'NONE', *, *, #98, .F. ) ;
#185 = CLOSED_SHELL ( 'NONE', ( #307, #204, #5, #208 ) ) ;
#186 =( GEOMETRIC_REPRESENTATION_CONTEXT ( 3 ) GLOBAL_UNCERTAINTY_ASSIGNED_CONTEXT ( ( #69 ) ) GLOBAL_UNIT_ASSIGNED_CONTEXT ( ( #67, #161, #38 ) ) REPRESENTATION_CONTEXT ( 'NONE', 'WORKASPACE' ) );
#187 = ADVANCED_BREP_SHAPE_REPRESENTATION ( '01195', ( #272, #278, #141 ), #186 ) ;
#188 = ORIENTED_EDGE ( 'NONE', *, *, #193, .T. ) ;
#189 = ORIENTED_EDGE ( 'NONE', *, *, #117, .F. ) ;
#190 = FILL_AREA_STYLE_COLOUR ( '', #114 ) ;
#191 = CARTESIAN_POINT ( 'NONE',  ( -6.123233995736772199E-17, 3.000000000000000444, 0.000000000000000000 ) ) ;
#192 = LENGTH_MEASURE_WITH_UNIT ( LENGTH_MEASURE( 0.02539999999999999897 ), #147 );
#193 = EDGE_CURVE ( 'NONE', #115, #70, #242, .T. ) ;
#194 = LENGTH_MEASURE_WITH_UNIT ( LENGTH_MEASURE( 0.02539999999999999897 ), #295 );
#195 = LENGTH_MEASURE_WITH_UNIT ( LENGTH_MEASURE( 0.02539999999999999897 ), #198 );
#196 = DIRECTION ( 'NONE',  ( -0.000000000000000000, -1.000000000000000000, -0.000000000000000000 ) ) ;
#197 =( NAMED_UNIT ( * ) PLANE_ANGLE_UNIT ( ) SI_UNIT ( $, .RADIAN. ) );
#198 =( LENGTH_UNIT ( ) NAMED_UNIT ( * ) SI_UNIT ( $, .METRE. ) );
#199 = DIMENSIONAL_EXPONENTS ( 1.000000000000000000, 0.000000000000000000, 0.000000000000000000, 0.000000000000000000, 0.000000000000000000, 0.000000000000000000, 0.000000000000000000 ) ;
#200 = PRESENTATION_STYLE_ASSIGNMENT (( #247 ) ) ;
#201 = MECHANICAL_DESIGN_GEOMETRIC_PRESENTATION_REPRESENTATION (  '', ( #71 ), #110 ) ;
#202 = CIRCLE ( 'NONE', #140, 0.1250000000000000555 ) ;
#203 =( LENGTH_UNIT ( ) NAMED_UNIT ( * ) SI_UNIT ( $, .METRE. ) );
#204 = ADVANCED_FACE ( 'NONE', ( #250 ), #131, .T. ) ;
#205 = DIRECTION ( 'NONE',  ( -1.000000000000000000, 0.000000000000000000, 0.000000000000000000 ) ) ;
#206 = FILL_AREA_STYLE ('',( #190 ) ) ;
#207 = ORIENTED_EDGE ( 'NONE', *, *, #81, .T. ) ;
#208 = ADVANCED_FACE ( 'NONE', ( #37 ), #133, .T. ) ;
#209 = PRESENTATION_LAYER_ASSIGNMENT (  '', '', ( #71 ) ) ;
#210 = EDGE_LOOP ( 'NONE', ( #118, #234, #306, #92 ) ) ;
#211 = VECTOR ( 'NONE', #25, 39.37007874015748143 ) ;
#212 = ORIENTED_EDGE ( 'NONE', *, *, #172, .T. ) ;
#213 = CARTESIAN_POINT ( 'NONE',  ( 0.1249999999999999584, 3.000000000000000444, 1.530808498934191817E-17 ) ) ;
#214 = CARTESIAN_POINT ( 'NONE',  ( -0.1250000000000001110, 3.000000000000000444, 0.000000000000000000 ) ) ;
#215 = DIRECTION ( 'NONE',  ( -1.000000000000000000, 0.000000000000000000, 0.000000000000000000 ) ) ;
#216 = CIRCLE ( 'NONE', #308, 0.1250000000000000278 ) ;
#217 = DIRECTION ( 'NONE',  ( -3.498990854706726443E-17, 1.000000000000000000, 0.000000000000000000 ) ) ;
#218 = DIRECTION ( 'NONE',  ( 3.498990854706726443E-17, -1.000000000000000000, 0.000000000000000000 ) ) ;
#219 = DIRECTION ( 'NONE',  ( -3.498990854706726443E-17, 1.000000000000000000, -0.000000000000000000 ) ) ;
#220 =( NAMED_UNIT ( * ) SI_UNIT ( $, .STERADIAN. ) SOLID_ANGLE_UNIT ( ) );
#221 = AXIS2_PLACEMENT_3D ( 'NONE', #57, #169, #96 ) ;
#222 = APPLICATION_CONTEXT ( 'automotive_design' ) ;
#223 = PRESENTATION_STYLE_ASSIGNMENT (( #28 ) ) ;
#224 = DIRECTION ( 'NONE',  ( 0.000000000000000000, -0.000000000000000000, 1.000000000000000000 ) ) ;
#225 = DIRECTION ( 'NONE',  ( -1.000000000000000000, 0.000000000000000000, 0.000000000000000000 ) ) ;
#226 = DIMENSIONAL_EXPONENTS ( 1.000000000000000000, 0.000000000000000000, 0.000000000000000000, 0.000000000000000000, 0.000000000000000000, 0.000000000000000000, 0.000000000000000000 ) ;
#227 =( CONVERSION_BASED_UNIT ( 'INCH', #298 ) LENGTH_UNIT ( ) NAMED_UNIT ( #199 ) );
#228 = AXIS2_PLACEMENT_3D ( 'NONE', #17, #178, #205 ) ;
#229 = COLOUR_RGB ( '',0.7921568627450980005, 0.8196078431372548767, 0.9333333333333333481 ) ;
#230 =( CONVERSION_BASED_UNIT ( 'INCH', #156 ) LENGTH_UNIT ( ) NAMED_UNIT ( #151 ) );
#231 = SHAPE_DEFINITION_REPRESENTATION ( #63, #187 ) ;
#232 = SURFACE_STYLE_USAGE ( .BOTH. , #254 ) ;
#233 = UNCERTAINTY_MEASURE_WITH_UNIT (LENGTH_MEASURE( 1.000000000000000082E-05 ), #289, 'distance_accuracy_value', 'NONE');
#234 = ORIENTED_EDGE ( 'NONE', *, *, #61, .T. ) ;
#235 = FACE_OUTER_BOUND ( 'NONE', #210, .T. ) ;
#236 = EDGE_LOOP ( 'NONE', ( #183, #189 ) ) ;
#237 = ORIENTED_EDGE ( 'NONE', *, *, #117, .T. ) ;
#238 = SURFACE_STYLE_FILL_AREA ( #206 ) ;
#239 = MECHANICAL_DESIGN_GEOMETRIC_PRESENTATION_REPRESENTATION (  '', ( #79 ), #266 ) ;
#240 = CARTESIAN_POINT ( 'NONE',  ( 0.000000000000000000, 0.000000000000000000, 0.000000000000000000 ) ) ;
#241 = DIRECTION ( 'NONE',  ( -0.000000000000000000, -1.000000000000000000, -0.000000000000000000 ) ) ;
#242 = CIRCLE ( 'NONE', #228, 0.1250000000000000555 ) ;
#243 = FILL_AREA_STYLE ('',( #104 ) ) ;
#244 =( CONVERSION_BASED_UNIT ( 'INCH', #192 ) LENGTH_UNIT ( ) NAMED_UNIT ( #175 ) );
#245 = CARTESIAN_POINT ( 'NONE',  ( 0.000000000000000000, 1.250000000000000000, 0.000000000000000000 ) ) ;
#246 = PRESENTATION_STYLE_ASSIGNMENT (( #125 ) ) ;
#247 = SURFACE_STYLE_USAGE ( .BOTH. , #59 ) ;
#248 = COLOUR_RGB ( '',1.000000000000000000, 0.000000000000000000, 0.000000000000000000 ) ;
#249 = FILL_AREA_STYLE ('',( #128 ) ) ;
#250 = FACE_OUTER_BOUND ( 'NONE', #116, .T. ) ;
#251 = DIRECTION ( 'NONE',  ( 0.000000000000000000, 0.000000000000000000, -1.000000000000000000 ) ) ;
#252 = CLOSED_SHELL ( 'NONE', ( #135, #36, #163, #282 ) ) ;
#253 = APPLICATION_PROTOCOL_DEFINITION ( 'draft international standard', 'automotive_design', 1998, #222 ) ;
#254 = SURFACE_SIDE_STYLE ('',( #238 ) ) ;
#255 = PRODUCT_DEFINITION_CONTEXT ( 'detailed design', #275, 'design' ) ;
#256 = ORIENTED_EDGE ( 'NONE', *, *, #193, .F. ) ;
#257 = AXIS2_PLACEMENT_3D ( 'NONE', #85, #109, #224 ) ;
#258 = EDGE_CURVE ( 'NONE', #95, #70, #47, .T. ) ;
#259 = ORIENTED_EDGE ( 'NONE', *, *, #258, .T. ) ;
#260 = AXIS2_PLACEMENT_3D ( 'NONE', #240, #241, #99 ) ;
#261 = PLANE ( 'NONE',  #23 ) ;
#262 = DIRECTION ( 'NONE',  ( -3.498990854706726443E-17, 1.000000000000000000, -0.000000000000000000 ) ) ;
#263 = CARTESIAN_POINT ( 'NONE',  ( -6.123233995736772199E-17, 3.000000000000000444, 0.000000000000000000 ) ) ;
#264 = FACE_OUTER_BOUND ( 'NONE', #46, .T. ) ;
#265 =( NAMED_UNIT ( * ) PLANE_ANGLE_UNIT ( ) SI_UNIT ( $, .RADIAN. ) );
#266 =( GEOMETRIC_REPRESENTATION_CONTEXT ( 3 ) GLOBAL_UNCERTAINTY_ASSIGNED_CONTEXT ( ( #51 ) ) GLOBAL_UNIT_ASSIGNED_CONTEXT ( ( #230, #182, #170 ) ) REPRESENTATION_CONTEXT ( 'NONE', 'WORKASPACE' ) );
#267 = CARTESIAN_POINT ( 'NONE',  ( 7.651835625825819045E-35, 1.250000000000000000, 0.000000000000000000 ) ) ;
#268 = STYLED_ITEM ( 'NONE', ( #223 ), #307 ) ;
#269 = SURFACE_SIDE_STYLE ('',( #124 ) ) ;
#270 = DIRECTION ( 'NONE',  ( -1.000000000000000000, 0.000000000000000000, 0.000000000000000000 ) ) ;
#271 =( NAMED_UNIT ( * ) SI_UNIT ( $, .STERADIAN. ) SOLID_ANGLE_UNIT ( ) );
#272 = MANIFOLD_SOLID_BREP ( 'Revolve - Cutting Edge', #185 ) ;
#273 = DIRECTION ( 'NONE',  ( -3.498990854706726443E-17, 1.000000000000000000, -0.000000000000000000 ) ) ;
#274 = FILL_AREA_STYLE ('',( #180 ) ) ;
#275 = APPLICATION_CONTEXT ( 'automotive_design' ) ;
#276 = PRESENTATION_STYLE_ASSIGNMENT (( #14 ) ) ;
#277 = DIRECTION ( 'NONE',  ( 0.000000000000000000, 0.000000000000000000, -1.000000000000000000 ) ) ;
#278 = MANIFOLD_SOLID_BREP ( 'Revolve - Tool Body (Straight Shanked)', #252 ) ;
#279 = AXIS2_PLACEMENT_3D ( 'NONE', #292, #176, #126 ) ;
#280 = DIRECTION ( 'NONE',  ( 1.000000000000000000, 0.000000000000000000, 0.000000000000000000 ) ) ;
#281 = AXIS2_PLACEMENT_3D ( 'NONE', #293, #301, #87 ) ;
#282 = ADVANCED_FACE ( 'NONE', ( #129 ), #24, .F. ) ;
#283 = VERTEX_POINT ( 'NONE', #54 ) ;
#284 = VERTEX_POINT ( 'NONE', #32 ) ;
#285 = PRESENTATION_LAYER_ASSIGNMENT (  '', '', ( #153 ) ) ;
#286 = ORIENTED_EDGE ( 'NONE', *, *, #42, .T. ) ;
#287 = ORIENTED_EDGE ( 'NONE', *, *, #61, .F. ) ;
#288 = PRESENTATION_STYLE_ASSIGNMENT (( #232 ) ) ;
#289 =( CONVERSION_BASED_UNIT ( 'INCH', #194 ) LENGTH_UNIT ( ) NAMED_UNIT ( #226 ) );
#290 = SURFACE_STYLE_USAGE ( .BOTH. , #149 ) ;
#291 =( NAMED_UNIT ( * ) PLANE_ANGLE_UNIT ( ) SI_UNIT ( $, .RADIAN. ) );
#292 = CARTESIAN_POINT ( 'NONE',  ( 0.000000000000000000, 1.250000000000000000, 0.000000000000000000 ) ) ;
#293 = CARTESIAN_POINT ( 'NONE',  ( 0.000000000000000000, 0.000000000000000000, 0.000000000000000000 ) ) ;
#294 = DIRECTION ( 'NONE',  ( -0.000000000000000000, -1.000000000000000000, -0.000000000000000000 ) ) ;
#295 =( LENGTH_UNIT ( ) NAMED_UNIT ( * ) SI_UNIT ( $, .METRE. ) );
#296 =( GEOMETRIC_REPRESENTATION_CONTEXT ( 3 ) GLOBAL_UNCERTAINTY_ASSIGNED_CONTEXT ( ( #304 ) ) GLOBAL_UNIT_ASSIGNED_CONTEXT ( ( #4, #265, #220 ) ) REPRESENTATION_CONTEXT ( 'NONE', 'WORKASPACE' ) );
#297 = CYLINDRICAL_SURFACE ( 'NONE', #281, 0.1250000000000000000 ) ;
#298 = LENGTH_MEASURE_WITH_UNIT ( LENGTH_MEASURE( 0.02539999999999999897 ), #203 );
#299 = FACE_OUTER_BOUND ( 'NONE', #165, .T. ) ;
#300 = DIRECTION ( 'NONE',  ( -0.000000000000000000, -1.000000000000000000, -0.000000000000000000 ) ) ;
#301 = DIRECTION ( 'NONE',  ( -0.000000000000000000, -1.000000000000000000, -0.000000000000000000 ) ) ;
#302 = DIMENSIONAL_EXPONENTS ( 1.000000000000000000, 0.000000000000000000, 0.000000000000000000, 0.000000000000000000, 0.000000000000000000, 0.000000000000000000, 0.000000000000000000 ) ;
#303 = COLOUR_RGB ( '',1.000000000000000000, 0.000000000000000000, 0.000000000000000000 ) ;
#304 = UNCERTAINTY_MEASURE_WITH_UNIT (LENGTH_MEASURE( 1.000000000000000082E-05 ), #4, 'distance_accuracy_value', 'NONE');
#305 = MECHANICAL_DESIGN_GEOMETRIC_PRESENTATION_REPRESENTATION (  '', ( #49 ), #158 ) ;
#306 = ORIENTED_EDGE ( 'NONE', *, *, #98, .T. ) ;
#307 = ADVANCED_FACE ( 'NONE', ( #299 ), #297, .T. ) ;
#308 = AXIS2_PLACEMENT_3D ( 'NONE', #6, #294, #121 ) ;
#309 = EDGE_LOOP ( 'NONE', ( #286, #212 ) ) ;
ENDSEC;
END-ISO-10303-21;
