ISO-10303-21;
HEADER;
FILE_DESCRIPTION (( 'STEP AP214' ),
    '1' );
FILE_NAME ('Micro_SBMM-100-250X.STEP',
    '2021-09-02T17:20:59',
    ( '' ),
    ( '' ),
    'SwSTEP 2.0',
    'SolidWorks 2020',
    '' );
FILE_SCHEMA (( 'AUTOMOTIVE_DESIGN' ));
ENDSEC;

DATA;
#1 =( CONVERSION_BASED_UNIT ( 'INCH', #62 ) LENGTH_UNIT ( ) NAMED_UNIT ( #83 ) );
#2 = CYLINDRICAL_SURFACE ( 'NONE', #228, 0.1968504999999999838 ) ;
#3 = EDGE_LOOP ( 'NONE', ( #32, #174, #276, #72 ) ) ;
#4 = APPLICATION_PROTOCOL_DEFINITION ( 'draft international standard', 'automotive_design', 1998, #296 ) ;
#5 = FACE_OUTER_BOUND ( 'NONE', #149, .T. ) ;
#6 = PRODUCT_RELATED_PRODUCT_CATEGORY ( 'part', '', ( #97 ) ) ;
#7 = SURFACE_SIDE_STYLE ('',( #180 ) ) ;
#8 = ORIENTED_EDGE ( 'NONE', *, *, #160, .T. ) ;
#9 = EDGE_CURVE ( 'NONE', #125, #211, #51, .T. ) ;
#10 = DIRECTION ( 'NONE',  ( 1.000000000000000000, 0.0000000000000000000, 0.0000000000000000000 ) ) ;
#11 = ORIENTED_EDGE ( 'NONE', *, *, #185, .T. ) ;
#12 = CARTESIAN_POINT ( 'NONE',  ( 0.0000000000000000000, 0.0000000000000000000, 0.0000000000000000000 ) ) ;
#13 = FACE_OUTER_BOUND ( 'NONE', #65, .T. ) ;
#14 = EDGE_CURVE ( 'NONE', #211, #125, #45, .T. ) ;
#15 = ORIENTED_EDGE ( 'NONE', *, *, #292, .T. ) ;
#16 =( GEOMETRIC_REPRESENTATION_CONTEXT ( 3 ) GLOBAL_UNCERTAINTY_ASSIGNED_CONTEXT ( ( #106 ) ) GLOBAL_UNIT_ASSIGNED_CONTEXT ( ( #63, #164, #195 ) ) REPRESENTATION_CONTEXT ( 'NONE', 'WORKASPACE' ) );
#17 = EDGE_CURVE ( 'NONE', #211, #328, #313, .T. ) ;
#18 = DIRECTION ( 'NONE',  ( 1.000000000000000000, 0.0000000000000000000, 0.0000000000000000000 ) ) ;
#19 = ADVANCED_FACE ( 'NONE', ( #44 ), #212, .T. ) ;
#20 = DIRECTION ( 'NONE',  ( -1.000000000000000000, 0.0000000000000000000, 0.0000000000000000000 ) ) ;
#21 = AXIS2_PLACEMENT_3D ( 'NONE', #308, #258, #337 ) ;
#22 = AXIS2_PLACEMENT_3D ( 'NONE', #123, #269, #151 ) ;
#23 = FACE_OUTER_BOUND ( 'NONE', #194, .T. ) ;
#24 = DIRECTION ( 'NONE',  ( -0.0000000000000000000, -0.0000000000000000000, -1.000000000000000000 ) ) ;
#25 = STYLED_ITEM ( 'NONE', ( #53 ), #177 ) ;
#26 = AXIS2_PLACEMENT_3D ( 'NONE', #319, #139, #275 ) ;
#27 = DIRECTION ( 'NONE',  ( -0.0000000000000000000, -0.0000000000000000000, -1.000000000000000000 ) ) ;
#28 = PRESENTATION_STYLE_ASSIGNMENT (( #89 ) ) ;
#29 = ORIENTED_EDGE ( 'NONE', *, *, #160, .F. ) ;
#30 = VECTOR ( 'NONE', #101, 39.37007874015748143 ) ;
#31 =( LENGTH_UNIT ( ) NAMED_UNIT ( * ) SI_UNIT ( $, .METRE. ) );
#32 = ORIENTED_EDGE ( 'NONE', *, *, #281, .T. ) ;
#33 =( NAMED_UNIT ( * ) PLANE_ANGLE_UNIT ( ) SI_UNIT ( $, .RADIAN. ) );
#34 = CARTESIAN_POINT ( 'NONE',  ( 0.1968504999999999838, 2.410723347355560646E-17, 2.322834999999999983 ) ) ;
#35 = ORIENTED_EDGE ( 'NONE', *, *, #292, .F. ) ;
#36 = DIRECTION ( 'NONE',  ( 0.0000000000000000000, 0.0000000000000000000, 1.000000000000000000 ) ) ;
#37 = ORIENTED_EDGE ( 'NONE', *, *, #9, .F. ) ;
#38 = EDGE_CURVE ( 'NONE', #323, #332, #71, .T. ) ;
#39 =( NAMED_UNIT ( * ) PLANE_ANGLE_UNIT ( ) SI_UNIT ( $, .RADIAN. ) );
#40 = CLOSED_SHELL ( 'NONE', ( #314, #58, #325, #158, #229, #179, #69, #19, #234, #124, #327 ) ) ;
#41 = ORIENTED_EDGE ( 'NONE', *, *, #176, .F. ) ;
#42 = COLOUR_RGB ( '',0.7921568627450980005, 0.8196078431372548767, 0.9333333333333333481 ) ;
#43 = EDGE_LOOP ( 'NONE', ( #295, #118, #15, #247, #81 ) ) ;
#44 = FACE_OUTER_BOUND ( 'NONE', #156, .T. ) ;
#45 = CIRCLE ( 'NONE', #21, 0.1318899999999997574 ) ;
#46 = AXIS2_PLACEMENT_3D ( 'NONE', #210, #67, #153 ) ;
#47 = CARTESIAN_POINT ( 'NONE',  ( 0.0000000000000000000, 0.0000000000000000000, 3.937007999999999619 ) ) ;
#48 = DIRECTION ( 'NONE',  ( -0.0000000000000000000, -0.0000000000000000000, -1.000000000000000000 ) ) ;
#49 = EDGE_CURVE ( 'NONE', #322, #279, #175, .T. ) ;
#50 = SPHERICAL_SURFACE ( 'NONE', #108, 0.1968500000000000250 ) ;
#51 = CIRCLE ( 'NONE', #226, 0.1318899999999997574 ) ;
#52 = PRODUCT_CONTEXT ( 'NONE', #296, 'mechanical' ) ;
#53 = PRESENTATION_STYLE_ASSIGNMENT (( #268 ) ) ;
#54 = DIRECTION ( 'NONE',  ( 0.0000000000000000000, 0.0000000000000000000, 1.000000000000000000 ) ) ;
#55 = CARTESIAN_POINT ( 'NONE',  ( 0.0000000000000000000, 0.0000000000000000000, 3.937007999999999619 ) ) ;
#56 = DIRECTION ( 'NONE',  ( -1.000000000000000000, 0.0000000000000000000, 0.0000000000000000000 ) ) ;
#57 =( NAMED_UNIT ( * ) SI_UNIT ( $, .STERADIAN. ) SOLID_ANGLE_UNIT ( ) );
#58 = ADVANCED_FACE ( 'NONE', ( #253 ), #50, .T. ) ;
#59 = LINE ( 'NONE', #82, #213 ) ;
#60 = SURFACE_SIDE_STYLE ('',( #190 ) ) ;
#61 = DIRECTION ( 'NONE',  ( 1.000000000000000000, 0.0000000000000000000, 0.0000000000000000000 ) ) ;
#62 = LENGTH_MEASURE_WITH_UNIT ( LENGTH_MEASURE( 0.02539999999999999897 ), #310 );
#63 =( CONVERSION_BASED_UNIT ( 'INCH', #248 ) LENGTH_UNIT ( ) NAMED_UNIT ( #128 ) );
#64 = EDGE_CURVE ( 'NONE', #328, #191, #300, .T. ) ;
#65 = EDGE_LOOP ( 'NONE', ( #221, #250, #286, #169, #35 ) ) ;
#66 = ORIENTED_EDGE ( 'NONE', *, *, #64, .F. ) ;
#67 = DIRECTION ( 'NONE',  ( 1.000000000000000000, 1.224646799147353207E-16, -0.0000000000000000000 ) ) ;
#68 = DIRECTION ( 'NONE',  ( -1.000000000000000000, 0.0000000000000000000, 0.0000000000000000000 ) ) ;
#69 = ADVANCED_FACE ( 'NONE', ( #23 ), #178, .T. ) ;
#70 = VECTOR ( 'NONE', #280, 39.37007874015748143 ) ;
#71 = CIRCLE ( 'NONE', #257, 0.1318899999999999517 ) ;
#72 = ORIENTED_EDGE ( 'NONE', *, *, #103, .F. ) ;
#73 = VECTOR ( 'NONE', #95, 39.37007874015748143 ) ;
#74 = CARTESIAN_POINT ( 'NONE',  ( 0.0000000000000000000, 0.0000000000000000000, 0.3429833309002433550 ) ) ;
#75 = LINE ( 'NONE', #77, #30 ) ;
#76 = MECHANICAL_DESIGN_GEOMETRIC_PRESENTATION_REPRESENTATION (  '', ( #25 ), #162 ) ;
#77 = CARTESIAN_POINT ( 'NONE',  ( -0.1968504999999999838, 0.0000000000000000000, 3.937007999999999619 ) ) ;
#78 = SPHERICAL_SURFACE ( 'NONE', #315, 0.1968500000000000250 ) ;
#79 = CONICAL_SURFACE ( 'NONE', #270, 0.1818504999999994431, 0.7853981633974403964 ) ;
#80 = CARTESIAN_POINT ( 'NONE',  ( -0.1318899999999997574, 2.012955005375500749E-17, 1.968503999999999809 ) ) ;
#81 = ORIENTED_EDGE ( 'NONE', *, *, #114, .F. ) ;
#82 = CARTESIAN_POINT ( 'NONE',  ( 0.1318899999999998685, 1.615186663395442393E-17, 0.0000000000000000000 ) ) ;
#83 = DIMENSIONAL_EXPONENTS ( 1.000000000000000000, 0.0000000000000000000, 0.0000000000000000000, 0.0000000000000000000, 0.0000000000000000000, 0.0000000000000000000, 0.0000000000000000000 ) ;
#84 = AXIS2_PLACEMENT_3D ( 'NONE', #291, #241, #10 ) ;
#85 = FILL_AREA_STYLE ('',( #320 ) ) ;
#86 = CARTESIAN_POINT ( 'NONE',  ( 0.0000000000000000000, 0.0000000000000000000, 0.1968500000000000250 ) ) ;
#87 = ORIENTED_EDGE ( 'NONE', *, *, #17, .F. ) ;
#88 = CARTESIAN_POINT ( 'NONE',  ( -0.1318899999999998685, 0.0000000000000000000, 0.0000000000000000000 ) ) ;
#89 = SURFACE_STYLE_USAGE ( .BOTH. , #60 ) ;
#90 = ORIENTED_EDGE ( 'NONE', *, *, #260, .F. ) ;
#91 = EDGE_LOOP ( 'NONE', ( #199, #154, #138, #144 ) ) ;
#92 = VECTOR ( 'NONE', #309, 39.37007874015748143 ) ;
#93 = CARTESIAN_POINT ( 'NONE',  ( -0.2165355499999996880, 2.651795682091112828E-17, 2.430208303031070827 ) ) ;
#94 = PRESENTATION_LAYER_ASSIGNMENT (  '', '', ( #262 ) ) ;
#95 = DIRECTION ( 'NONE',  ( 0.7071067811865419106, 8.659560562354863833E-17, -0.7071067811865531239 ) ) ;
#96 = ORIENTED_EDGE ( 'NONE', *, *, #338, .F. ) ;
#97 = PRODUCT ( 'Micro_SBMM-100-250X', 'Micro_SBMM-100-250X', '', ( #52 ) ) ;
#98 = APPLICATION_PROTOCOL_DEFINITION ( 'draft international standard', 'automotive_design', 1998, #264 ) ;
#99 = CIRCLE ( 'NONE', #198, 0.1318899999999999517 ) ;
#100 = DIRECTION ( 'NONE',  ( 1.000000000000000000, 0.0000000000000000000, 0.0000000000000000000 ) ) ;
#101 = DIRECTION ( 'NONE',  ( -0.0000000000000000000, -0.0000000000000000000, -1.000000000000000000 ) ) ;
#102 = ORIENTED_EDGE ( 'NONE', *, *, #131, .F. ) ;
#103 = EDGE_CURVE ( 'NONE', #279, #191, #75, .T. ) ;
#104 =( NAMED_UNIT ( * ) SI_UNIT ( $, .STERADIAN. ) SOLID_ANGLE_UNIT ( ) );
#105 = DIRECTION ( 'NONE',  ( -0.0000000000000000000, -0.0000000000000000000, -1.000000000000000000 ) ) ;
#106 = UNCERTAINTY_MEASURE_WITH_UNIT (LENGTH_MEASURE( 1.000000000000000082E-05 ), #63, 'distance_accuracy_value', 'NONE');
#107 = DIRECTION ( 'NONE',  ( 0.0000000000000000000, 0.0000000000000000000, -1.000000000000000000 ) ) ;
#108 = AXIS2_PLACEMENT_3D ( 'NONE', #285, #100, #335 ) ;
#109 = DIRECTION ( 'NONE',  ( -1.000000000000000000, 0.0000000000000000000, 0.0000000000000000000 ) ) ;
#110 = DIRECTION ( 'NONE',  ( 1.000000000000000000, 0.0000000000000000000, 0.0000000000000000000 ) ) ;
#111 = CARTESIAN_POINT ( 'NONE',  ( 0.1968504999999999838, 2.410723347355560646E-17, 3.922007999999999051 ) ) ;
#112 = DIRECTION ( 'NONE',  ( 0.0000000000000000000, 0.0000000000000000000, 1.000000000000000000 ) ) ;
#113 = ORIENTED_EDGE ( 'NONE', *, *, #338, .T. ) ;
#114 = EDGE_CURVE ( 'NONE', #152, #301, #256, .T. ) ;
#115 = AXIS2_PLACEMENT_3D ( 'NONE', #161, #255, #266 ) ;
#116 = AXIS2_PLACEMENT_3D ( 'NONE', #206, #225, #230 ) ;
#117 = CIRCLE ( 'NONE', #84, 0.1968504999999999838 ) ;
#118 = ORIENTED_EDGE ( 'NONE', *, *, #14, .T. ) ;
#119 = DIRECTION ( 'NONE',  ( -0.0000000000000000000, -0.0000000000000000000, -1.000000000000000000 ) ) ;
#120 = DIRECTION ( 'NONE',  ( -1.000000000000000000, 0.0000000000000000000, 0.0000000000000000000 ) ) ;
#121 = EDGE_LOOP ( 'NONE', ( #41, #113, #219, #173 ) ) ;
#122 = AXIS2_PLACEMENT_3D ( 'NONE', #239, #289, #54 ) ;
#123 = CARTESIAN_POINT ( 'NONE',  ( 0.0000000000000000000, 0.0000000000000000000, 2.430208303031070827 ) ) ;
#124 = ADVANCED_FACE ( 'NONE', ( #5 ), #78, .T. ) ;
#125 = VERTEX_POINT ( 'NONE', #80 ) ;
#126 = ORIENTED_EDGE ( 'NONE', *, *, #49, .T. ) ;
#127 = CIRCLE ( 'NONE', #26, 0.1318899999999999517 ) ;
#128 = DIMENSIONAL_EXPONENTS ( 1.000000000000000000, 0.0000000000000000000, 0.0000000000000000000, 0.0000000000000000000, 0.0000000000000000000, 0.0000000000000000000, 0.0000000000000000000 ) ;
#129 = UNCERTAINTY_MEASURE_WITH_UNIT (LENGTH_MEASURE( 1.000000000000000082E-05 ), #1, 'distance_accuracy_value', 'NONE');
#130 = DIRECTION ( 'NONE',  ( -1.000000000000000000, 0.0000000000000000000, 0.0000000000000000000 ) ) ;
#131 = EDGE_CURVE ( 'NONE', #322, #277, #243, .T. ) ;
#132 = AXIS2_PLACEMENT_3D ( 'NONE', #202, #312, #130 ) ;
#133 = MECHANICAL_DESIGN_GEOMETRIC_PRESENTATION_REPRESENTATION (  '', ( #262 ), #208 ) ;
#134 = CARTESIAN_POINT ( 'NONE',  ( 0.0000000000000000000, 0.0000000000000000000, 2.322834999999999983 ) ) ;
#135 = CARTESIAN_POINT ( 'NONE',  ( 0.0000000000000000000, 0.0000000000000000000, 3.922007999999999051 ) ) ;
#136 = AXIS2_PLACEMENT_3D ( 'NONE', #163, #345, #110 ) ;
#137 = CIRCLE ( 'NONE', #46, 0.1968500000000000250 ) ;
#138 = ORIENTED_EDGE ( 'NONE', *, *, #17, .T. ) ;
#139 = DIRECTION ( 'NONE',  ( -0.0000000000000000000, -0.0000000000000000000, -1.000000000000000000 ) ) ;
#140 = CARTESIAN_POINT ( 'NONE',  ( 0.0000000000000000000, 0.0000000000000000000, 0.0000000000000000000 ) ) ;
#141 = FACE_OUTER_BOUND ( 'NONE', #188, .T. ) ;
#142 = CIRCLE ( 'NONE', #336, 0.1968504999999999838 ) ;
#143 = CARTESIAN_POINT ( 'NONE',  ( 1.615186663395443625E-17, -0.1318899999999999795, 0.3429833309002433550 ) ) ;
#144 = ORIENTED_EDGE ( 'NONE', *, *, #155, .F. ) ;
#145 = ORIENTED_EDGE ( 'NONE', *, *, #176, .T. ) ;
#146 = EDGE_CURVE ( 'NONE', #200, #279, #142, .T. ) ;
#147 = DIRECTION ( 'NONE',  ( -0.0000000000000000000, -0.0000000000000000000, -1.000000000000000000 ) ) ;
#148 = ORIENTED_EDGE ( 'NONE', *, *, #103, .T. ) ;
#149 = EDGE_LOOP ( 'NONE', ( #329, #11, #244, #8 ) ) ;
#150 = DIRECTION ( 'NONE',  ( 1.000000000000000000, 0.0000000000000000000, 0.0000000000000000000 ) ) ;
#151 = DIRECTION ( 'NONE',  ( 1.000000000000000000, 0.0000000000000000000, 0.0000000000000000000 ) ) ;
#152 = VERTEX_POINT ( 'NONE', #317 ) ;
#153 = DIRECTION ( 'NONE',  ( -1.224646799147353207E-16, 1.000000000000000000, 0.0000000000000000000 ) ) ;
#154 = ORIENTED_EDGE ( 'NONE', *, *, #14, .F. ) ;
#155 = EDGE_CURVE ( 'NONE', #191, #328, #343, .T. ) ;
#156 = EDGE_LOOP ( 'NONE', ( #96, #102, #126, #215 ) ) ;
#157 = AXIS2_PLACEMENT_3D ( 'NONE', #252, #207, #18 ) ;
#158 = ADVANCED_FACE ( 'NONE', ( #261 ), #79, .T. ) ;
#159 = CARTESIAN_POINT ( 'NONE',  ( -0.1818504999999994431, 0.0000000000000000000, 3.937007999999999619 ) ) ;
#160 = EDGE_CURVE ( 'NONE', #332, #196, #167, .T. ) ;
#161 = CARTESIAN_POINT ( 'NONE',  ( 0.0000000000000000000, 0.0000000000000000000, 0.3429833309002433550 ) ) ;
#162 =( GEOMETRIC_REPRESENTATION_CONTEXT ( 3 ) GLOBAL_UNCERTAINTY_ASSIGNED_CONTEXT ( ( #129 ) ) GLOBAL_UNIT_ASSIGNED_CONTEXT ( ( #1, #33, #57 ) ) REPRESENTATION_CONTEXT ( 'NONE', 'WORKASPACE' ) );
#163 = CARTESIAN_POINT ( 'NONE',  ( 0.0000000000000000000, 0.0000000000000000000, 3.937007999999999619 ) ) ;
#164 =( NAMED_UNIT ( * ) PLANE_ANGLE_UNIT ( ) SI_UNIT ( $, .RADIAN. ) );
#165 = DIRECTION ( 'NONE',  ( -0.0000000000000000000, -0.0000000000000000000, -1.000000000000000000 ) ) ;
#166 = FACE_OUTER_BOUND ( 'NONE', #3, .T. ) ;
#167 = CIRCLE ( 'NONE', #122, 0.1968500000000000250 ) ;
#168 = LENGTH_MEASURE_WITH_UNIT ( LENGTH_MEASURE( 0.02539999999999999897 ), #214 );
#169 = ORIENTED_EDGE ( 'NONE', *, *, #38, .F. ) ;
#170 = DIRECTION ( 'NONE',  ( -1.000000000000000000, 0.0000000000000000000, 0.0000000000000000000 ) ) ;
#171 = EDGE_LOOP ( 'NONE', ( #90, #304, #148, #318 ) ) ;
#172 = AXIS2_PLACEMENT_3D ( 'NONE', #140, #27, #170 ) ;
#173 = ORIENTED_EDGE ( 'NONE', *, *, #49, .F. ) ;
#174 = ORIENTED_EDGE ( 'NONE', *, *, #260, .T. ) ;
#175 = LINE ( 'NONE', #159, #70 ) ;
#176 = EDGE_CURVE ( 'NONE', #277, #322, #282, .T. ) ;
#177 = MANIFOLD_SOLID_BREP ( 'Cut-Revolve3', #40 ) ;
#178 = PLANE ( 'NONE',  #288 ) ;
#179 = ADVANCED_FACE ( 'NONE', ( #189 ), #2, .T. ) ;
#180 = SURFACE_STYLE_FILL_AREA ( #246 ) ;
#181 = PRODUCT_DEFINITION_CONTEXT ( 'detailed design', #264, 'design' ) ;
#182 = DIRECTION ( 'NONE',  ( 0.0000000000000000000, 1.000000000000000000, 0.0000000000000000000 ) ) ;
#183 = DIRECTION ( 'NONE',  ( -1.000000000000000000, 0.0000000000000000000, 0.0000000000000000000 ) ) ;
#184 = CARTESIAN_POINT ( 'NONE',  ( -0.1968504999999999838, 0.0000000000000000000, 3.922007999999999051 ) ) ;
#185 = EDGE_CURVE ( 'NONE', #301, #323, #127, .T. ) ;
#186 = CARTESIAN_POINT ( 'NONE',  ( 0.0000000000000000000, 0.0000000000000000000, 3.937007999999999619 ) ) ;
#187 = EDGE_CURVE ( 'NONE', #332, #152, #99, .T. ) ;
#188 = EDGE_LOOP ( 'NONE', ( #37, #201, #66, #87 ) ) ;
#189 = FACE_OUTER_BOUND ( 'NONE', #171, .T. ) ;
#190 = SURFACE_STYLE_FILL_AREA ( #85 ) ;
#191 = VERTEX_POINT ( 'NONE', #237 ) ;
#192 = CARTESIAN_POINT ( 'NONE',  ( 0.1968504999999999838, 2.410723347355560646E-17, 3.937007999999999619 ) ) ;
#193 = CARTESIAN_POINT ( 'NONE',  ( -0.1818504999999994431, 0.0000000000000000000, 3.937007999999999619 ) ) ;
#194 = EDGE_LOOP ( 'NONE', ( #273, #145 ) ) ;
#195 =( NAMED_UNIT ( * ) SI_UNIT ( $, .STERADIAN. ) SOLID_ANGLE_UNIT ( ) );
#196 = VERTEX_POINT ( 'NONE', #263 ) ;
#197 = AXIS2_PLACEMENT_3D ( 'NONE', #134, #231, #342 ) ;
#198 = AXIS2_PLACEMENT_3D ( 'NONE', #290, #24, #56 ) ;
#199 = ORIENTED_EDGE ( 'NONE', *, *, #307, .F. ) ;
#200 = VERTEX_POINT ( 'NONE', #111 ) ;
#201 = ORIENTED_EDGE ( 'NONE', *, *, #307, .T. ) ;
#202 = CARTESIAN_POINT ( 'NONE',  ( 0.0000000000000000000, 0.0000000000000000000, 3.937007999999999619 ) ) ;
#203 = CARTESIAN_POINT ( 'NONE',  ( 0.2165355499999996880, 0.0000000000000000000, 2.430208303031070827 ) ) ;
#204 = EDGE_CURVE ( 'NONE', #301, #196, #137, .T. ) ;
#205 = DIRECTION ( 'NONE',  ( 0.0000000000000000000, 0.0000000000000000000, 1.000000000000000000 ) ) ;
#206 = CARTESIAN_POINT ( 'NONE',  ( 0.0000000000000000000, 0.0000000000000000000, 0.0000000000000000000 ) ) ;
#207 = DIRECTION ( 'NONE',  ( 0.0000000000000000000, 0.0000000000000000000, 1.000000000000000000 ) ) ;
#208 =( GEOMETRIC_REPRESENTATION_CONTEXT ( 3 ) GLOBAL_UNCERTAINTY_ASSIGNED_CONTEXT ( ( #227 ) ) GLOBAL_UNIT_ASSIGNED_CONTEXT ( ( #333, #39, #104 ) ) REPRESENTATION_CONTEXT ( 'NONE', 'WORKASPACE' ) );
#209 = FILL_AREA_STYLE_COLOUR ( '', #330 ) ;
#210 = CARTESIAN_POINT ( 'NONE',  ( 0.0000000000000000000, 0.0000000000000000000, 0.1968500000000000250 ) ) ;
#211 = VERTEX_POINT ( 'NONE', #284 ) ;
#212 = CONICAL_SURFACE ( 'NONE', #132, 0.1818504999999994431, 0.7853981633974403964 ) ;
#213 = VECTOR ( 'NONE', #235, 39.37007874015748143 ) ;
#214 =( LENGTH_UNIT ( ) NAMED_UNIT ( * ) SI_UNIT ( $, .METRE. ) );
#215 = ORIENTED_EDGE ( 'NONE', *, *, #146, .F. ) ;
#216 = ORIENTED_EDGE ( 'NONE', *, *, #187, .T. ) ;
#217 = PRESENTATION_LAYER_ASSIGNMENT (  '', '', ( #25 ) ) ;
#218 = CARTESIAN_POINT ( 'NONE',  ( 0.0000000000000000000, 0.1318899999999999795, 0.3429833309002433550 ) ) ;
#219 = ORIENTED_EDGE ( 'NONE', *, *, #281, .F. ) ;
#220 = PRODUCT_DEFINITION_SHAPE ( 'NONE', 'NONE',  #297 ) ;
#221 = ORIENTED_EDGE ( 'NONE', *, *, #9, .T. ) ;
#222 = AXIS2_PLACEMENT_3D ( 'NONE', #55, #112, #341 ) ;
#223 = CARTESIAN_POINT ( 'NONE',  ( 0.0000000000000000000, 0.0000000000000000000, 3.937007999999999619 ) ) ;
#224 = DIRECTION ( 'NONE',  ( -1.000000000000000000, 0.0000000000000000000, 0.0000000000000000000 ) ) ;
#225 = DIRECTION ( 'NONE',  ( 0.0000000000000000000, 0.0000000000000000000, 1.000000000000000000 ) ) ;
#226 = AXIS2_PLACEMENT_3D ( 'NONE', #287, #105, #20 ) ;
#227 = UNCERTAINTY_MEASURE_WITH_UNIT (LENGTH_MEASURE( 1.000000000000000082E-05 ), #333, 'distance_accuracy_value', 'NONE');
#228 = AXIS2_PLACEMENT_3D ( 'NONE', #334, #238, #109 ) ;
#229 = ADVANCED_FACE ( 'NONE', ( #166 ), #305, .T. ) ;
#230 = DIRECTION ( 'NONE',  ( 1.000000000000000000, 0.0000000000000000000, 0.0000000000000000000 ) ) ;
#231 = DIRECTION ( 'NONE',  ( 0.0000000000000000000, 0.0000000000000000000, 1.000000000000000000 ) ) ;
#232 = SHAPE_DEFINITION_REPRESENTATION ( #220, #326 ) ;
#233 = DIRECTION ( 'NONE',  ( 0.0000000000000000000, 0.0000000000000000000, -1.000000000000000000 ) ) ;
#234 = ADVANCED_FACE ( 'NONE', ( #324 ), #278, .T. ) ;
#235 = DIRECTION ( 'NONE',  ( -0.0000000000000000000, -0.0000000000000000000, -1.000000000000000000 ) ) ;
#236 = AXIS2_PLACEMENT_3D ( 'NONE', #47, #119, #68 ) ;
#237 = CARTESIAN_POINT ( 'NONE',  ( -0.1968504999999999838, 0.0000000000000000000, 2.322834999999999983 ) ) ;
#238 = DIRECTION ( 'NONE',  ( -0.0000000000000000000, -0.0000000000000000000, -1.000000000000000000 ) ) ;
#239 = CARTESIAN_POINT ( 'NONE',  ( 0.0000000000000000000, 0.0000000000000000000, 0.1968500000000000250 ) ) ;
#240 = EDGE_LOOP ( 'NONE', ( #216, #299, #249, #29 ) ) ;
#241 = DIRECTION ( 'NONE',  ( 0.0000000000000000000, 0.0000000000000000000, -1.000000000000000000 ) ) ;
#242 = CYLINDRICAL_SURFACE ( 'NONE', #306, 0.1318899999999998685 ) ;
#243 = CIRCLE ( 'NONE', #222, 0.1818504999999994431 ) ;
#244 = ORIENTED_EDGE ( 'NONE', *, *, #38, .T. ) ;
#245 = DIRECTION ( 'NONE',  ( -0.1803273764767828191, 2.208373444009318018E-17, 0.9836066476457956398 ) ) ;
#246 = FILL_AREA_STYLE ('',( #209 ) ) ;
#247 = ORIENTED_EDGE ( 'NONE', *, *, #185, .F. ) ;
#248 = LENGTH_MEASURE_WITH_UNIT ( LENGTH_MEASURE( 0.02539999999999999897 ), #31 );
#249 = ORIENTED_EDGE ( 'NONE', *, *, #204, .T. ) ;
#250 = ORIENTED_EDGE ( 'NONE', *, *, #254, .T. ) ;
#251 = PRODUCT_DEFINITION_FORMATION_WITH_SPECIFIED_SOURCE ( 'ANY', '', #97, .NOT_KNOWN. ) ;
#252 = CARTESIAN_POINT ( 'NONE',  ( 0.0000000000000000000, 0.0000000000000000000, 2.322834999999999983 ) ) ;
#253 = FACE_OUTER_BOUND ( 'NONE', #240, .T. ) ;
#254 = EDGE_CURVE ( 'NONE', #211, #152, #59, .T. ) ;
#255 = DIRECTION ( 'NONE',  ( -0.0000000000000000000, -0.0000000000000000000, -1.000000000000000000 ) ) ;
#256 = CIRCLE ( 'NONE', #115, 0.1318899999999999517 ) ;
#257 = AXIS2_PLACEMENT_3D ( 'NONE', #74, #48, #224 ) ;
#258 = DIRECTION ( 'NONE',  ( -0.0000000000000000000, -0.0000000000000000000, -1.000000000000000000 ) ) ;
#259 = DIRECTION ( 'NONE',  ( -0.0000000000000000000, -0.0000000000000000000, -1.000000000000000000 ) ) ;
#260 = EDGE_CURVE ( 'NONE', #200, #328, #344, .T. ) ;
#261 = FACE_OUTER_BOUND ( 'NONE', #121, .T. ) ;
#262 = STYLED_ITEM ( 'NONE', ( #28 ), #326 ) ;
#263 = CARTESIAN_POINT ( 'NONE',  ( 0.0000000000000000000, 1.205358612060782468E-17, 0.0000000000000000000 ) ) ;
#264 = APPLICATION_CONTEXT ( 'automotive_design' ) ;
#265 = LINE ( 'NONE', #88, #316 ) ;
#266 = DIRECTION ( 'NONE',  ( -1.000000000000000000, 0.0000000000000000000, 0.0000000000000000000 ) ) ;
#267 = FACE_OUTER_BOUND ( 'NONE', #43, .T. ) ;
#268 = SURFACE_STYLE_USAGE ( .BOTH. , #7 ) ;
#269 = DIRECTION ( 'NONE',  ( 0.0000000000000000000, 0.0000000000000000000, 1.000000000000000000 ) ) ;
#270 = AXIS2_PLACEMENT_3D ( 'NONE', #186, #107, #183 ) ;
#271 = AXIS2_PLACEMENT_3D ( 'NONE', #274, #36, #150 ) ;
#272 = CYLINDRICAL_SURFACE ( 'NONE', #172, 0.1318899999999998685 ) ;
#273 = ORIENTED_EDGE ( 'NONE', *, *, #131, .T. ) ;
#274 = CARTESIAN_POINT ( 'NONE',  ( 0.0000000000000000000, 0.0000000000000000000, 2.430208303031070827 ) ) ;
#275 = DIRECTION ( 'NONE',  ( -1.000000000000000000, 0.0000000000000000000, 0.0000000000000000000 ) ) ;
#276 = ORIENTED_EDGE ( 'NONE', *, *, #64, .T. ) ;
#277 = VERTEX_POINT ( 'NONE', #283 ) ;
#278 = CONICAL_SURFACE ( 'NONE', #271, 0.2165355499999996880, 0.1813192738195757436 ) ;
#279 = VERTEX_POINT ( 'NONE', #184 ) ;
#280 = DIRECTION ( 'NONE',  ( -0.7071067811865419106, 0.0000000000000000000, -0.7071067811865531239 ) ) ;
#281 = EDGE_CURVE ( 'NONE', #279, #200, #117, .T. ) ;
#282 = CIRCLE ( 'NONE', #136, 0.1818504999999994431 ) ;
#283 = CARTESIAN_POINT ( 'NONE',  ( 0.1818504999999994431, 2.318874837419505661E-17, 3.937007999999999619 ) ) ;
#284 = CARTESIAN_POINT ( 'NONE',  ( 0.1318899999999997574, 0.0000000000000000000, 1.968503999999999809 ) ) ;
#285 = CARTESIAN_POINT ( 'NONE',  ( 0.0000000000000000000, 0.0000000000000000000, 0.1968500000000000250 ) ) ;
#286 = ORIENTED_EDGE ( 'NONE', *, *, #187, .F. ) ;
#287 = CARTESIAN_POINT ( 'NONE',  ( 0.0000000000000000000, 0.0000000000000000000, 1.968503999999999809 ) ) ;
#288 = AXIS2_PLACEMENT_3D ( 'NONE', #223, #205, #339 ) ;
#289 = DIRECTION ( 'NONE',  ( -1.000000000000000000, 0.0000000000000000000, 0.0000000000000000000 ) ) ;
#290 = CARTESIAN_POINT ( 'NONE',  ( 0.0000000000000000000, 0.0000000000000000000, 0.3429833309002433550 ) ) ;
#291 = CARTESIAN_POINT ( 'NONE',  ( 0.0000000000000000000, 0.0000000000000000000, 3.922007999999999051 ) ) ;
#292 = EDGE_CURVE ( 'NONE', #125, #323, #265, .T. ) ;
#293 = CARTESIAN_POINT ( 'NONE',  ( -0.1318899999999999517, 0.0000000000000000000, 0.3429833309002433550 ) ) ;
#294 = DIRECTION ( 'NONE',  ( 1.000000000000000000, 0.0000000000000000000, 0.0000000000000000000 ) ) ;
#295 = ORIENTED_EDGE ( 'NONE', *, *, #254, .F. ) ;
#296 = APPLICATION_CONTEXT ( 'automotive_design' ) ;
#297 = PRODUCT_DEFINITION ( 'UNKNOWN', '', #251, #181 ) ;
#298 = LINE ( 'NONE', #331, #73 ) ;
#299 = ORIENTED_EDGE ( 'NONE', *, *, #114, .T. ) ;
#300 = CIRCLE ( 'NONE', #157, 0.1968504999999999838 ) ;
#301 = VERTEX_POINT ( 'NONE', #143 ) ;
#302 = VECTOR ( 'NONE', #259, 39.37007874015748143 ) ;
#303 = LINE ( 'NONE', #93, #321 ) ;
#304 = ORIENTED_EDGE ( 'NONE', *, *, #146, .T. ) ;
#305 = CYLINDRICAL_SURFACE ( 'NONE', #236, 0.1968504999999999838 ) ;
#306 = AXIS2_PLACEMENT_3D ( 'NONE', #12, #165, #120 ) ;
#307 = EDGE_CURVE ( 'NONE', #125, #191, #303, .T. ) ;
#308 = CARTESIAN_POINT ( 'NONE',  ( 0.0000000000000000000, 0.0000000000000000000, 1.968503999999999809 ) ) ;
#309 = DIRECTION ( 'NONE',  ( 0.1803273764767828191, 0.0000000000000000000, 0.9836066476457956398 ) ) ;
#310 =( LENGTH_UNIT ( ) NAMED_UNIT ( * ) SI_UNIT ( $, .METRE. ) );
#311 = DIMENSIONAL_EXPONENTS ( 1.000000000000000000, 0.0000000000000000000, 0.0000000000000000000, 0.0000000000000000000, 0.0000000000000000000, 0.0000000000000000000, 0.0000000000000000000 ) ;
#312 = DIRECTION ( 'NONE',  ( 0.0000000000000000000, 0.0000000000000000000, -1.000000000000000000 ) ) ;
#313 = LINE ( 'NONE', #203, #92 ) ;
#314 = ADVANCED_FACE ( 'NONE', ( #13 ), #272, .T. ) ;
#315 = AXIS2_PLACEMENT_3D ( 'NONE', #86, #294, #182 ) ;
#316 = VECTOR ( 'NONE', #147, 39.37007874015748143 ) ;
#317 = CARTESIAN_POINT ( 'NONE',  ( 0.1318899999999999517, 1.615186663395443625E-17, 0.3429833309002433550 ) ) ;
#318 = ORIENTED_EDGE ( 'NONE', *, *, #155, .T. ) ;
#319 = CARTESIAN_POINT ( 'NONE',  ( 0.0000000000000000000, 0.0000000000000000000, 0.3429833309002433550 ) ) ;
#320 = FILL_AREA_STYLE_COLOUR ( '', #42 ) ;
#321 = VECTOR ( 'NONE', #245, 39.37007874015748143 ) ;
#322 = VERTEX_POINT ( 'NONE', #193 ) ;
#323 = VERTEX_POINT ( 'NONE', #293 ) ;
#324 = FACE_OUTER_BOUND ( 'NONE', #91, .T. ) ;
#325 = ADVANCED_FACE ( 'NONE', ( #141 ), #340, .T. ) ;
#326 = ADVANCED_BREP_SHAPE_REPRESENTATION ( 'Micro_SBMM-100-250X', ( #177, #116 ), #16 ) ;
#327 = ADVANCED_FACE ( 'NONE', ( #267 ), #242, .T. ) ;
#328 = VERTEX_POINT ( 'NONE', #34 ) ;
#329 = ORIENTED_EDGE ( 'NONE', *, *, #204, .F. ) ;
#330 = COLOUR_RGB ( '',0.7921568627450980005, 0.8196078431372548767, 0.9333333333333333481 ) ;
#331 = CARTESIAN_POINT ( 'NONE',  ( 0.1818504999999994431, 2.227026327483450676E-17, 3.937007999999999619 ) ) ;
#332 = VERTEX_POINT ( 'NONE', #218 ) ;
#333 =( CONVERSION_BASED_UNIT ( 'INCH', #168 ) LENGTH_UNIT ( ) NAMED_UNIT ( #311 ) );
#334 = CARTESIAN_POINT ( 'NONE',  ( 0.0000000000000000000, 0.0000000000000000000, 3.937007999999999619 ) ) ;
#335 = DIRECTION ( 'NONE',  ( 0.0000000000000000000, 1.000000000000000000, 0.0000000000000000000 ) ) ;
#336 = AXIS2_PLACEMENT_3D ( 'NONE', #135, #233, #61 ) ;
#337 = DIRECTION ( 'NONE',  ( -1.000000000000000000, 0.0000000000000000000, 0.0000000000000000000 ) ) ;
#338 = EDGE_CURVE ( 'NONE', #277, #200, #298, .T. ) ;
#339 = DIRECTION ( 'NONE',  ( 1.000000000000000000, 0.0000000000000000000, -0.0000000000000000000 ) ) ;
#340 = CONICAL_SURFACE ( 'NONE', #22, 0.2165355499999996880, 0.1813192738195757436 ) ;
#341 = DIRECTION ( 'NONE',  ( 1.000000000000000000, 0.0000000000000000000, 0.0000000000000000000 ) ) ;
#342 = DIRECTION ( 'NONE',  ( 1.000000000000000000, 0.0000000000000000000, 0.0000000000000000000 ) ) ;
#343 = CIRCLE ( 'NONE', #197, 0.1968504999999999838 ) ;
#344 = LINE ( 'NONE', #192, #302 ) ;
#345 = DIRECTION ( 'NONE',  ( 0.0000000000000000000, 0.0000000000000000000, 1.000000000000000000 ) ) ;
ENDSEC;
END-ISO-10303-21;
