ISO-10303-21;
HEADER;
FILE_DESCRIPTION (( 'STEP AP214' ),
    '1' );
FILE_NAME ('83278.STEP',
    '2023-06-30T22:52:03',
    ( '' ),
    ( '' ),
    'SwSTEP 2.0',
    'SolidWorks 2023',
    '' );
FILE_SCHEMA (( 'AUTOMOTIVE_DESIGN' ));
ENDSEC;

DATA;
#1 = DIRECTION ( 'NONE',  ( -1.000000000000000000, 0.000000000000000000, 0.000000000000000000 ) ) ;
#2 = PRESENTATION_STYLE_ASSIGNMENT (( #294 ) ) ;
#3 =( NAMED_UNIT ( * ) SI_UNIT ( $, .STERADIAN. ) SOLID_ANGLE_UNIT ( ) );
#4 = VECTOR ( 'NONE', #147, 39.37007874015748143 ) ;
#5 = SURFACE_STYLE_USAGE ( .BOTH. , #207 ) ;
#6 = EDGE_CURVE ( 'NONE', #160, #304, #26, .T. ) ;
#7 = CARTESIAN_POINT ( 'NONE',  ( 0.000000000000000000, 0.06250000000000005551, 0.000000000000000000 ) ) ;
#8 = EDGE_LOOP ( 'NONE', ( #351, #349, #150, #321 ) ) ;
#9 = CIRCLE ( 'NONE', #313, 0.06249999999999992367 ) ;
#10 = AXIS2_PLACEMENT_3D ( 'NONE', #41, #250, #362 ) ;
#11 = ORIENTED_EDGE ( 'NONE', *, *, #190, .F. ) ;
#12 = ORIENTED_EDGE ( 'NONE', *, *, #6, .T. ) ;
#13 =( LENGTH_UNIT ( ) NAMED_UNIT ( * ) SI_UNIT ( $, .METRE. ) );
#14 = AXIS2_PLACEMENT_3D ( 'NONE', #97, #16, #216 ) ;
#15 = CARTESIAN_POINT ( 'NONE',  ( 7.654042494670951382E-18, 0.6250000000000000000, 0.06249999999999992367 ) ) ;
#16 = DIRECTION ( 'NONE',  ( -1.551219278919980663E-16, 1.000000000000000000, -0.000000000000000000 ) ) ;
#17 = LENGTH_MEASURE_WITH_UNIT ( LENGTH_MEASURE( 0.02539999999999999897 ), #142 );
#18 =( LENGTH_UNIT ( ) NAMED_UNIT ( * ) SI_UNIT ( $, .METRE. ) );
#19 = DIRECTION ( 'NONE',  ( 0.000000000000000000, -0.000000000000000000, 1.000000000000000000 ) ) ;
#20 = DIRECTION ( 'NONE',  ( 0.000000000000000000, 1.000000000000000000, 0.000000000000000000 ) ) ;
#21 = SPHERICAL_SURFACE ( 'NONE', #50, 0.06250000000000002776 ) ;
#22 =( NAMED_UNIT ( * ) PLANE_ANGLE_UNIT ( ) SI_UNIT ( $, .RADIAN. ) );
#23 = CARTESIAN_POINT ( 'NONE',  ( 0.000000000000000000, 0.000000000000000000, 0.000000000000000000 ) ) ;
#24 = EDGE_CURVE ( 'NONE', #160, #298, #320, .T. ) ;
#25 =( NAMED_UNIT ( * ) PLANE_ANGLE_UNIT ( ) SI_UNIT ( $, .RADIAN. ) );
#26 = CIRCLE ( 'NONE', #114, 0.06250000000000005551 ) ;
#27 = SURFACE_STYLE_FILL_AREA ( #284 ) ;
#28 = CIRCLE ( 'NONE', #306, 0.06250000000000002776 ) ;
#29 = ADVANCED_FACE ( 'NONE', ( #244 ), #278, .T. ) ;
#30 = CARTESIAN_POINT ( 'NONE',  ( 0.06249999999999978489, 2.500000000000000000, 7.654042494670939056E-18 ) ) ;
#31 = CARTESIAN_POINT ( 'NONE',  ( -0.06249999999999945877, 0.6250000000000000000, 0.000000000000000000 ) ) ;
#32 = EDGE_LOOP ( 'NONE', ( #64, #363 ) ) ;
#33 = LINE ( 'NONE', #86, #4 ) ;
#34 =( NAMED_UNIT ( * ) SI_UNIT ( $, .STERADIAN. ) SOLID_ANGLE_UNIT ( ) );
#35 = ORIENTED_EDGE ( 'NONE', *, *, #323, .T. ) ;
#36 = SURFACE_STYLE_USAGE ( .BOTH. , #240 ) ;
#37 = PRESENTATION_LAYER_ASSIGNMENT (  '', '', ( #247 ) ) ;
#38 = FILL_AREA_STYLE_COLOUR ( '', #331 ) ;
#39 =( NAMED_UNIT ( * ) PLANE_ANGLE_UNIT ( ) SI_UNIT ( $, .RADIAN. ) );
#40 = ORIENTED_EDGE ( 'NONE', *, *, #52, .T. ) ;
#41 = CARTESIAN_POINT ( 'NONE',  ( 2.296212748401286986E-16, 0.6250000000000000000, 0.000000000000000000 ) ) ;
#42 = DIRECTION ( 'NONE',  ( 0.000000000000000000, 0.000000000000000000, -1.000000000000000000 ) ) ;
#43 = ADVANCED_FACE ( 'NONE', ( #333 ), #75, .T. ) ;
#44 = AXIS2_PLACEMENT_3D ( 'NONE', #228, #343, #81 ) ;
#45 = UNCERTAINTY_MEASURE_WITH_UNIT (LENGTH_MEASURE( 1.000000000000000082E-05 ), #178, 'distance_accuracy_value', 'NONE');
#46 = DIRECTION ( 'NONE',  ( -0.000000000000000000, -1.000000000000000000, -0.000000000000000000 ) ) ;
#47 = CYLINDRICAL_SURFACE ( 'NONE', #234, 0.06249999999999997918 ) ;
#48 = DIRECTION ( 'NONE',  ( 0.000000000000000000, 0.000000000000000000, -1.000000000000000000 ) ) ;
#49 = PRESENTATION_LAYER_ASSIGNMENT (  '', '', ( #219 ) ) ;
#50 = AXIS2_PLACEMENT_3D ( 'NONE', #169, #195, #279 ) ;
#51 = CARTESIAN_POINT ( 'NONE',  ( 2.296212748401286986E-16, 0.6250000000000000000, 0.000000000000000000 ) ) ;
#52 = EDGE_CURVE ( 'NONE', #242, #196, #218, .T. ) ;
#53 = SURFACE_STYLE_FILL_AREA ( #308 ) ;
#54 = FILL_AREA_STYLE ('',( #78 ) ) ;
#55 = DIRECTION ( 'NONE',  ( 0.000000000000000000, 0.000000000000000000, 1.000000000000000000 ) ) ;
#56 = CARTESIAN_POINT ( 'NONE',  ( -0.06250000000000005551, 2.500000000000000000, 0.000000000000000000 ) ) ;
#57 = UNCERTAINTY_MEASURE_WITH_UNIT (LENGTH_MEASURE( 1.000000000000000082E-05 ), #236, 'distance_accuracy_value', 'NONE');
#58 = EDGE_CURVE ( 'NONE', #237, #328, #9, .T. ) ;
#59 = MECHANICAL_DESIGN_GEOMETRIC_PRESENTATION_REPRESENTATION (  '', ( #219 ), #322 ) ;
#60 = LINE ( 'NONE', #30, #153 ) ;
#61 = APPLICATION_CONTEXT ( 'automotive_design' ) ;
#62 = UNCERTAINTY_MEASURE_WITH_UNIT (LENGTH_MEASURE( 1.000000000000000082E-05 ), #373, 'distance_accuracy_value', 'NONE');
#63 = EDGE_LOOP ( 'NONE', ( #271, #336, #71, #11 ) ) ;
#64 = ORIENTED_EDGE ( 'NONE', *, *, #52, .F. ) ;
#65 = PRODUCT_DEFINITION_SHAPE ( 'NONE', 'NONE',  #263 ) ;
#66 = SURFACE_STYLE_FILL_AREA ( #348 ) ;
#67 = STYLED_ITEM ( 'NONE', ( #2 ), #217 ) ;
#68 = DIMENSIONAL_EXPONENTS ( 1.000000000000000000, 0.000000000000000000, 0.000000000000000000, 0.000000000000000000, 0.000000000000000000, 0.000000000000000000, 0.000000000000000000 ) ;
#69 = DIRECTION ( 'NONE',  ( 0.000000000000000000, 0.000000000000000000, -1.000000000000000000 ) ) ;
#70 = LENGTH_MEASURE_WITH_UNIT ( LENGTH_MEASURE( 0.02539999999999999897 ), #243 );
#71 = ORIENTED_EDGE ( 'NONE', *, *, #229, .T. ) ;
#72 = FILL_AREA_STYLE ('',( #135 ) ) ;
#73 = CIRCLE ( 'NONE', #106, 0.06250000000000005551 ) ;
#74 = CARTESIAN_POINT ( 'NONE',  ( -6.123233995736766036E-17, 2.500000000000000000, 0.000000000000000000 ) ) ;
#75 = PLANE ( 'NONE',  #175 ) ;
#76 = ORIENTED_EDGE ( 'NONE', *, *, #6, .F. ) ;
#77 = LENGTH_MEASURE_WITH_UNIT ( LENGTH_MEASURE( 0.02539999999999999897 ), #13 );
#78 = FILL_AREA_STYLE_COLOUR ( '', #290 ) ;
#79 =( CONVERSION_BASED_UNIT ( 'INCH', #17 ) LENGTH_UNIT ( ) NAMED_UNIT ( #295 ) );
#80 = DIRECTION ( 'NONE',  ( 1.551219278919980663E-16, -1.000000000000000000, 0.000000000000000000 ) ) ;
#81 = DIRECTION ( 'NONE',  ( -1.000000000000000000, 0.000000000000000000, 0.000000000000000000 ) ) ;
#82 = AXIS2_PLACEMENT_3D ( 'NONE', #131, #127, #300 ) ;
#83 = FILL_AREA_STYLE_COLOUR ( '', #84 ) ;
#84 = COLOUR_RGB ( '',1.000000000000000000, 0.000000000000000000, 0.000000000000000000 ) ;
#85 = LINE ( 'NONE', #107, #339 ) ;
#86 = CARTESIAN_POINT ( 'NONE',  ( -0.06249999999999990286, 2.500000000000000000, 0.000000000000000000 ) ) ;
#87 = MECHANICAL_DESIGN_GEOMETRIC_PRESENTATION_REPRESENTATION (  '', ( #67 ), #231 ) ;
#88 = DIRECTION ( 'NONE',  ( -1.551219278919980663E-16, 1.000000000000000000, -0.000000000000000000 ) ) ;
#89 = ORIENTED_EDGE ( 'NONE', *, *, #335, .T. ) ;
#90 = SURFACE_SIDE_STYLE ('',( #27 ) ) ;
#91 = ORIENTED_EDGE ( 'NONE', *, *, #208, .T. ) ;
#92 = UNCERTAINTY_MEASURE_WITH_UNIT (LENGTH_MEASURE( 1.000000000000000082E-05 ), #173, 'distance_accuracy_value', 'NONE');
#93 = FILL_AREA_STYLE ('',( #38 ) ) ;
#94 = SURFACE_STYLE_USAGE ( .BOTH. , #188 ) ;
#95 = DIRECTION ( 'NONE',  ( -1.000000000000000000, 0.000000000000000000, 0.000000000000000000 ) ) ;
#96 =( CONVERSION_BASED_UNIT ( 'INCH', #70 ) LENGTH_UNIT ( ) NAMED_UNIT ( #159 ) );
#97 = CARTESIAN_POINT ( 'NONE',  ( -6.123233995736766036E-17, 2.500000000000000000, 0.000000000000000000 ) ) ;
#98 = AXIS2_PLACEMENT_3D ( 'NONE', #51, #370, #347 ) ;
#99 = CIRCLE ( 'NONE', #326, 0.06250000000000005551 ) ;
#100 = PRODUCT_DEFINITION_FORMATION_WITH_SPECIFIED_SOURCE ( 'ANY', '', #272, .NOT_KNOWN. ) ;
#101 = CYLINDRICAL_SURFACE ( 'NONE', #283, 0.06249999999999997918 ) ;
#102 = CARTESIAN_POINT ( 'NONE',  ( -7.654042494670957545E-18, 0.06250000000000001388, 0.000000000000000000 ) ) ;
#103 =( NAMED_UNIT ( * ) SI_UNIT ( $, .STERADIAN. ) SOLID_ANGLE_UNIT ( ) );
#104 = DIRECTION ( 'NONE',  ( -1.551219278919980663E-16, 1.000000000000000000, 0.000000000000000000 ) ) ;
#105 = CLOSED_SHELL ( 'NONE', ( #29, #168, #274, #124 ) ) ;
#106 = AXIS2_PLACEMENT_3D ( 'NONE', #7, #161, #69 ) ;
#107 = CARTESIAN_POINT ( 'NONE',  ( 0.000000000000000000, 0.000000000000000000, -0.06249999999999997918 ) ) ;
#108 = CARTESIAN_POINT ( 'NONE',  ( -0.06250000000000005551, 0.06250000000000005551, 7.654042494670963708E-18 ) ) ;
#109 = SURFACE_SIDE_STYLE ('',( #317 ) ) ;
#110 = COLOUR_RGB ( '',1.000000000000000000, 0.000000000000000000, 0.000000000000000000 ) ;
#111 = ADVANCED_FACE ( 'NONE', ( #167 ), #47, .T. ) ;
#112 =( NAMED_UNIT ( * ) PLANE_ANGLE_UNIT ( ) SI_UNIT ( $, .RADIAN. ) );
#113 = APPLICATION_PROTOCOL_DEFINITION ( 'draft international standard', 'automotive_design', 1998, #245 ) ;
#114 = AXIS2_PLACEMENT_3D ( 'NONE', #214, #357, #330 ) ;
#115 = COLOUR_RGB ( '',0.7921568627450980005, 0.8196078431372548767, 0.9333333333333333481 ) ;
#116 = CARTESIAN_POINT ( 'NONE',  ( 0.000000000000000000, 0.06250000000000005551, -0.06250000000000005551 ) ) ;
#117 = AXIS2_PLACEMENT_3D ( 'NONE', #293, #55, #205 ) ;
#118 = EDGE_CURVE ( 'NONE', #237, #269, #85, .T. ) ;
#119 = SHAPE_DEFINITION_REPRESENTATION ( #65, #312 ) ;
#120 =( NAMED_UNIT ( * ) SI_UNIT ( $, .STERADIAN. ) SOLID_ANGLE_UNIT ( ) );
#121 = LENGTH_MEASURE_WITH_UNIT ( LENGTH_MEASURE( 0.02539999999999999897 ), #176 );
#122 = FACE_OUTER_BOUND ( 'NONE', #177, .T. ) ;
#123 = CLOSED_SHELL ( 'NONE', ( #318, #111, #43, #344, #361 ) ) ;
#124 = ADVANCED_FACE ( 'NONE', ( #227 ), #256, .F. ) ;
#125 = SURFACE_STYLE_FILL_AREA ( #72 ) ;
#126 = ORIENTED_EDGE ( 'NONE', *, *, #183, .F. ) ;
#127 = DIRECTION ( 'NONE',  ( 0.000000000000000000, 0.000000000000000000, 1.000000000000000000 ) ) ;
#128 = DIMENSIONAL_EXPONENTS ( 1.000000000000000000, 0.000000000000000000, 0.000000000000000000, 0.000000000000000000, 0.000000000000000000, 0.000000000000000000, 0.000000000000000000 ) ;
#129 = ORIENTED_EDGE ( 'NONE', *, *, #183, .T. ) ;
#130 = UNCERTAINTY_MEASURE_WITH_UNIT (LENGTH_MEASURE( 1.000000000000000082E-05 ), #96, 'distance_accuracy_value', 'NONE');
#131 = CARTESIAN_POINT ( 'NONE',  ( -7.654042494670957545E-18, 0.06250000000000001388, 0.000000000000000000 ) ) ;
#132 =( CONVERSION_BASED_UNIT ( 'INCH', #77 ) LENGTH_UNIT ( ) NAMED_UNIT ( #68 ) );
#133 = CIRCLE ( 'NONE', #209, 0.06249999999999992367 ) ;
#134 = FACE_OUTER_BOUND ( 'NONE', #206, .T. ) ;
#135 = FILL_AREA_STYLE_COLOUR ( '', #354 ) ;
#136 = PRESENTATION_STYLE_ASSIGNMENT (( #174 ) ) ;
#137 = DIRECTION ( 'NONE',  ( 1.000000000000000000, 0.000000000000000000, -1.224646799147353207E-16 ) ) ;
#138 = DIRECTION ( 'NONE',  ( 0.000000000000000000, 0.000000000000000000, -1.000000000000000000 ) ) ;
#139 =( GEOMETRIC_REPRESENTATION_CONTEXT ( 3 ) GLOBAL_UNCERTAINTY_ASSIGNED_CONTEXT ( ( #62 ) ) GLOBAL_UNIT_ASSIGNED_CONTEXT ( ( #373, #22, #197 ) ) REPRESENTATION_CONTEXT ( 'NONE', 'WORKASPACE' ) );
#140 =( LENGTH_UNIT ( ) NAMED_UNIT ( * ) SI_UNIT ( $, .METRE. ) );
#141 = CARTESIAN_POINT ( 'NONE',  ( 0.06250000000000002776, 0.06250000000000005551, 0.000000000000000000 ) ) ;
#142 =( LENGTH_UNIT ( ) NAMED_UNIT ( * ) SI_UNIT ( $, .METRE. ) );
#143 =( NAMED_UNIT ( * ) SI_UNIT ( $, .STERADIAN. ) SOLID_ANGLE_UNIT ( ) );
#144 = AXIS2_PLACEMENT_3D ( 'NONE', #102, #42, #95 ) ;
#145 = STYLED_ITEM ( 'NONE', ( #334 ), #318 ) ;
#146 = DIRECTION ( 'NONE',  ( 0.000000000000000000, 0.000000000000000000, -1.000000000000000000 ) ) ;
#147 = DIRECTION ( 'NONE',  ( -1.551219278919980663E-16, 1.000000000000000000, -0.000000000000000000 ) ) ;
#148 = CARTESIAN_POINT ( 'NONE',  ( 0.06249999999999995143, 2.500000000000000000, 7.654042494670948300E-18 ) ) ;
#149 = UNCERTAINTY_MEASURE_WITH_UNIT (LENGTH_MEASURE( 1.000000000000000082E-05 ), #79, 'distance_accuracy_value', 'NONE');
#150 = ORIENTED_EDGE ( 'NONE', *, *, #232, .T. ) ;
#151 = PRODUCT_CONTEXT ( 'NONE', #61, 'mechanical' ) ;
#152 = AXIS2_PLACEMENT_3D ( 'NONE', #259, #88, #1 ) ;
#153 = VECTOR ( 'NONE', #287, 39.37007874015748143 ) ;
#154 = LENGTH_MEASURE_WITH_UNIT ( LENGTH_MEASURE( 0.02539999999999999897 ), #233 );
#155 = ORIENTED_EDGE ( 'NONE', *, *, #118, .F. ) ;
#156 = CARTESIAN_POINT ( 'NONE',  ( 0.000000000000000000, 0.06250000000000005551, 0.000000000000000000 ) ) ;
#157 = LINE ( 'NONE', #359, #226 ) ;
#158 = ORIENTED_EDGE ( 'NONE', *, *, #282, .T. ) ;
#159 = DIMENSIONAL_EXPONENTS ( 1.000000000000000000, 0.000000000000000000, 0.000000000000000000, 0.000000000000000000, 0.000000000000000000, 0.000000000000000000, 0.000000000000000000 ) ;
#160 = VERTEX_POINT ( 'NONE', #141 ) ;
#161 = DIRECTION ( 'NONE',  ( -0.000000000000000000, -1.000000000000000000, -0.000000000000000000 ) ) ;
#162 = ORIENTED_EDGE ( 'NONE', *, *, #282, .F. ) ;
#163 = ORIENTED_EDGE ( 'NONE', *, *, #58, .F. ) ;
#164 = ORIENTED_EDGE ( 'NONE', *, *, #323, .F. ) ;
#165 = MECHANICAL_DESIGN_GEOMETRIC_PRESENTATION_REPRESENTATION (  '', ( #145 ), #172 ) ;
#166 = DIRECTION ( 'NONE',  ( -0.000000000000000000, -1.000000000000000000, -0.000000000000000000 ) ) ;
#167 = FACE_OUTER_BOUND ( 'NONE', #220, .T. ) ;
#168 = ADVANCED_FACE ( 'NONE', ( #371 ), #365, .F. ) ;
#169 = CARTESIAN_POINT ( 'NONE',  ( -7.654042494670957545E-18, 0.06250000000000001388, 0.000000000000000000 ) ) ;
#170 = SURFACE_SIDE_STYLE ('',( #53 ) ) ;
#171 = CARTESIAN_POINT ( 'NONE',  ( 0.000000000000000000, 0.6250000000000000000, 0.000000000000000000 ) ) ;
#172 =( GEOMETRIC_REPRESENTATION_CONTEXT ( 3 ) GLOBAL_UNCERTAINTY_ASSIGNED_CONTEXT ( ( #179 ) ) GLOBAL_UNIT_ASSIGNED_CONTEXT ( ( #192, #332, #34 ) ) REPRESENTATION_CONTEXT ( 'NONE', 'WORKASPACE' ) );
#173 =( CONVERSION_BASED_UNIT ( 'INCH', #369 ) LENGTH_UNIT ( ) NAMED_UNIT ( #212 ) );
#174 = SURFACE_STYLE_USAGE ( .BOTH. , #109 ) ;
#175 = AXIS2_PLACEMENT_3D ( 'NONE', #368, #20, #19 ) ;
#176 =( LENGTH_UNIT ( ) NAMED_UNIT ( * ) SI_UNIT ( $, .METRE. ) );
#177 = EDGE_LOOP ( 'NONE', ( #251, #129, #353, #180, #162 ) ) ;
#178 =( CONVERSION_BASED_UNIT ( 'INCH', #154 ) LENGTH_UNIT ( ) NAMED_UNIT ( #358 ) );
#179 = UNCERTAINTY_MEASURE_WITH_UNIT (LENGTH_MEASURE( 1.000000000000000082E-05 ), #192, 'distance_accuracy_value', 'NONE');
#180 = ORIENTED_EDGE ( 'NONE', *, *, #310, .F. ) ;
#181 = APPLICATION_PROTOCOL_DEFINITION ( 'draft international standard', 'automotive_design', 1998, #61 ) ;
#182 = COLOUR_RGB ( '',0.7921568627450980005, 0.8196078431372548767, 0.9333333333333333481 ) ;
#183 = EDGE_CURVE ( 'NONE', #328, #237, #133, .T. ) ;
#184 = DIRECTION ( 'NONE',  ( 0.000000000000000000, 0.000000000000000000, -1.000000000000000000 ) ) ;
#185 = ORIENTED_EDGE ( 'NONE', *, *, #190, .T. ) ;
#186 = DIRECTION ( 'NONE',  ( -1.551219278919980663E-16, 1.000000000000000000, -0.000000000000000000 ) ) ;
#187 = AXIS2_PLACEMENT_3D ( 'NONE', #156, #264, #146 ) ;
#188 = SURFACE_SIDE_STYLE ('',( #125 ) ) ;
#189 = FILL_AREA_STYLE_COLOUR ( '', #110 ) ;
#190 = EDGE_CURVE ( 'NONE', #266, #222, #345, .T. ) ;
#191 = PRESENTATION_STYLE_ASSIGNMENT (( #94 ) ) ;
#192 =( CONVERSION_BASED_UNIT ( 'INCH', #327 ) LENGTH_UNIT ( ) NAMED_UNIT ( #193 ) );
#193 = DIMENSIONAL_EXPONENTS ( 1.000000000000000000, 0.000000000000000000, 0.000000000000000000, 0.000000000000000000, 0.000000000000000000, 0.000000000000000000, 0.000000000000000000 ) ;
#194 = ORIENTED_EDGE ( 'NONE', *, *, #372, .T. ) ;
#195 = DIRECTION ( 'NONE',  ( 0.000000000000000000, 0.000000000000000000, 1.000000000000000000 ) ) ;
#196 = VERTEX_POINT ( 'NONE', #200 ) ;
#197 =( NAMED_UNIT ( * ) SI_UNIT ( $, .STERADIAN. ) SOLID_ANGLE_UNIT ( ) );
#198 = CARTESIAN_POINT ( 'NONE',  ( 2.296212748401287479E-16, 0.6250000000000000000, 0.000000000000000000 ) ) ;
#199 = CARTESIAN_POINT ( 'NONE',  ( -7.654042494670957545E-18, 0.06250000000000001388, 0.000000000000000000 ) ) ;
#200 = CARTESIAN_POINT ( 'NONE',  ( 0.06249999999999992367, 0.6250000000000000000, 7.654042494670946760E-18 ) ) ;
#201 =( GEOMETRIC_REPRESENTATION_CONTEXT ( 3 ) GLOBAL_UNCERTAINTY_ASSIGNED_CONTEXT ( ( #57 ) ) GLOBAL_UNIT_ASSIGNED_CONTEXT ( ( #236, #112, #261 ) ) REPRESENTATION_CONTEXT ( 'NONE', 'WORKASPACE' ) );
#202 = CYLINDRICAL_SURFACE ( 'NONE', #152, 0.06249999999999984734 ) ;
#203 = ORIENTED_EDGE ( 'NONE', *, *, #24, .F. ) ;
#204 =( NAMED_UNIT ( * ) PLANE_ANGLE_UNIT ( ) SI_UNIT ( $, .RADIAN. ) );
#205 = DIRECTION ( 'NONE',  ( 1.000000000000000000, 0.000000000000000000, 0.000000000000000000 ) ) ;
#206 = EDGE_LOOP ( 'NONE', ( #158, #194, #203, #12 ) ) ;
#207 = SURFACE_SIDE_STYLE ('',( #66 ) ) ;
#208 = EDGE_CURVE ( 'NONE', #196, #266, #60, .T. ) ;
#209 = AXIS2_PLACEMENT_3D ( 'NONE', #171, #281, #255 ) ;
#210 = FILL_AREA_STYLE ('',( #189 ) ) ;
#211 = EDGE_LOOP ( 'NONE', ( #40, #91, #164, #273 ) ) ;
#212 = DIMENSIONAL_EXPONENTS ( 1.000000000000000000, 0.000000000000000000, 0.000000000000000000, 0.000000000000000000, 0.000000000000000000, 0.000000000000000000, 0.000000000000000000 ) ;
#213 = DIRECTION ( 'NONE',  ( -0.000000000000000000, -1.000000000000000000, -0.000000000000000000 ) ) ;
#214 = CARTESIAN_POINT ( 'NONE',  ( 0.000000000000000000, 0.06250000000000005551, 0.000000000000000000 ) ) ;
#215 = MANIFOLD_SOLID_BREP ( 'Revolve - Cutting Edge', #123 ) ;
#216 = DIRECTION ( 'NONE',  ( -1.000000000000000000, 0.000000000000000000, 0.000000000000000000 ) ) ;
#217 = MANIFOLD_SOLID_BREP ( 'Revolve - Tool Body (Straight Shanked)', #105 ) ;
#218 = CIRCLE ( 'NONE', #98, 0.06249999999999969469 ) ;
#219 = STYLED_ITEM ( 'NONE', ( #275 ), #344 ) ;
#220 = EDGE_LOOP ( 'NONE', ( #360, #89, #76, #224, #155 ) ) ;
#221 = SURFACE_STYLE_FILL_AREA ( #93 ) ;
#222 = VERTEX_POINT ( 'NONE', #56 ) ;
#223 = SURFACE_STYLE_USAGE ( .BOTH. , #170 ) ;
#224 = ORIENTED_EDGE ( 'NONE', *, *, #232, .F. ) ;
#225 = PRESENTATION_STYLE_ASSIGNMENT (( #223 ) ) ;
#226 = VECTOR ( 'NONE', #213, 39.37007874015748143 ) ;
#227 = FACE_OUTER_BOUND ( 'NONE', #241, .T. ) ;
#228 = CARTESIAN_POINT ( 'NONE',  ( -6.123233995736766036E-17, 2.500000000000000000, 0.000000000000000000 ) ) ;
#229 = EDGE_CURVE ( 'NONE', #242, #222, #33, .T. ) ;
#230 = FACE_OUTER_BOUND ( 'NONE', #8, .T. ) ;
#231 =( GEOMETRIC_REPRESENTATION_CONTEXT ( 3 ) GLOBAL_UNCERTAINTY_ASSIGNED_CONTEXT ( ( #45 ) ) GLOBAL_UNIT_ASSIGNED_CONTEXT ( ( #178, #204, #120 ) ) REPRESENTATION_CONTEXT ( 'NONE', 'WORKASPACE' ) );
#232 = EDGE_CURVE ( 'NONE', #269, #160, #258, .T. ) ;
#233 =( LENGTH_UNIT ( ) NAMED_UNIT ( * ) SI_UNIT ( $, .METRE. ) );
#234 = AXIS2_PLACEMENT_3D ( 'NONE', #309, #253, #340 ) ;
#235 = FACE_OUTER_BOUND ( 'NONE', #63, .T. ) ;
#236 =( CONVERSION_BASED_UNIT ( 'INCH', #121 ) LENGTH_UNIT ( ) NAMED_UNIT ( #302 ) );
#237 = VERTEX_POINT ( 'NONE', #288 ) ;
#238 = AXIS2_PLACEMENT_3D ( 'NONE', #74, #186, #303 ) ;
#239 =( GEOMETRIC_REPRESENTATION_CONTEXT ( 3 ) GLOBAL_UNCERTAINTY_ASSIGNED_CONTEXT ( ( #149 ) ) GLOBAL_UNIT_ASSIGNED_CONTEXT ( ( #79, #364, #3 ) ) REPRESENTATION_CONTEXT ( 'NONE', 'WORKASPACE' ) );
#240 = SURFACE_SIDE_STYLE ('',( #221 ) ) ;
#241 = EDGE_LOOP ( 'NONE', ( #35, #185 ) ) ;
#242 = VERTEX_POINT ( 'NONE', #31 ) ;
#243 =( LENGTH_UNIT ( ) NAMED_UNIT ( * ) SI_UNIT ( $, .METRE. ) );
#244 = FACE_OUTER_BOUND ( 'NONE', #211, .T. ) ;
#245 = APPLICATION_CONTEXT ( 'automotive_design' ) ;
#246 = SPHERICAL_SURFACE ( 'NONE', #82, 0.06250000000000002776 ) ;
#247 = STYLED_ITEM ( 'NONE', ( #352 ), #215 ) ;
#248 = STYLED_ITEM ( 'NONE', ( #225 ), #361 ) ;
#249 = EDGE_LOOP ( 'NONE', ( #163, #126 ) ) ;
#250 = DIRECTION ( 'NONE',  ( -1.551219278919980663E-16, 1.000000000000000000, -0.000000000000000000 ) ) ;
#251 = ORIENTED_EDGE ( 'NONE', *, *, #335, .F. ) ;
#252 = DIRECTION ( 'NONE',  ( 1.224646799147353207E-16, -0.000000000000000000, 1.000000000000000000 ) ) ;
#253 = DIRECTION ( 'NONE',  ( -0.000000000000000000, -1.000000000000000000, -0.000000000000000000 ) ) ;
#254 = AXIS2_PLACEMENT_3D ( 'NONE', #198, #104, #311 ) ;
#255 = DIRECTION ( 'NONE',  ( 0.000000000000000000, 0.000000000000000000, -1.000000000000000000 ) ) ;
#256 = PLANE ( 'NONE',  #350 ) ;
#257 = CARTESIAN_POINT ( 'NONE',  ( 0.000000000000000000, 0.6250000000000000000, 0.000000000000000000 ) ) ;
#258 = CIRCLE ( 'NONE', #187, 0.06250000000000005551 ) ;
#259 = CARTESIAN_POINT ( 'NONE',  ( -6.123233995736766036E-17, 2.500000000000000000, 0.000000000000000000 ) ) ;
#260 = FILL_AREA_STYLE_COLOUR ( '', #115 ) ;
#261 =( NAMED_UNIT ( * ) SI_UNIT ( $, .STERADIAN. ) SOLID_ANGLE_UNIT ( ) );
#262 = MECHANICAL_DESIGN_GEOMETRIC_PRESENTATION_REPRESENTATION (  '', ( #367 ), #139 ) ;
#263 = PRODUCT_DEFINITION ( 'UNKNOWN', '', #100, #296 ) ;
#264 = DIRECTION ( 'NONE',  ( -0.000000000000000000, -1.000000000000000000, -0.000000000000000000 ) ) ;
#265 = CARTESIAN_POINT ( 'NONE',  ( 7.654042494670963708E-18, 0.06250000000000005551, 0.06250000000000005551 ) ) ;
#266 = VERTEX_POINT ( 'NONE', #148 ) ;
#267 = PRESENTATION_LAYER_ASSIGNMENT (  '', '', ( #285 ) ) ;
#268 = SURFACE_STYLE_USAGE ( .BOTH. , #329 ) ;
#269 = VERTEX_POINT ( 'NONE', #116 ) ;
#270 = CARTESIAN_POINT ( 'NONE',  ( -3.827021247335477232E-18, -1.707404996040164512E-17, 0.000000000000000000 ) ) ;
#271 = ORIENTED_EDGE ( 'NONE', *, *, #208, .F. ) ;
#272 = PRODUCT ( '83278', '83278', '', ( #151 ) ) ;
#273 = ORIENTED_EDGE ( 'NONE', *, *, #229, .F. ) ;
#274 = ADVANCED_FACE ( 'NONE', ( #235 ), #202, .T. ) ;
#275 = PRESENTATION_STYLE_ASSIGNMENT (( #36 ) ) ;
#276 = PRESENTATION_LAYER_ASSIGNMENT (  '', '', ( #367 ) ) ;
#277 = MECHANICAL_DESIGN_GEOMETRIC_PRESENTATION_REPRESENTATION (  '', ( #248 ), #315 ) ;
#278 = CYLINDRICAL_SURFACE ( 'NONE', #14, 0.06249999999999984734 ) ;
#279 = DIRECTION ( 'NONE',  ( 1.000000000000000000, 0.000000000000000000, 0.000000000000000000 ) ) ;
#280 = LENGTH_MEASURE_WITH_UNIT ( LENGTH_MEASURE( 0.02539999999999999897 ), #18 );
#281 = DIRECTION ( 'NONE',  ( -0.000000000000000000, -1.000000000000000000, -0.000000000000000000 ) ) ;
#282 = EDGE_CURVE ( 'NONE', #304, #355, #99, .T. ) ;
#283 = AXIS2_PLACEMENT_3D ( 'NONE', #23, #166, #48 ) ;
#284 = FILL_AREA_STYLE ('',( #260 ) ) ;
#285 = STYLED_ITEM ( 'NONE', ( #191 ), #43 ) ;
#286 = CIRCLE ( 'NONE', #10, 0.06249999999999969469 ) ;
#287 = DIRECTION ( 'NONE',  ( -1.551219278919980663E-16, 1.000000000000000000, -0.000000000000000000 ) ) ;
#288 = CARTESIAN_POINT ( 'NONE',  ( 0.000000000000000000, 0.6250000000000000000, -0.06249999999999992367 ) ) ;
#289 = PRODUCT_RELATED_PRODUCT_CATEGORY ( 'part', '', ( #272 ) ) ;
#290 = COLOUR_RGB ( '',1.000000000000000000, 0.000000000000000000, 0.000000000000000000 ) ;
#291 = PRESENTATION_LAYER_ASSIGNMENT (  '', '', ( #145 ) ) ;
#292 = PRESENTATION_LAYER_ASSIGNMENT (  '', '', ( #248 ) ) ;
#293 = CARTESIAN_POINT ( 'NONE',  ( 0.000000000000000000, 0.000000000000000000, 0.000000000000000000 ) ) ;
#294 = SURFACE_STYLE_USAGE ( .BOTH. , #90 ) ;
#295 = DIMENSIONAL_EXPONENTS ( 1.000000000000000000, 0.000000000000000000, 0.000000000000000000, 0.000000000000000000, 0.000000000000000000, 0.000000000000000000, 0.000000000000000000 ) ;
#296 = PRODUCT_DEFINITION_CONTEXT ( 'detailed design', #245, 'design' ) ;
#297 =( LENGTH_UNIT ( ) NAMED_UNIT ( * ) SI_UNIT ( $, .METRE. ) );
#298 = VERTEX_POINT ( 'NONE', #270 ) ;
#299 = MECHANICAL_DESIGN_GEOMETRIC_PRESENTATION_REPRESENTATION (  '', ( #247 ), #201 ) ;
#300 = DIRECTION ( 'NONE',  ( 1.000000000000000000, 0.000000000000000000, 0.000000000000000000 ) ) ;
#301 = DIRECTION ( 'NONE',  ( -0.000000000000000000, -1.000000000000000000, -0.000000000000000000 ) ) ;
#302 = DIMENSIONAL_EXPONENTS ( 1.000000000000000000, 0.000000000000000000, 0.000000000000000000, 0.000000000000000000, 0.000000000000000000, 0.000000000000000000, 0.000000000000000000 ) ;
#303 = DIRECTION ( 'NONE',  ( -1.000000000000000000, 0.000000000000000000, 0.000000000000000000 ) ) ;
#304 = VERTEX_POINT ( 'NONE', #265 ) ;
#305 = CIRCLE ( 'NONE', #238, 0.06250000000000000000 ) ;
#306 = AXIS2_PLACEMENT_3D ( 'NONE', #199, #252, #137 ) ;
#307 = DIRECTION ( 'NONE',  ( 1.000000000000000000, 1.551219278919980663E-16, 0.000000000000000000 ) ) ;
#308 = FILL_AREA_STYLE ('',( #83 ) ) ;
#309 = CARTESIAN_POINT ( 'NONE',  ( 0.000000000000000000, 0.000000000000000000, 0.000000000000000000 ) ) ;
#310 = EDGE_CURVE ( 'NONE', #355, #269, #73, .T. ) ;
#311 = DIRECTION ( 'NONE',  ( -1.000000000000000000, -1.551219278919980663E-16, 0.000000000000000000 ) ) ;
#312 = ADVANCED_BREP_SHAPE_REPRESENTATION ( '83278', ( #215, #217, #117 ), #239 ) ;
#313 = AXIS2_PLACEMENT_3D ( 'NONE', #257, #346, #138 ) ;
#314 = PRESENTATION_LAYER_ASSIGNMENT (  '', '', ( #67 ) ) ;
#315 =( GEOMETRIC_REPRESENTATION_CONTEXT ( 3 ) GLOBAL_UNCERTAINTY_ASSIGNED_CONTEXT ( ( #92 ) ) GLOBAL_UNIT_ASSIGNED_CONTEXT ( ( #173, #338, #316 ) ) REPRESENTATION_CONTEXT ( 'NONE', 'WORKASPACE' ) );
#316 =( NAMED_UNIT ( * ) SI_UNIT ( $, .STERADIAN. ) SOLID_ANGLE_UNIT ( ) );
#317 = SURFACE_STYLE_FILL_AREA ( #54 ) ;
#318 = ADVANCED_FACE ( 'NONE', ( #134 ), #246, .T. ) ;
#319 = CARTESIAN_POINT ( 'NONE',  ( 0.000000000000000000, 0.06250000000000005551, 0.000000000000000000 ) ) ;
#320 = CIRCLE ( 'NONE', #144, 0.06250000000000002776 ) ;
#321 = ORIENTED_EDGE ( 'NONE', *, *, #24, .T. ) ;
#322 =( GEOMETRIC_REPRESENTATION_CONTEXT ( 3 ) GLOBAL_UNCERTAINTY_ASSIGNED_CONTEXT ( ( #130 ) ) GLOBAL_UNIT_ASSIGNED_CONTEXT ( ( #96, #39, #103 ) ) REPRESENTATION_CONTEXT ( 'NONE', 'WORKASPACE' ) );
#323 = EDGE_CURVE ( 'NONE', #222, #266, #305, .T. ) ;
#324 = UNCERTAINTY_MEASURE_WITH_UNIT (LENGTH_MEASURE( 1.000000000000000082E-05 ), #132, 'distance_accuracy_value', 'NONE');
#325 = FILL_AREA_STYLE_COLOUR ( '', #182 ) ;
#326 = AXIS2_PLACEMENT_3D ( 'NONE', #319, #301, #184 ) ;
#327 = LENGTH_MEASURE_WITH_UNIT ( LENGTH_MEASURE( 0.02539999999999999897 ), #297 );
#328 = VERTEX_POINT ( 'NONE', #15 ) ;
#329 = SURFACE_SIDE_STYLE ('',( #356 ) ) ;
#330 = DIRECTION ( 'NONE',  ( 0.000000000000000000, 0.000000000000000000, -1.000000000000000000 ) ) ;
#331 = COLOUR_RGB ( '',1.000000000000000000, 0.000000000000000000, 0.000000000000000000 ) ;
#332 =( NAMED_UNIT ( * ) PLANE_ANGLE_UNIT ( ) SI_UNIT ( $, .RADIAN. ) );
#333 = FACE_OUTER_BOUND ( 'NONE', #249, .T. ) ;
#334 = PRESENTATION_STYLE_ASSIGNMENT (( #268 ) ) ;
#335 = EDGE_CURVE ( 'NONE', #328, #304, #157, .T. ) ;
#336 = ORIENTED_EDGE ( 'NONE', *, *, #341, .T. ) ;
#337 =( GEOMETRIC_REPRESENTATION_CONTEXT ( 3 ) GLOBAL_UNCERTAINTY_ASSIGNED_CONTEXT ( ( #324 ) ) GLOBAL_UNIT_ASSIGNED_CONTEXT ( ( #132, #25, #143 ) ) REPRESENTATION_CONTEXT ( 'NONE', 'WORKASPACE' ) );
#338 =( NAMED_UNIT ( * ) PLANE_ANGLE_UNIT ( ) SI_UNIT ( $, .RADIAN. ) );
#339 = VECTOR ( 'NONE', #46, 39.37007874015748143 ) ;
#340 = DIRECTION ( 'NONE',  ( 0.000000000000000000, 0.000000000000000000, -1.000000000000000000 ) ) ;
#341 = EDGE_CURVE ( 'NONE', #196, #242, #286, .T. ) ;
#342 = CARTESIAN_POINT ( 'NONE',  ( 0.06249999999999993755, 2.500000000000000000, 0.000000000000000000 ) ) ;
#343 = DIRECTION ( 'NONE',  ( -1.551219278919980663E-16, 1.000000000000000000, -0.000000000000000000 ) ) ;
#344 = ADVANCED_FACE ( 'NONE', ( #122 ), #101, .T. ) ;
#345 = CIRCLE ( 'NONE', #44, 0.06250000000000000000 ) ;
#346 = DIRECTION ( 'NONE',  ( -0.000000000000000000, -1.000000000000000000, -0.000000000000000000 ) ) ;
#347 = DIRECTION ( 'NONE',  ( -1.000000000000000000, 0.000000000000000000, 0.000000000000000000 ) ) ;
#348 = FILL_AREA_STYLE ('',( #325 ) ) ;
#349 = ORIENTED_EDGE ( 'NONE', *, *, #310, .T. ) ;
#350 = AXIS2_PLACEMENT_3D ( 'NONE', #342, #80, #307 ) ;
#351 = ORIENTED_EDGE ( 'NONE', *, *, #372, .F. ) ;
#352 = PRESENTATION_STYLE_ASSIGNMENT (( #5 ) ) ;
#353 = ORIENTED_EDGE ( 'NONE', *, *, #118, .T. ) ;
#354 = COLOUR_RGB ( '',1.000000000000000000, 0.000000000000000000, 0.000000000000000000 ) ;
#355 = VERTEX_POINT ( 'NONE', #108 ) ;
#356 = SURFACE_STYLE_FILL_AREA ( #210 ) ;
#357 = DIRECTION ( 'NONE',  ( -0.000000000000000000, -1.000000000000000000, -0.000000000000000000 ) ) ;
#358 = DIMENSIONAL_EXPONENTS ( 1.000000000000000000, 0.000000000000000000, 0.000000000000000000, 0.000000000000000000, 0.000000000000000000, 0.000000000000000000, 0.000000000000000000 ) ;
#359 = CARTESIAN_POINT ( 'NONE',  ( 7.654042494670956004E-18, 0.000000000000000000, 0.06249999999999997918 ) ) ;
#360 = ORIENTED_EDGE ( 'NONE', *, *, #58, .T. ) ;
#361 = ADVANCED_FACE ( 'NONE', ( #230 ), #21, .T. ) ;
#362 = DIRECTION ( 'NONE',  ( -1.000000000000000000, 0.000000000000000000, 0.000000000000000000 ) ) ;
#363 = ORIENTED_EDGE ( 'NONE', *, *, #341, .F. ) ;
#364 =( NAMED_UNIT ( * ) PLANE_ANGLE_UNIT ( ) SI_UNIT ( $, .RADIAN. ) );
#365 = PLANE ( 'NONE',  #254 ) ;
#366 = MECHANICAL_DESIGN_GEOMETRIC_PRESENTATION_REPRESENTATION (  '', ( #285 ), #337 ) ;
#367 = STYLED_ITEM ( 'NONE', ( #136 ), #111 ) ;
#368 = CARTESIAN_POINT ( 'NONE',  ( 0.000000000000000000, 0.6250000000000000000, 0.000000000000000000 ) ) ;
#369 = LENGTH_MEASURE_WITH_UNIT ( LENGTH_MEASURE( 0.02539999999999999897 ), #140 );
#370 = DIRECTION ( 'NONE',  ( -1.551219278919980663E-16, 1.000000000000000000, -0.000000000000000000 ) ) ;
#371 = FACE_OUTER_BOUND ( 'NONE', #32, .T. ) ;
#372 = EDGE_CURVE ( 'NONE', #355, #298, #28, .T. ) ;
#373 =( CONVERSION_BASED_UNIT ( 'INCH', #280 ) LENGTH_UNIT ( ) NAMED_UNIT ( #128 ) );
ENDSEC;
END-ISO-10303-21;
