ISO-10303-21;
HEADER;
FILE_DESCRIPTION (( 'STEP AP214' ),
    '1' );
FILE_NAME ('59625.STEP',
    '2023-07-24T15:16:37',
    ( '' ),
    ( '' ),
    'SwSTEP 2.0',
    'SolidWorks 2023',
    '' );
FILE_SCHEMA (( 'AUTOMOTIVE_DESIGN' ));
ENDSEC;

DATA;
#1 = CYLINDRICAL_SURFACE ( 'NONE', #9, 12.50000000000000000 ) ;
#2 =( GEOMETRIC_REPRESENTATION_CONTEXT ( 3 ) GLOBAL_UNCERTAINTY_ASSIGNED_CONTEXT ( ( #80 ) ) GLOBAL_UNIT_ASSIGNED_CONTEXT ( ( #207, #290, #262 ) ) REPRESENTATION_CONTEXT ( 'NONE', 'WORKASPACE' ) );
#3 = PRODUCT_DEFINITION_CONTEXT ( 'detailed design', #54, 'design' ) ;
#4 = EDGE_LOOP ( 'NONE', ( #307, #224, #92, #159 ) ) ;
#5 = EDGE_CURVE ( 'NONE', #295, #84, #180, .T. ) ;
#6 = DIRECTION ( 'NONE',  ( 1.000000000000000000, 1.895813576284393923E-16, 0.000000000000000000 ) ) ;
#7 = ORIENTED_EDGE ( 'NONE', *, *, #324, .T. ) ;
#8 = FACE_OUTER_BOUND ( 'NONE', #227, .T. ) ;
#9 = AXIS2_PLACEMENT_3D ( 'NONE', #113, #345, #321 ) ;
#10 = CARTESIAN_POINT ( 'NONE',  ( 0.000000000000000000, 64.00000000000000000, 0.000000000000000000 ) ) ;
#11 = FILL_AREA_STYLE_COLOUR ( '', #95 ) ;
#12 = ORIENTED_EDGE ( 'NONE', *, *, #157, .T. ) ;
#13 = SURFACE_STYLE_USAGE ( .BOTH. , #98 ) ;
#14 = FILL_AREA_STYLE ('',( #245 ) ) ;
#15 = CIRCLE ( 'NONE', #99, 11.50000000000000000 ) ;
#16 = SURFACE_SIDE_STYLE ('',( #96 ) ) ;
#17 = CIRCLE ( 'NONE', #191, 11.50000000000000000 ) ;
#18 = DIRECTION ( 'NONE',  ( 0.000000000000000000, 0.000000000000000000, -1.000000000000000000 ) ) ;
#19 = UNCERTAINTY_MEASURE_WITH_UNIT (LENGTH_MEASURE( 1.000000000000000082E-05 ), #252, 'distance_accuracy_value', 'NONE');
#20 = VERTEX_POINT ( 'NONE', #124 ) ;
#21 = CLOSED_SHELL ( 'NONE', ( #44, #118, #85, #105, #130, #356 ) ) ;
#22 = AXIS2_PLACEMENT_3D ( 'NONE', #274, #359, #18 ) ;
#23 = DIRECTION ( 'NONE',  ( -0.000000000000000000, -1.000000000000000000, -0.000000000000000000 ) ) ;
#24 =( NAMED_UNIT ( * ) SI_UNIT ( $, .STERADIAN. ) SOLID_ANGLE_UNIT ( ) );
#25 = EDGE_LOOP ( 'NONE', ( #186, #314 ) ) ;
#26 = CARTESIAN_POINT ( 'NONE',  ( 7.155734338404329264E-15, 64.00000000000000000, 0.000000000000000000 ) ) ;
#27 =( NAMED_UNIT ( * ) SI_UNIT ( $, .STERADIAN. ) SOLID_ANGLE_UNIT ( ) );
#28 = ORIENTED_EDGE ( 'NONE', *, *, #57, .F. ) ;
#29 = CARTESIAN_POINT ( 'NONE',  ( -12.50000000000001066, 125.0000000000000000, 0.000000000000000000 ) ) ;
#30 = EDGE_CURVE ( 'NONE', #336, #119, #73, .T. ) ;
#31 = FILL_AREA_STYLE_COLOUR ( '', #34 ) ;
#32 =( LENGTH_UNIT ( ) NAMED_UNIT ( * ) SI_UNIT ( .MILLI., .METRE. ) );
#33 = TOROIDAL_SURFACE ( 'NONE', #47, 11.50000000000000000, 1.000000000000000444 ) ;
#34 = COLOUR_RGB ( '',1.000000000000000000, 0.000000000000000000, 0.000000000000000000 ) ;
#35 = PRESENTATION_STYLE_ASSIGNMENT (( #241 ) ) ;
#36 = CARTESIAN_POINT ( 'NONE',  ( 0.000000000000000000, 0.000000000000000000, -12.50000000000000000 ) ) ;
#37 = DIRECTION ( 'NONE',  ( -1.895813576284393923E-16, 1.000000000000000000, -0.000000000000000000 ) ) ;
#38 = EDGE_CURVE ( 'NONE', #256, #208, #196, .T. ) ;
#39 = EDGE_LOOP ( 'NONE', ( #251, #150, #299, #171 ) ) ;
#40 = CYLINDRICAL_SURFACE ( 'NONE', #361, 12.50000000000000000 ) ;
#41 = AXIS2_PLACEMENT_3D ( 'NONE', #261, #93, #63 ) ;
#42 = FACE_OUTER_BOUND ( 'NONE', #134, .T. ) ;
#43 = FILL_AREA_STYLE_COLOUR ( '', #259 ) ;
#44 = ADVANCED_FACE ( 'NONE', ( #187 ), #40, .T. ) ;
#45 = DIRECTION ( 'NONE',  ( 0.000000000000000000, -1.000000000000000000, -0.000000000000000000 ) ) ;
#46 = CIRCLE ( 'NONE', #122, 1.000000000000000888 ) ;
#47 = AXIS2_PLACEMENT_3D ( 'NONE', #357, #266, #350 ) ;
#48 = SURFACE_STYLE_FILL_AREA ( #246 ) ;
#49 = EDGE_CURVE ( 'NONE', #84, #332, #76, .T. ) ;
#50 = DIRECTION ( 'NONE',  ( -0.000000000000000000, -1.000000000000000000, -0.000000000000000000 ) ) ;
#51 = VECTOR ( 'NONE', #163, 1000.000000000000000 ) ;
#52 = CIRCLE ( 'NONE', #363, 1.000000000000000888 ) ;
#53 = ORIENTED_EDGE ( 'NONE', *, *, #300, .T. ) ;
#54 = APPLICATION_CONTEXT ( 'automotive_design' ) ;
#55 = CARTESIAN_POINT ( 'NONE',  ( 0.000000000000000000, 0.000000000000000000, 0.000000000000000000 ) ) ;
#56 = ORIENTED_EDGE ( 'NONE', *, *, #292, .T. ) ;
#57 = EDGE_CURVE ( 'NONE', #332, #218, #46, .T. ) ;
#58 = PRESENTATION_STYLE_ASSIGNMENT (( #103 ) ) ;
#59 = AXIS2_PLACEMENT_3D ( 'NONE', #183, #37, #347 ) ;
#60 = CARTESIAN_POINT ( 'NONE',  ( -12.49999999999998757, 64.00000000000000000, 0.000000000000000000 ) ) ;
#61 = PRESENTATION_LAYER_ASSIGNMENT (  '', '', ( #325 ) ) ;
#62 = CARTESIAN_POINT ( 'NONE',  ( 0.000000000000000000, 1.000000000000000000, -11.50000000000000000 ) ) ;
#63 = DIRECTION ( 'NONE',  ( -1.000000000000000000, 0.000000000000000000, 0.000000000000000000 ) ) ;
#64 = LINE ( 'NONE', #36, #225 ) ;
#65 = COLOUR_RGB ( '',0.7921568627450980005, 0.8196078431372548767, 0.9333333333333333481 ) ;
#66 =( LENGTH_UNIT ( ) NAMED_UNIT ( * ) SI_UNIT ( .MILLI., .METRE. ) );
#67 = CARTESIAN_POINT ( 'NONE',  ( 12.50000000000000000, 125.0000000000000000, 0.000000000000000000 ) ) ;
#68 = FILL_AREA_STYLE ('',( #11 ) ) ;
#69 = EDGE_LOOP ( 'NONE', ( #200, #184 ) ) ;
#70 = ADVANCED_FACE ( 'NONE', ( #213 ), #1, .T. ) ;
#71 = DIRECTION ( 'NONE',  ( -1.000000000000000000, 0.000000000000000000, 0.000000000000000000 ) ) ;
#72 =( LENGTH_UNIT ( ) NAMED_UNIT ( * ) SI_UNIT ( .MILLI., .METRE. ) );
#73 = CIRCLE ( 'NONE', #328, 12.50000000000000533 ) ;
#74 = EDGE_CURVE ( 'NONE', #119, #336, #220, .T. ) ;
#75 = DIRECTION ( 'NONE',  ( 0.000000000000000000, 0.000000000000000000, -1.000000000000000000 ) ) ;
#76 = LINE ( 'NONE', #161, #317 ) ;
#77 = DIRECTION ( 'NONE',  ( 0.000000000000000000, 0.000000000000000000, -1.000000000000000000 ) ) ;
#78 = STYLED_ITEM ( 'NONE', ( #101 ), #356 ) ;
#79 = ORIENTED_EDGE ( 'NONE', *, *, #292, .F. ) ;
#80 = UNCERTAINTY_MEASURE_WITH_UNIT (LENGTH_MEASURE( 1.000000000000000082E-05 ), #207, 'distance_accuracy_value', 'NONE');
#81 = ORIENTED_EDGE ( 'NONE', *, *, #57, .T. ) ;
#82 = SURFACE_STYLE_USAGE ( .BOTH. , #254 ) ;
#83 = CARTESIAN_POINT ( 'NONE',  ( 0.000000000000000000, 64.00000000000000000, 0.000000000000000000 ) ) ;
#84 = VERTEX_POINT ( 'NONE', #322 ) ;
#85 = ADVANCED_FACE ( 'NONE', ( #146 ), #152, .T. ) ;
#86 = DIRECTION ( 'NONE',  ( -1.000000000000000000, 0.000000000000000000, 0.000000000000000000 ) ) ;
#87 = COLOUR_RGB ( '',1.000000000000000000, 0.000000000000000000, 0.000000000000000000 ) ;
#88 = DIRECTION ( 'NONE',  ( 0.000000000000000000, -0.000000000000000000, 1.000000000000000000 ) ) ;
#89 = CARTESIAN_POINT ( 'NONE',  ( -4.408728476930469278E-15, 124.9999999999999858, 0.000000000000000000 ) ) ;
#90 =( GEOMETRIC_REPRESENTATION_CONTEXT ( 3 ) GLOBAL_UNCERTAINTY_ASSIGNED_CONTEXT ( ( #205 ) ) GLOBAL_UNIT_ASSIGNED_CONTEXT ( ( #235, #342, #24 ) ) REPRESENTATION_CONTEXT ( 'NONE', 'WORKASPACE' ) );
#91 = PRESENTATION_LAYER_ASSIGNMENT (  '', '', ( #313 ) ) ;
#92 = ORIENTED_EDGE ( 'NONE', *, *, #30, .F. ) ;
#93 = DIRECTION ( 'NONE',  ( -1.895813576284393923E-16, 1.000000000000000000, -0.000000000000000000 ) ) ;
#94 = DIRECTION ( 'NONE',  ( -1.895813576284393923E-16, 1.000000000000000000, -0.000000000000000000 ) ) ;
#95 = COLOUR_RGB ( '',1.000000000000000000, 0.000000000000000000, 0.000000000000000000 ) ;
#96 = SURFACE_STYLE_FILL_AREA ( #14 ) ;
#97 = EDGE_CURVE ( 'NONE', #256, #336, #189, .T. ) ;
#98 = SURFACE_SIDE_STYLE ('',( #48 ) ) ;
#99 = AXIS2_PLACEMENT_3D ( 'NONE', #255, #155, #362 ) ;
#100 =( NAMED_UNIT ( * ) SI_UNIT ( $, .STERADIAN. ) SOLID_ANGLE_UNIT ( ) );
#101 = PRESENTATION_STYLE_ASSIGNMENT (( #193 ) ) ;
#102 = DIRECTION ( 'NONE',  ( -0.000000000000000000, -1.000000000000000000, -0.000000000000000000 ) ) ;
#103 = SURFACE_STYLE_USAGE ( .BOTH. , #104 ) ;
#104 = SURFACE_SIDE_STYLE ('',( #360 ) ) ;
#105 = ADVANCED_FACE ( 'NONE', ( #42 ), #33, .T. ) ;
#106 = DIRECTION ( 'NONE',  ( -1.224646799147353454E-16, 0.000000000000000000, -1.000000000000000000 ) ) ;
#107 = COLOUR_RGB ( '',0.7921568627450980005, 0.8196078431372548767, 0.9333333333333333481 ) ;
#108 = CYLINDRICAL_SURFACE ( 'NONE', #22, 12.50000000000000000 ) ;
#109 = VERTEX_POINT ( 'NONE', #271 ) ;
#110 =( LENGTH_UNIT ( ) NAMED_UNIT ( * ) SI_UNIT ( .MILLI., .METRE. ) );
#111 = CARTESIAN_POINT ( 'NONE',  ( 0.000000000000000000, 1.000000000000000000, 0.000000000000000000 ) ) ;
#112 = ORIENTED_EDGE ( 'NONE', *, *, #222, .F. ) ;
#113 = CARTESIAN_POINT ( 'NONE',  ( -4.408728476930469278E-15, 124.9999999999999858, 0.000000000000000000 ) ) ;
#114 = SURFACE_SIDE_STYLE ('',( #216 ) ) ;
#115 = LINE ( 'NONE', #145, #301 ) ;
#116 = SURFACE_STYLE_FILL_AREA ( #156 ) ;
#117 = PRESENTATION_STYLE_ASSIGNMENT (( #368 ) ) ;
#118 = ADVANCED_FACE ( 'NONE', ( #126 ), #137, .T. ) ;
#119 = VERTEX_POINT ( 'NONE', #190 ) ;
#120 = PRODUCT_DEFINITION_FORMATION_WITH_SPECIFIED_SOURCE ( 'ANY', '', #204, .NOT_KNOWN. ) ;
#121 = DIRECTION ( 'NONE',  ( -1.895813576284393923E-16, 1.000000000000000000, -0.000000000000000000 ) ) ;
#122 = AXIS2_PLACEMENT_3D ( 'NONE', #268, #140, #106 ) ;
#123 = COLOUR_RGB ( '',1.000000000000000000, 0.000000000000000000, 0.000000000000000000 ) ;
#124 = CARTESIAN_POINT ( 'NONE',  ( 0.000000000000000000, 1.000000000000000000, -12.50000000000000000 ) ) ;
#125 = SURFACE_SIDE_STYLE ('',( #116 ) ) ;
#126 = FACE_OUTER_BOUND ( 'NONE', #282, .T. ) ;
#127 = MECHANICAL_DESIGN_GEOMETRIC_PRESENTATION_REPRESENTATION (  '', ( #78 ), #90 ) ;
#128 = SURFACE_STYLE_USAGE ( .BOTH. , #16 ) ;
#129 = APPLICATION_CONTEXT ( 'automotive_design' ) ;
#130 = ADVANCED_FACE ( 'NONE', ( #364 ), #108, .T. ) ;
#131 = MECHANICAL_DESIGN_GEOMETRIC_PRESENTATION_REPRESENTATION (  '', ( #211 ), #162 ) ;
#132 = CIRCLE ( 'NONE', #338, 12.50000000000000000 ) ;
#133 = DIRECTION ( 'NONE',  ( -0.000000000000000000, -1.000000000000000000, -0.000000000000000000 ) ) ;
#134 = EDGE_LOOP ( 'NONE', ( #28, #170, #7, #112 ) ) ;
#135 = DIRECTION ( 'NONE',  ( 0.000000000000000000, 0.000000000000000000, -1.000000000000000000 ) ) ;
#136 = EDGE_LOOP ( 'NONE', ( #291, #12, #53, #311 ) ) ;
#137 = TOROIDAL_SURFACE ( 'NONE', #154, 11.50000000000000000, 1.000000000000000444 ) ;
#138 = PRESENTATION_STYLE_ASSIGNMENT (( #82 ) ) ;
#139 = DIRECTION ( 'NONE',  ( 0.000000000000000000, 1.000000000000000000, 0.000000000000000000 ) ) ;
#140 = DIRECTION ( 'NONE',  ( 1.000000000000000000, 0.000000000000000000, -1.224646799147353207E-16 ) ) ;
#141 = ORIENTED_EDGE ( 'NONE', *, *, #38, .F. ) ;
#142 = DIRECTION ( 'NONE',  ( -0.000000000000000000, -1.000000000000000000, -0.000000000000000000 ) ) ;
#143 = SURFACE_STYLE_FILL_AREA ( #201 ) ;
#144 = FACE_OUTER_BOUND ( 'NONE', #25, .T. ) ;
#145 = CARTESIAN_POINT ( 'NONE',  ( 12.49999999999999467, 124.9999999999999858, 1.530808498934191521E-15 ) ) ;
#146 = FACE_OUTER_BOUND ( 'NONE', #229, .T. ) ;
#147 = UNCERTAINTY_MEASURE_WITH_UNIT (LENGTH_MEASURE( 1.000000000000000082E-05 ), #72, 'distance_accuracy_value', 'NONE');
#148 =( GEOMETRIC_REPRESENTATION_CONTEXT ( 3 ) GLOBAL_UNCERTAINTY_ASSIGNED_CONTEXT ( ( #226 ) ) GLOBAL_UNIT_ASSIGNED_CONTEXT ( ( #110, #250, #174 ) ) REPRESENTATION_CONTEXT ( 'NONE', 'WORKASPACE' ) );
#149 = SURFACE_STYLE_FILL_AREA ( #177 ) ;
#150 = ORIENTED_EDGE ( 'NONE', *, *, #49, .T. ) ;
#151 = DIRECTION ( 'NONE',  ( 0.000000000000000000, 0.000000000000000000, 1.000000000000000000 ) ) ;
#152 = PLANE ( 'NONE',  #188 ) ;
#153 = DIRECTION ( 'NONE',  ( 1.000000000000000000, 0.000000000000000000, 0.000000000000000000 ) ) ;
#154 = AXIS2_PLACEMENT_3D ( 'NONE', #195, #278, #135 ) ;
#155 = DIRECTION ( 'NONE',  ( -0.000000000000000000, -1.000000000000000000, -0.000000000000000000 ) ) ;
#156 = FILL_AREA_STYLE ('',( #43 ) ) ;
#157 = EDGE_CURVE ( 'NONE', #84, #295, #132, .T. ) ;
#158 =( NAMED_UNIT ( * ) PLANE_ANGLE_UNIT ( ) SI_UNIT ( $, .RADIAN. ) );
#159 = ORIENTED_EDGE ( 'NONE', *, *, #97, .F. ) ;
#160 = CARTESIAN_POINT ( 'NONE',  ( 0.000000000000000000, 0.000000000000000000, 0.000000000000000000 ) ) ;
#161 = CARTESIAN_POINT ( 'NONE',  ( 1.530808498934191521E-15, 0.000000000000000000, 12.50000000000000000 ) ) ;
#162 =( GEOMETRIC_REPRESENTATION_CONTEXT ( 3 ) GLOBAL_UNCERTAINTY_ASSIGNED_CONTEXT ( ( #228 ) ) GLOBAL_UNIT_ASSIGNED_CONTEXT ( ( #66, #267, #343 ) ) REPRESENTATION_CONTEXT ( 'NONE', 'WORKASPACE' ) );
#163 = DIRECTION ( 'NONE',  ( -1.895813576284393923E-16, 1.000000000000000000, -0.000000000000000000 ) ) ;
#164 = PRESENTATION_LAYER_ASSIGNMENT (  '', '', ( #270 ) ) ;
#165 = EDGE_CURVE ( 'NONE', #109, #218, #17, .T. ) ;
#166 = MANIFOLD_SOLID_BREP ( 'Revolve - Tool Body (Straight Shanked)', #351 ) ;
#167 = DIRECTION ( 'NONE',  ( 0.000000000000000000, 0.000000000000000000, -1.000000000000000000 ) ) ;
#168 = AXIS2_PLACEMENT_3D ( 'NONE', #67, #175, #6 ) ;
#169 =( NAMED_UNIT ( * ) PLANE_ANGLE_UNIT ( ) SI_UNIT ( $, .RADIAN. ) );
#170 = ORIENTED_EDGE ( 'NONE', *, *, #179, .T. ) ;
#171 = ORIENTED_EDGE ( 'NONE', *, *, #300, .F. ) ;
#172 =( NAMED_UNIT ( * ) SI_UNIT ( $, .STERADIAN. ) SOLID_ANGLE_UNIT ( ) );
#173 = PLANE ( 'NONE',  #168 ) ;
#174 =( NAMED_UNIT ( * ) SI_UNIT ( $, .STERADIAN. ) SOLID_ANGLE_UNIT ( ) );
#175 = DIRECTION ( 'NONE',  ( 1.895813576284393923E-16, -1.000000000000000000, 0.000000000000000000 ) ) ;
#176 = SURFACE_STYLE_USAGE ( .BOTH. , #294 ) ;
#177 = FILL_AREA_STYLE ('',( #31 ) ) ;
#178 = DIRECTION ( 'NONE',  ( -0.000000000000000000, -1.000000000000000000, -0.000000000000000000 ) ) ;
#179 = EDGE_CURVE ( 'NONE', #332, #20, #352, .T. ) ;
#180 = CIRCLE ( 'NONE', #202, 12.50000000000000000 ) ;
#181 = MECHANICAL_DESIGN_GEOMETRIC_PRESENTATION_REPRESENTATION (  '', ( #325 ), #148 ) ;
#182 = DIRECTION ( 'NONE',  ( -1.895813576284393923E-16, 1.000000000000000000, 0.000000000000000000 ) ) ;
#183 = CARTESIAN_POINT ( 'NONE',  ( -4.408728476930471644E-15, 125.0000000000000000, 0.000000000000000000 ) ) ;
#184 = ORIENTED_EDGE ( 'NONE', *, *, #74, .T. ) ;
#185 = SURFACE_STYLE_FILL_AREA ( #68 ) ;
#186 = ORIENTED_EDGE ( 'NONE', *, *, #5, .F. ) ;
#187 = FACE_OUTER_BOUND ( 'NONE', #39, .T. ) ;
#188 = AXIS2_PLACEMENT_3D ( 'NONE', #160, #45, #326 ) ;
#189 = LINE ( 'NONE', #298, #51 ) ;
#190 = CARTESIAN_POINT ( 'NONE',  ( 12.50000000000000000, 125.0000000000000000, 1.530808498934191916E-15 ) ) ;
#191 = AXIS2_PLACEMENT_3D ( 'NONE', #55, #133, #199 ) ;
#192 = FILL_AREA_STYLE_COLOUR ( '', #107 ) ;
#193 = SURFACE_STYLE_USAGE ( .BOTH. , #209 ) ;
#194 = EDGE_CURVE ( 'NONE', #20, #332, #265, .T. ) ;
#195 = CARTESIAN_POINT ( 'NONE',  ( 0.000000000000000000, 1.000000000000000000, 0.000000000000000000 ) ) ;
#196 = CIRCLE ( 'NONE', #333, 12.49999999999999289 ) ;
#197 = CIRCLE ( 'NONE', #41, 12.49999999999999289 ) ;
#198 =( GEOMETRIC_REPRESENTATION_CONTEXT ( 3 ) GLOBAL_UNCERTAINTY_ASSIGNED_CONTEXT ( ( #285 ) ) GLOBAL_UNIT_ASSIGNED_CONTEXT ( ( #32, #281, #27 ) ) REPRESENTATION_CONTEXT ( 'NONE', 'WORKASPACE' ) );
#199 = DIRECTION ( 'NONE',  ( 0.000000000000000000, 0.000000000000000000, -1.000000000000000000 ) ) ;
#200 = ORIENTED_EDGE ( 'NONE', *, *, #30, .T. ) ;
#201 = FILL_AREA_STYLE ('',( #192 ) ) ;
#202 = AXIS2_PLACEMENT_3D ( 'NONE', #10, #178, #239 ) ;
#203 = DIRECTION ( 'NONE',  ( 0.000000000000000000, 0.000000000000000000, 1.000000000000000000 ) ) ;
#204 = PRODUCT ( '59625', '59625', '', ( #293 ) ) ;
#205 = UNCERTAINTY_MEASURE_WITH_UNIT (LENGTH_MEASURE( 1.000000000000000082E-05 ), #235, 'distance_accuracy_value', 'NONE');
#206 = ORIENTED_EDGE ( 'NONE', *, *, #222, .T. ) ;
#207 =( LENGTH_UNIT ( ) NAMED_UNIT ( * ) SI_UNIT ( .MILLI., .METRE. ) );
#208 = VERTEX_POINT ( 'NONE', #349 ) ;
#209 = SURFACE_SIDE_STYLE ('',( #149 ) ) ;
#210 = PLANE ( 'NONE',  #269 ) ;
#211 = STYLED_ITEM ( 'NONE', ( #35 ), #44 ) ;
#212 = STYLED_ITEM ( 'NONE', ( #219 ), #105 ) ;
#213 = FACE_OUTER_BOUND ( 'NONE', #4, .T. ) ;
#214 = ORIENTED_EDGE ( 'NONE', *, *, #165, .F. ) ;
#215 = PRODUCT_RELATED_PRODUCT_CATEGORY ( 'part', '', ( #204 ) ) ;
#216 = SURFACE_STYLE_FILL_AREA ( #230 ) ;
#217 = CARTESIAN_POINT ( 'NONE',  ( 7.155734338404330842E-15, 64.00000000000000000, 0.000000000000000000 ) ) ;
#218 = VERTEX_POINT ( 'NONE', #240 ) ;
#219 = PRESENTATION_STYLE_ASSIGNMENT (( #128 ) ) ;
#220 = CIRCLE ( 'NONE', #59, 12.50000000000000533 ) ;
#221 = PRESENTATION_STYLE_ASSIGNMENT (( #13 ) ) ;
#222 = EDGE_CURVE ( 'NONE', #218, #109, #15, .T. ) ;
#223 =( NAMED_UNIT ( * ) PLANE_ANGLE_UNIT ( ) SI_UNIT ( $, .RADIAN. ) );
#224 = ORIENTED_EDGE ( 'NONE', *, *, #366, .T. ) ;
#225 = VECTOR ( 'NONE', #142, 1000.000000000000000 ) ;
#226 = UNCERTAINTY_MEASURE_WITH_UNIT (LENGTH_MEASURE( 1.000000000000000082E-05 ), #110, 'distance_accuracy_value', 'NONE');
#227 = EDGE_LOOP ( 'NONE', ( #275, #56, #367, #308 ) ) ;
#228 = UNCERTAINTY_MEASURE_WITH_UNIT (LENGTH_MEASURE( 1.000000000000000082E-05 ), #66, 'distance_accuracy_value', 'NONE');
#229 = EDGE_LOOP ( 'NONE', ( #258, #206 ) ) ;
#230 = FILL_AREA_STYLE ('',( #315 ) ) ;
#231 = MECHANICAL_DESIGN_GEOMETRIC_PRESENTATION_REPRESENTATION (  '', ( #270 ), #2 ) ;
#232 = DIRECTION ( 'NONE',  ( -1.895813576284393923E-16, 1.000000000000000000, -0.000000000000000000 ) ) ;
#233 = ORIENTED_EDGE ( 'NONE', *, *, #324, .F. ) ;
#234 = FACE_OUTER_BOUND ( 'NONE', #340, .T. ) ;
#235 =( LENGTH_UNIT ( ) NAMED_UNIT ( * ) SI_UNIT ( .MILLI., .METRE. ) );
#236 =( GEOMETRIC_REPRESENTATION_CONTEXT ( 3 ) GLOBAL_UNCERTAINTY_ASSIGNED_CONTEXT ( ( #147 ) ) GLOBAL_UNIT_ASSIGNED_CONTEXT ( ( #72, #223, #172 ) ) REPRESENTATION_CONTEXT ( 'NONE', 'WORKASPACE' ) );
#237 = SHAPE_DEFINITION_REPRESENTATION ( #309, #354 ) ;
#238 =( LENGTH_UNIT ( ) NAMED_UNIT ( * ) SI_UNIT ( .MILLI., .METRE. ) );
#239 = DIRECTION ( 'NONE',  ( 0.000000000000000000, 0.000000000000000000, -1.000000000000000000 ) ) ;
#240 = CARTESIAN_POINT ( 'NONE',  ( 1.469576158976823947E-15, 0.000000000000000000, 11.50000000000000000 ) ) ;
#241 = SURFACE_STYLE_USAGE ( .BOTH. , #125 ) ;
#242 =( LENGTH_UNIT ( ) NAMED_UNIT ( * ) SI_UNIT ( .MILLI., .METRE. ) );
#243 = MECHANICAL_DESIGN_GEOMETRIC_PRESENTATION_REPRESENTATION (  '', ( #334 ), #236 ) ;
#244 = ADVANCED_FACE ( 'NONE', ( #234 ), #316, .F. ) ;
#245 = FILL_AREA_STYLE_COLOUR ( '', #306 ) ;
#246 = FILL_AREA_STYLE ('',( #303 ) ) ;
#247 = ADVANCED_FACE ( 'NONE', ( #344 ), #173, .F. ) ;
#248 = PRESENTATION_LAYER_ASSIGNMENT (  '', '', ( #212 ) ) ;
#249 = FILL_AREA_STYLE ('',( #276 ) ) ;
#250 =( NAMED_UNIT ( * ) PLANE_ANGLE_UNIT ( ) SI_UNIT ( $, .RADIAN. ) );
#251 = ORIENTED_EDGE ( 'NONE', *, *, #5, .T. ) ;
#252 =( LENGTH_UNIT ( ) NAMED_UNIT ( * ) SI_UNIT ( .MILLI., .METRE. ) );
#253 = CYLINDRICAL_SURFACE ( 'NONE', #260, 12.50000000000000000 ) ;
#254 = SURFACE_SIDE_STYLE ('',( #143 ) ) ;
#255 = CARTESIAN_POINT ( 'NONE',  ( 0.000000000000000000, 0.000000000000000000, 0.000000000000000000 ) ) ;
#256 = VERTEX_POINT ( 'NONE', #60 ) ;
#257 = APPLICATION_PROTOCOL_DEFINITION ( 'draft international standard', 'automotive_design', 1998, #129 ) ;
#258 = ORIENTED_EDGE ( 'NONE', *, *, #165, .T. ) ;
#259 = COLOUR_RGB ( '',1.000000000000000000, 0.000000000000000000, 0.000000000000000000 ) ;
#260 = AXIS2_PLACEMENT_3D ( 'NONE', #89, #121, #86 ) ;
#261 = CARTESIAN_POINT ( 'NONE',  ( 7.155734338404330842E-15, 64.00000000000000000, 0.000000000000000000 ) ) ;
#262 =( NAMED_UNIT ( * ) SI_UNIT ( $, .STERADIAN. ) SOLID_ANGLE_UNIT ( ) );
#263 = PRESENTATION_STYLE_ASSIGNMENT (( #176 ) ) ;
#264 = PRODUCT_DEFINITION ( 'UNKNOWN', '', #120, #3 ) ;
#265 = CIRCLE ( 'NONE', #353, 12.50000000000000000 ) ;
#266 = DIRECTION ( 'NONE',  ( -0.000000000000000000, -1.000000000000000000, -0.000000000000000000 ) ) ;
#267 =( NAMED_UNIT ( * ) PLANE_ANGLE_UNIT ( ) SI_UNIT ( $, .RADIAN. ) );
#268 = CARTESIAN_POINT ( 'NONE',  ( 1.408343819019456176E-15, 1.000000000000000000, 11.50000000000000000 ) ) ;
#269 = AXIS2_PLACEMENT_3D ( 'NONE', #83, #139, #88 ) ;
#270 = STYLED_ITEM ( 'NONE', ( #117 ), #304 ) ;
#271 = CARTESIAN_POINT ( 'NONE',  ( 0.000000000000000000, 0.000000000000000000, -11.50000000000000000 ) ) ;
#272 = STYLED_ITEM ( 'NONE', ( #263 ), #85 ) ;
#273 = CARTESIAN_POINT ( 'NONE',  ( 0.000000000000000000, 1.000000000000000000, 0.000000000000000000 ) ) ;
#274 = CARTESIAN_POINT ( 'NONE',  ( 0.000000000000000000, 0.000000000000000000, 0.000000000000000000 ) ) ;
#275 = ORIENTED_EDGE ( 'NONE', *, *, #366, .F. ) ;
#276 = FILL_AREA_STYLE_COLOUR ( '', #87 ) ;
#277 = ORIENTED_EDGE ( 'NONE', *, *, #194, .T. ) ;
#278 = DIRECTION ( 'NONE',  ( -0.000000000000000000, -1.000000000000000000, -0.000000000000000000 ) ) ;
#279 = PRESENTATION_LAYER_ASSIGNMENT (  '', '', ( #78 ) ) ;
#280 = AXIS2_PLACEMENT_3D ( 'NONE', #111, #305, #167 ) ;
#281 =( NAMED_UNIT ( * ) PLANE_ANGLE_UNIT ( ) SI_UNIT ( $, .RADIAN. ) );
#282 = EDGE_LOOP ( 'NONE', ( #277, #81, #214, #233 ) ) ;
#283 = CARTESIAN_POINT ( 'NONE',  ( 1.530808498934191521E-15, 1.000000000000000000, 12.50000000000000000 ) ) ;
#284 =( NAMED_UNIT ( * ) PLANE_ANGLE_UNIT ( ) SI_UNIT ( $, .RADIAN. ) );
#285 = UNCERTAINTY_MEASURE_WITH_UNIT (LENGTH_MEASURE( 1.000000000000000082E-05 ), #32, 'distance_accuracy_value', 'NONE');
#286 = AXIS2_PLACEMENT_3D ( 'NONE', #370, #151, #153 ) ;
#287 = PRESENTATION_LAYER_ASSIGNMENT (  '', '', ( #211 ) ) ;
#288 = DIRECTION ( 'NONE',  ( -1.000000000000000000, 0.000000000000000000, 0.000000000000000000 ) ) ;
#289 =( GEOMETRIC_REPRESENTATION_CONTEXT ( 3 ) GLOBAL_UNCERTAINTY_ASSIGNED_CONTEXT ( ( #19 ) ) GLOBAL_UNIT_ASSIGNED_CONTEXT ( ( #252, #169, #310 ) ) REPRESENTATION_CONTEXT ( 'NONE', 'WORKASPACE' ) );
#290 =( NAMED_UNIT ( * ) PLANE_ANGLE_UNIT ( ) SI_UNIT ( $, .RADIAN. ) );
#291 = ORIENTED_EDGE ( 'NONE', *, *, #49, .F. ) ;
#292 = EDGE_CURVE ( 'NONE', #208, #256, #197, .T. ) ;
#293 = PRODUCT_CONTEXT ( 'NONE', #129, 'mechanical' ) ;
#294 = SURFACE_SIDE_STYLE ('',( #185 ) ) ;
#295 = VERTEX_POINT ( 'NONE', #341 ) ;
#296 =( GEOMETRIC_REPRESENTATION_CONTEXT ( 3 ) GLOBAL_UNCERTAINTY_ASSIGNED_CONTEXT ( ( #339 ) ) GLOBAL_UNIT_ASSIGNED_CONTEXT ( ( #238, #284, #100 ) ) REPRESENTATION_CONTEXT ( 'NONE', 'WORKASPACE' ) );
#297 = MECHANICAL_DESIGN_GEOMETRIC_PRESENTATION_REPRESENTATION (  '', ( #313 ), #289 ) ;
#298 = CARTESIAN_POINT ( 'NONE',  ( -12.50000000000000533, 124.9999999999999858, 0.000000000000000000 ) ) ;
#299 = ORIENTED_EDGE ( 'NONE', *, *, #194, .F. ) ;
#300 = EDGE_CURVE ( 'NONE', #295, #20, #64, .T. ) ;
#301 = VECTOR ( 'NONE', #232, 1000.000000000000000 ) ;
#302 = PRESENTATION_LAYER_ASSIGNMENT (  '', '', ( #334 ) ) ;
#303 = FILL_AREA_STYLE_COLOUR ( '', #123 ) ;
#304 = MANIFOLD_SOLID_BREP ( 'Revolve - Cutting Edge', #21 ) ;
#305 = DIRECTION ( 'NONE',  ( -0.000000000000000000, -1.000000000000000000, -0.000000000000000000 ) ) ;
#306 = COLOUR_RGB ( '',1.000000000000000000, 0.000000000000000000, 0.000000000000000000 ) ;
#307 = ORIENTED_EDGE ( 'NONE', *, *, #38, .T. ) ;
#308 = ORIENTED_EDGE ( 'NONE', *, *, #74, .F. ) ;
#309 = PRODUCT_DEFINITION_SHAPE ( 'NONE', 'NONE',  #264 ) ;
#310 =( NAMED_UNIT ( * ) SI_UNIT ( $, .STERADIAN. ) SOLID_ANGLE_UNIT ( ) );
#311 = ORIENTED_EDGE ( 'NONE', *, *, #179, .F. ) ;
#312 = PRESENTATION_LAYER_ASSIGNMENT (  '', '', ( #272 ) ) ;
#313 = STYLED_ITEM ( 'NONE', ( #58 ), #130 ) ;
#314 = ORIENTED_EDGE ( 'NONE', *, *, #157, .F. ) ;
#315 = FILL_AREA_STYLE_COLOUR ( '', #65 ) ;
#316 = PLANE ( 'NONE',  #346 ) ;
#317 = VECTOR ( 'NONE', #50, 1000.000000000000000 ) ;
#318 =( GEOMETRIC_REPRESENTATION_CONTEXT ( 3 ) GLOBAL_UNCERTAINTY_ASSIGNED_CONTEXT ( ( #365 ) ) GLOBAL_UNIT_ASSIGNED_CONTEXT ( ( #242, #158, #355 ) ) REPRESENTATION_CONTEXT ( 'NONE', 'WORKASPACE' ) );
#319 = ADVANCED_FACE ( 'NONE', ( #8 ), #253, .T. ) ;
#320 = APPLICATION_PROTOCOL_DEFINITION ( 'draft international standard', 'automotive_design', 1998, #54 ) ;
#321 = DIRECTION ( 'NONE',  ( -1.000000000000000000, 0.000000000000000000, 0.000000000000000000 ) ) ;
#322 = CARTESIAN_POINT ( 'NONE',  ( 1.530808498934191521E-15, 64.00000000000000000, 12.50000000000000000 ) ) ;
#323 = DIRECTION ( 'NONE',  ( -1.895813576284393923E-16, 1.000000000000000000, -0.000000000000000000 ) ) ;
#324 = EDGE_CURVE ( 'NONE', #20, #109, #52, .T. ) ;
#325 = STYLED_ITEM ( 'NONE', ( #138 ), #166 ) ;
#326 = DIRECTION ( 'NONE',  ( 0.000000000000000000, 0.000000000000000000, -1.000000000000000000 ) ) ;
#327 = CARTESIAN_POINT ( 'NONE',  ( 0.000000000000000000, 0.000000000000000000, 0.000000000000000000 ) ) ;
#328 = AXIS2_PLACEMENT_3D ( 'NONE', #348, #94, #288 ) ;
#329 = MECHANICAL_DESIGN_GEOMETRIC_PRESENTATION_REPRESENTATION (  '', ( #212 ), #318 ) ;
#330 = DIRECTION ( 'NONE',  ( 0.000000000000000000, 0.000000000000000000, -1.000000000000000000 ) ) ;
#331 = DIRECTION ( 'NONE',  ( -0.000000000000000000, -1.000000000000000000, -0.000000000000000000 ) ) ;
#332 = VERTEX_POINT ( 'NONE', #283 ) ;
#333 = AXIS2_PLACEMENT_3D ( 'NONE', #217, #323, #71 ) ;
#334 = STYLED_ITEM ( 'NONE', ( #221 ), #118 ) ;
#335 = CARTESIAN_POINT ( 'NONE',  ( 0.000000000000000000, 64.00000000000000000, 0.000000000000000000 ) ) ;
#336 = VERTEX_POINT ( 'NONE', #29 ) ;
#337 = DIRECTION ( 'NONE',  ( -1.000000000000000000, -1.895813576284393923E-16, 0.000000000000000000 ) ) ;
#338 = AXIS2_PLACEMENT_3D ( 'NONE', #335, #23, #75 ) ;
#339 = UNCERTAINTY_MEASURE_WITH_UNIT (LENGTH_MEASURE( 1.000000000000000082E-05 ), #238, 'distance_accuracy_value', 'NONE');
#340 = EDGE_LOOP ( 'NONE', ( #141, #79 ) ) ;
#341 = CARTESIAN_POINT ( 'NONE',  ( 0.000000000000000000, 64.00000000000000000, -12.50000000000000000 ) ) ;
#342 =( NAMED_UNIT ( * ) PLANE_ANGLE_UNIT ( ) SI_UNIT ( $, .RADIAN. ) );
#343 =( NAMED_UNIT ( * ) SI_UNIT ( $, .STERADIAN. ) SOLID_ANGLE_UNIT ( ) );
#344 = FACE_OUTER_BOUND ( 'NONE', #69, .T. ) ;
#345 = DIRECTION ( 'NONE',  ( -1.895813576284393923E-16, 1.000000000000000000, -0.000000000000000000 ) ) ;
#346 = AXIS2_PLACEMENT_3D ( 'NONE', #26, #182, #337 ) ;
#347 = DIRECTION ( 'NONE',  ( -1.000000000000000000, 0.000000000000000000, 0.000000000000000000 ) ) ;
#348 = CARTESIAN_POINT ( 'NONE',  ( -4.408728476930471644E-15, 125.0000000000000000, 0.000000000000000000 ) ) ;
#349 = CARTESIAN_POINT ( 'NONE',  ( 12.50000000000000000, 64.00000000000000000, 1.530808498934191916E-15 ) ) ;
#350 = DIRECTION ( 'NONE',  ( 0.000000000000000000, 0.000000000000000000, -1.000000000000000000 ) ) ;
#351 = CLOSED_SHELL ( 'NONE', ( #70, #244, #319, #247 ) ) ;
#352 = CIRCLE ( 'NONE', #280, 12.50000000000000000 ) ;
#353 = AXIS2_PLACEMENT_3D ( 'NONE', #273, #331, #77 ) ;
#354 = ADVANCED_BREP_SHAPE_REPRESENTATION ( '59625', ( #304, #166, #286 ), #198 ) ;
#355 =( NAMED_UNIT ( * ) SI_UNIT ( $, .STERADIAN. ) SOLID_ANGLE_UNIT ( ) );
#356 = ADVANCED_FACE ( 'NONE', ( #144 ), #210, .T. ) ;
#357 = CARTESIAN_POINT ( 'NONE',  ( 0.000000000000000000, 1.000000000000000000, 0.000000000000000000 ) ) ;
#358 = MECHANICAL_DESIGN_GEOMETRIC_PRESENTATION_REPRESENTATION (  '', ( #272 ), #296 ) ;
#359 = DIRECTION ( 'NONE',  ( -0.000000000000000000, -1.000000000000000000, -0.000000000000000000 ) ) ;
#360 = SURFACE_STYLE_FILL_AREA ( #249 ) ;
#361 = AXIS2_PLACEMENT_3D ( 'NONE', #327, #102, #330 ) ;
#362 = DIRECTION ( 'NONE',  ( 0.000000000000000000, 0.000000000000000000, -1.000000000000000000 ) ) ;
#363 = AXIS2_PLACEMENT_3D ( 'NONE', #62, #369, #203 ) ;
#364 = FACE_OUTER_BOUND ( 'NONE', #136, .T. ) ;
#365 = UNCERTAINTY_MEASURE_WITH_UNIT (LENGTH_MEASURE( 1.000000000000000082E-05 ), #242, 'distance_accuracy_value', 'NONE');
#366 = EDGE_CURVE ( 'NONE', #208, #119, #115, .T. ) ;
#367 = ORIENTED_EDGE ( 'NONE', *, *, #97, .T. ) ;
#368 = SURFACE_STYLE_USAGE ( .BOTH. , #114 ) ;
#369 = DIRECTION ( 'NONE',  ( -1.000000000000000000, 0.000000000000000000, 0.000000000000000000 ) ) ;
#370 = CARTESIAN_POINT ( 'NONE',  ( 0.000000000000000000, 0.000000000000000000, 0.000000000000000000 ) ) ;
ENDSEC;
END-ISO-10303-21;
