ISO-10303-21;
HEADER;
FILE_DESCRIPTION (( 'STEP AP214' ),
    '1' );
FILE_NAME ('Micro_MMBM-004-8X.STEP',
    '2021-09-03T16:22:24',
    ( '' ),
    ( '' ),
    'SwSTEP 2.0',
    'SolidWorks 2020',
    '' );
FILE_SCHEMA (( 'AUTOMOTIVE_DESIGN' ));
ENDSEC;

DATA;
#1 = ADVANCED_FACE ( 'NONE', ( #218 ), #145, .T. ) ;
#2 = ORIENTED_EDGE ( 'NONE', *, *, #301, .F. ) ;
#3 = CARTESIAN_POINT ( 'NONE',  ( -0.06374000000000018540, 0.0000000000000000000, 1.968503999999999809 ) ) ;
#4 = CIRCLE ( 'NONE', #278, 0.007480500000000001905 ) ;
#5 = CARTESIAN_POINT ( 'NONE',  ( 0.007873212599999998562, 9.641904609596609667E-19, 0.01574800000000000158 ) ) ;
#6 = ORIENTED_EDGE ( 'NONE', *, *, #142, .T. ) ;
#7 = ORIENTED_EDGE ( 'NONE', *, *, #350, .F. ) ;
#8 = ORIENTED_EDGE ( 'NONE', *, *, #295, .F. ) ;
#9 = CIRCLE ( 'NONE', #221, 0.06374000000000018540 ) ;
#10 = AXIS2_PLACEMENT_3D ( 'NONE', #144, #61, #228 ) ;
#11 = DIRECTION ( 'NONE',  ( 0.0000000000000000000, 0.0000000000000000000, -1.000000000000000000 ) ) ;
#12 = VERTEX_POINT ( 'NONE', #277 ) ;
#13 = APPLICATION_CONTEXT ( 'automotive_design' ) ;
#14 = DIRECTION ( 'NONE',  ( -0.0000000000000000000, -0.0000000000000000000, -1.000000000000000000 ) ) ;
#15 = EDGE_LOOP ( 'NONE', ( #245, #130 ) ) ;
#16 = MANIFOLD_SOLID_BREP ( 'Cut-Revolve1', #325 ) ;
#17 = PRESENTATION_STYLE_ASSIGNMENT (( #307 ) ) ;
#18 = VECTOR ( 'NONE', #378, 39.37007874015748143 ) ;
#19 = FACE_OUTER_BOUND ( 'NONE', #72, .T. ) ;
#20 = PRODUCT ( 'Micro_MMBM-004-8X', 'Micro_MMBM-004-8X', '', ( #249 ) ) ;
#21 = DIRECTION ( 'NONE',  ( 0.0000000000000000000, 0.0000000000000000000, 1.000000000000000000 ) ) ;
#22 = CARTESIAN_POINT ( 'NONE',  ( 0.0000000000000000000, 0.0000000000000000000, 0.01574800000000000158 ) ) ;
#23 = DIMENSIONAL_EXPONENTS ( 1.000000000000000000, 0.0000000000000000000, 0.0000000000000000000, 0.0000000000000000000, 0.0000000000000000000, 0.0000000000000000000, 0.0000000000000000000 ) ;
#24 = DIRECTION ( 'NONE',  ( -0.0000000000000000000, -0.0000000000000000000, -1.000000000000000000 ) ) ;
#25 = CIRCLE ( 'NONE', #77, 0.007480500000000038334 ) ;
#26 = FILL_AREA_STYLE ('',( #367 ) ) ;
#27 = DIRECTION ( 'NONE',  ( -1.000000000000000000, 0.0000000000000000000, 0.0000000000000000000 ) ) ;
#28 = DIRECTION ( 'NONE',  ( -1.000000000000000000, 0.0000000000000000000, 0.0000000000000000000 ) ) ;
#29 = CARTESIAN_POINT ( 'NONE',  ( -0.007480500000000038334, 0.0000000000000000000, 0.3149609999999999910 ) ) ;
#30 = LINE ( 'NONE', #321, #356 ) ;
#31 = AXIS2_PLACEMENT_3D ( 'NONE', #179, #11, #294 ) ;
#32 = CARTESIAN_POINT ( 'NONE',  ( -0.07874000000000001831, 0.0000000000000000000, 1.953504000000000129 ) ) ;
#33 = LINE ( 'NONE', #263, #332 ) ;
#34 = CARTESIAN_POINT ( 'NONE',  ( -0.06374000000000018540, 0.0000000000000000000, 1.968503999999999809 ) ) ;
#35 = VERTEX_POINT ( 'NONE', #312 ) ;
#36 = AXIS2_PLACEMENT_3D ( 'NONE', #143, #374, #287 ) ;
#37 =( LENGTH_UNIT ( ) NAMED_UNIT ( * ) SI_UNIT ( $, .METRE. ) );
#38 = EDGE_LOOP ( 'NONE', ( #296, #243, #74, #333 ) ) ;
#39 = ADVANCED_FACE ( 'NONE', ( #250 ), #84, .T. ) ;
#40 = DIRECTION ( 'NONE',  ( -1.000000000000000000, 0.0000000000000000000, 0.0000000000000000000 ) ) ;
#41 = EDGE_LOOP ( 'NONE', ( #8, #330, #186, #184 ) ) ;
#42 = ORIENTED_EDGE ( 'NONE', *, *, #317, .F. ) ;
#43 = CIRCLE ( 'NONE', #36, 0.007873212599999998562 ) ;
#44 = CARTESIAN_POINT ( 'NONE',  ( -0.007480500000000001905, 0.0000000000000000000, 0.01797518382871478304 ) ) ;
#45 = ORIENTED_EDGE ( 'NONE', *, *, #251, .T. ) ;
#46 = DIRECTION ( 'NONE',  ( -0.0000000000000000000, -0.0000000000000000000, -1.000000000000000000 ) ) ;
#47 = CARTESIAN_POINT ( 'NONE',  ( 0.0000000000000000000, 0.0000000000000000000, 0.0000000000000000000 ) ) ;
#48 = SURFACE_SIDE_STYLE ('',( #255 ) ) ;
#49 = CIRCLE ( 'NONE', #258, 0.07874000000000001831 ) ;
#50 = AXIS2_PLACEMENT_3D ( 'NONE', #161, #358, #237 ) ;
#51 =( LENGTH_UNIT ( ) NAMED_UNIT ( * ) SI_UNIT ( $, .METRE. ) );
#52 = DIMENSIONAL_EXPONENTS ( 1.000000000000000000, 0.0000000000000000000, 0.0000000000000000000, 0.0000000000000000000, 0.0000000000000000000, 0.0000000000000000000, 0.0000000000000000000 ) ;
#53 = CARTESIAN_POINT ( 'NONE',  ( 0.07874000000000001831, 9.642868896486260050E-18, 1.953504000000000129 ) ) ;
#54 =( NAMED_UNIT ( * ) PLANE_ANGLE_UNIT ( ) SI_UNIT ( $, .RADIAN. ) );
#55 = CIRCLE ( 'NONE', #105, 0.007480500000000001905 ) ;
#56 = DIRECTION ( 'NONE',  ( -1.000000000000000000, 0.0000000000000000000, 0.0000000000000000000 ) ) ;
#57 = CYLINDRICAL_SURFACE ( 'NONE', #92, 0.07874000000000001831 ) ;
#58 = FACE_OUTER_BOUND ( 'NONE', #270, .T. ) ;
#59 = EDGE_CURVE ( 'NONE', #274, #35, #4, .T. ) ;
#60 = CIRCLE ( 'NONE', #349, 0.06374000000000018540 ) ;
#61 = DIRECTION ( 'NONE',  ( 0.0000000000000000000, 0.0000000000000000000, 1.000000000000000000 ) ) ;
#62 = CIRCLE ( 'NONE', #259, 0.007480500000000038334 ) ;
#63 = CARTESIAN_POINT ( 'NONE',  ( 0.0000000000000000000, 0.0000000000000000000, 1.968503999999999809 ) ) ;
#64 = CARTESIAN_POINT ( 'NONE',  ( 0.0000000000000000000, 0.0000000000000000000, 0.0000000000000000000 ) ) ;
#65 = EDGE_CURVE ( 'NONE', #97, #134, #9, .T. ) ;
#66 = LINE ( 'NONE', #5, #279 ) ;
#67 =( GEOMETRIC_REPRESENTATION_CONTEXT ( 3 ) GLOBAL_UNCERTAINTY_ASSIGNED_CONTEXT ( ( #70 ) ) GLOBAL_UNIT_ASSIGNED_CONTEXT ( ( #86, #169, #80 ) ) REPRESENTATION_CONTEXT ( 'NONE', 'WORKASPACE' ) );
#68 = ORIENTED_EDGE ( 'NONE', *, *, #230, .T. ) ;
#69 = VECTOR ( 'NONE', #242, 39.37007874015748143 ) ;
#70 = UNCERTAINTY_MEASURE_WITH_UNIT (LENGTH_MEASURE( 1.000000000000000082E-05 ), #86, 'distance_accuracy_value', 'NONE');
#71 = CARTESIAN_POINT ( 'NONE',  ( 0.0000000000000000000, 0.0000000000000000000, 0.01797518382871478304 ) ) ;
#72 = EDGE_LOOP ( 'NONE', ( #100, #208, #299, #276 ) ) ;
#73 = DIRECTION ( 'NONE',  ( 0.0000000000000000000, 0.0000000000000000000, 1.000000000000000000 ) ) ;
#74 = ORIENTED_EDGE ( 'NONE', *, *, #108, .F. ) ;
#75 =( NAMED_UNIT ( * ) SI_UNIT ( $, .STERADIAN. ) SOLID_ANGLE_UNIT ( ) );
#76 = VERTEX_POINT ( 'NONE', #81 ) ;
#77 = AXIS2_PLACEMENT_3D ( 'NONE', #171, #121, #347 ) ;
#78 = ORIENTED_EDGE ( 'NONE', *, *, #339, .F. ) ;
#79 = UNCERTAINTY_MEASURE_WITH_UNIT (LENGTH_MEASURE( 1.000000000000000082E-05 ), #125, 'distance_accuracy_value', 'NONE');
#80 =( NAMED_UNIT ( * ) SI_UNIT ( $, .STERADIAN. ) SOLID_ANGLE_UNIT ( ) );
#81 = CARTESIAN_POINT ( 'NONE',  ( -0.007873212599999998562, 0.0000000000000000000, 0.0000000000000000000 ) ) ;
#82 = AXIS2_PLACEMENT_3D ( 'NONE', #265, #131, #96 ) ;
#83 = DIRECTION ( 'NONE',  ( -0.0000000000000000000, -0.0000000000000000000, -1.000000000000000000 ) ) ;
#84 = CYLINDRICAL_SURFACE ( 'NONE', #174, 0.007480500000000020119 ) ;
#85 = ADVANCED_FACE ( 'NONE', ( #19 ), #326, .T. ) ;
#86 =( CONVERSION_BASED_UNIT ( 'INCH', #370 ) LENGTH_UNIT ( ) NAMED_UNIT ( #283 ) );
#87 = CARTESIAN_POINT ( 'NONE',  ( 0.0000000000000000000, 0.0000000000000000000, 0.3149610000000000465 ) ) ;
#88 = CARTESIAN_POINT ( 'NONE',  ( 0.0000000000000000000, 0.0000000000000000000, 1.968503999999999809 ) ) ;
#89 = PRODUCT_RELATED_PRODUCT_CATEGORY ( 'part', '', ( #20 ) ) ;
#90 = DIRECTION ( 'NONE',  ( -0.0000000000000000000, -0.0000000000000000000, -1.000000000000000000 ) ) ;
#91 = DIRECTION ( 'NONE',  ( -0.0000000000000000000, -0.0000000000000000000, -1.000000000000000000 ) ) ;
#92 = AXIS2_PLACEMENT_3D ( 'NONE', #344, #286, #28 ) ;
#93 = LINE ( 'NONE', #210, #222 ) ;
#94 = CARTESIAN_POINT ( 'NONE',  ( 0.007480500000000038334, 9.160970381021822142E-19, 0.3149609999999999910 ) ) ;
#95 = ORIENTED_EDGE ( 'NONE', *, *, #223, .T. ) ;
#96 = DIRECTION ( 'NONE',  ( 1.000000000000000000, 0.0000000000000000000, 0.0000000000000000000 ) ) ;
#97 = VERTEX_POINT ( 'NONE', #281 ) ;
#98 = AXIS2_PLACEMENT_3D ( 'NONE', #87, #233, #118 ) ;
#99 = LINE ( 'NONE', #244, #69 ) ;
#100 = ORIENTED_EDGE ( 'NONE', *, *, #59, .T. ) ;
#101 = EDGE_CURVE ( 'NONE', #162, #274, #136, .T. ) ;
#102 = DIRECTION ( 'NONE',  ( 0.1736481776669308030, 2.126576849575777153E-17, -0.9848077530122077983 ) ) ;
#103 = ORIENTED_EDGE ( 'NONE', *, *, #142, .F. ) ;
#104 = VERTEX_POINT ( 'NONE', #53 ) ;
#105 = AXIS2_PLACEMENT_3D ( 'NONE', #71, #156, #360 ) ;
#106 = PRESENTATION_STYLE_ASSIGNMENT (( #137 ) ) ;
#107 = FILL_AREA_STYLE ('',( #342 ) ) ;
#108 = EDGE_CURVE ( 'NONE', #211, #355, #49, .T. ) ;
#109 = PRODUCT_DEFINITION_SHAPE ( 'NONE', 'NONE',  #219 ) ;
#110 =( NAMED_UNIT ( * ) SI_UNIT ( $, .STERADIAN. ) SOLID_ANGLE_UNIT ( ) );
#111 = PRESENTATION_LAYER_ASSIGNMENT (  '', '', ( #187 ) ) ;
#112 = LENGTH_MEASURE_WITH_UNIT ( LENGTH_MEASURE( 0.02539999999999999897 ), #284 );
#113 = ADVANCED_FACE ( 'NONE', ( #253 ), #341, .T. ) ;
#114 = ORIENTED_EDGE ( 'NONE', *, *, #135, .F. ) ;
#115 = CARTESIAN_POINT ( 'NONE',  ( 0.007480500000000020119, 9.160970381021800957E-19, 0.0000000000000000000 ) ) ;
#116 = AXIS2_PLACEMENT_3D ( 'NONE', #64, #73, #328 ) ;
#117 = CYLINDRICAL_SURFACE ( 'NONE', #320, 0.007873212599999998562 ) ;
#118 = DIRECTION ( 'NONE',  ( -1.000000000000000000, 0.0000000000000000000, 0.0000000000000000000 ) ) ;
#119 = PLANE ( 'NONE',  #10 ) ;
#120 = CIRCLE ( 'NONE', #98, 0.07874000000000001831 ) ;
#121 = DIRECTION ( 'NONE',  ( -0.0000000000000000000, -0.0000000000000000000, -1.000000000000000000 ) ) ;
#122 = EDGE_CURVE ( 'NONE', #154, #211, #30, .T. ) ;
#123 = PLANE ( 'NONE',  #345 ) ;
#124 = EDGE_LOOP ( 'NONE', ( #183, #6, #324, #241 ) ) ;
#125 =( CONVERSION_BASED_UNIT ( 'INCH', #212 ) LENGTH_UNIT ( ) NAMED_UNIT ( #52 ) );
#126 = EDGE_LOOP ( 'NONE', ( #68, #302, #2, #78 ) ) ;
#127 = FACE_BOUND ( 'NONE', #215, .T. ) ;
#128 = ADVANCED_FACE ( 'NONE', ( #201 ), #200, .T. ) ;
#129 = COLOUR_RGB ( '',0.7921568627450980005, 0.8196078431372548767, 0.9333333333333333481 ) ;
#130 = ORIENTED_EDGE ( 'NONE', *, *, #176, .T. ) ;
#131 = DIRECTION ( 'NONE',  ( 0.0000000000000000000, 0.0000000000000000000, -1.000000000000000000 ) ) ;
#132 = ORIENTED_EDGE ( 'NONE', *, *, #135, .T. ) ;
#133 = DIRECTION ( 'NONE',  ( -1.000000000000000000, 0.0000000000000000000, 0.0000000000000000000 ) ) ;
#134 = VERTEX_POINT ( 'NONE', #3 ) ;
#135 = EDGE_CURVE ( 'NONE', #134, #97, #60, .T. ) ;
#136 = LINE ( 'NONE', #252, #368 ) ;
#137 = SURFACE_STYLE_USAGE ( .BOTH. , #168 ) ;
#138 = DIRECTION ( 'NONE',  ( -1.000000000000000000, 0.0000000000000000000, 0.0000000000000000000 ) ) ;
#139 = AXIS2_PLACEMENT_3D ( 'NONE', #234, #14, #133 ) ;
#140 = DIRECTION ( 'NONE',  ( 1.000000000000000000, 0.0000000000000000000, 0.0000000000000000000 ) ) ;
#141 = DIRECTION ( 'NONE',  ( -1.000000000000000000, 0.0000000000000000000, 0.0000000000000000000 ) ) ;
#142 = EDGE_CURVE ( 'NONE', #285, #162, #25, .T. ) ;
#143 = CARTESIAN_POINT ( 'NONE',  ( 0.0000000000000000000, 0.0000000000000000000, 0.01574800000000000158 ) ) ;
#144 = CARTESIAN_POINT ( 'NONE',  ( 0.0000000000000000000, 0.0000000000000000000, 1.968503999999999809 ) ) ;
#145 = CONICAL_SURFACE ( 'NONE', #204, 0.007873212599999998562, 0.1745329251994334474 ) ;
#146 = AXIS2_PLACEMENT_3D ( 'NONE', #63, #199, #318 ) ;
#147 = FACE_OUTER_BOUND ( 'NONE', #126, .T. ) ;
#148 = CARTESIAN_POINT ( 'NONE',  ( 0.0000000000000000000, 0.0000000000000000000, 0.0000000000000000000 ) ) ;
#149 = DIRECTION ( 'NONE',  ( 1.000000000000000000, 0.0000000000000000000, 0.0000000000000000000 ) ) ;
#150 = PRESENTATION_LAYER_ASSIGNMENT (  '', '', ( #239 ) ) ;
#151 = CARTESIAN_POINT ( 'NONE',  ( 0.007480500000000038334, 0.0000000000000000000, 0.3149609999999999910 ) ) ;
#152 = ORIENTED_EDGE ( 'NONE', *, *, #192, .T. ) ;
#153 = PLANE ( 'NONE',  #116 ) ;
#154 = VERTEX_POINT ( 'NONE', #32 ) ;
#155 = PRODUCT_DEFINITION_CONTEXT ( 'detailed design', #13, 'design' ) ;
#156 = DIRECTION ( 'NONE',  ( -0.0000000000000000000, -0.0000000000000000000, -1.000000000000000000 ) ) ;
#157 = VERTEX_POINT ( 'NONE', #173 ) ;
#158 = LINE ( 'NONE', #34, #248 ) ;
#159 = MECHANICAL_DESIGN_GEOMETRIC_PRESENTATION_REPRESENTATION (  '', ( #239 ), #67 ) ;
#160 = CIRCLE ( 'NONE', #82, 0.07874000000000001831 ) ;
#161 = CARTESIAN_POINT ( 'NONE',  ( 0.0000000000000000000, 0.0000000000000000000, 0.01574800000000000158 ) ) ;
#162 = VERTEX_POINT ( 'NONE', #29 ) ;
#163 = DIRECTION ( 'NONE',  ( -0.0000000000000000000, -0.0000000000000000000, -1.000000000000000000 ) ) ;
#164 = APPLICATION_PROTOCOL_DEFINITION ( 'draft international standard', 'automotive_design', 1998, #13 ) ;
#165 = VECTOR ( 'NONE', #91, 39.37007874015748143 ) ;
#166 = DIRECTION ( 'NONE',  ( -1.000000000000000000, 0.0000000000000000000, 0.0000000000000000000 ) ) ;
#167 = EDGE_CURVE ( 'NONE', #274, #157, #33, .T. ) ;
#168 = SURFACE_SIDE_STYLE ('',( #189 ) ) ;
#169 =( NAMED_UNIT ( * ) PLANE_ANGLE_UNIT ( ) SI_UNIT ( $, .RADIAN. ) );
#170 = FACE_OUTER_BOUND ( 'NONE', #238, .T. ) ;
#171 = CARTESIAN_POINT ( 'NONE',  ( 0.0000000000000000000, 0.0000000000000000000, 0.3149609999999999910 ) ) ;
#172 = ADVANCED_FACE ( 'NONE', ( #226 ), #216, .T. ) ;
#173 = CARTESIAN_POINT ( 'NONE',  ( -0.007873212599999998562, 0.0000000000000000000, 0.01574800000000000158 ) ) ;
#174 = AXIS2_PLACEMENT_3D ( 'NONE', #220, #217, #372 ) ;
#175 = DIRECTION ( 'NONE',  ( -0.0000000000000000000, -0.0000000000000000000, -1.000000000000000000 ) ) ;
#176 = EDGE_CURVE ( 'NONE', #355, #211, #120, .T. ) ;
#177 = CARTESIAN_POINT ( 'NONE',  ( 0.0000000000000000000, 0.0000000000000000000, 0.0000000000000000000 ) ) ;
#178 = DIRECTION ( 'NONE',  ( -1.000000000000000000, 0.0000000000000000000, 0.0000000000000000000 ) ) ;
#179 = CARTESIAN_POINT ( 'NONE',  ( 0.0000000000000000000, 0.0000000000000000000, 1.953504000000000129 ) ) ;
#180 = VECTOR ( 'NONE', #323, 39.37007874015748143 ) ;
#181 = ORIENTED_EDGE ( 'NONE', *, *, #209, .T. ) ;
#182 = DIRECTION ( 'NONE',  ( -0.7071067811865507924, 0.0000000000000000000, -0.7071067811865443531 ) ) ;
#183 = ORIENTED_EDGE ( 'NONE', *, *, #223, .F. ) ;
#184 = ORIENTED_EDGE ( 'NONE', *, *, #209, .F. ) ;
#185 = LINE ( 'NONE', #275, #180 ) ;
#186 = ORIENTED_EDGE ( 'NONE', *, *, #339, .T. ) ;
#187 = STYLED_ITEM ( 'NONE', ( #106 ), #343 ) ;
#188 = ORIENTED_EDGE ( 'NONE', *, *, #334, .T. ) ;
#189 = SURFACE_STYLE_FILL_AREA ( #26 ) ;
#190 = DIRECTION ( 'NONE',  ( -1.000000000000000000, 0.0000000000000000000, 0.0000000000000000000 ) ) ;
#191 = CARTESIAN_POINT ( 'NONE',  ( 0.0000000000000000000, 0.0000000000000000000, 0.01574800000000000158 ) ) ;
#192 = EDGE_CURVE ( 'NONE', #97, #104, #315, .T. ) ;
#193 = ORIENTED_EDGE ( 'NONE', *, *, #289, .F. ) ;
#194 = APPLICATION_PROTOCOL_DEFINITION ( 'draft international standard', 'automotive_design', 1998, #371 ) ;
#195 = CARTESIAN_POINT ( 'NONE',  ( 0.0000000000000000000, 0.0000000000000000000, 0.0000000000000000000 ) ) ;
#196 = CARTESIAN_POINT ( 'NONE',  ( -0.07874000000000001831, 0.0000000000000000000, 0.3149610000000000465 ) ) ;
#197 = ADVANCED_FACE ( 'NONE', ( #147 ), #117, .T. ) ;
#198 = DIRECTION ( 'NONE',  ( -0.0000000000000000000, -0.0000000000000000000, -1.000000000000000000 ) ) ;
#199 = DIRECTION ( 'NONE',  ( 0.0000000000000000000, 0.0000000000000000000, -1.000000000000000000 ) ) ;
#200 = CYLINDRICAL_SURFACE ( 'NONE', #303, 0.07874000000000001831 ) ;
#201 = FACE_OUTER_BOUND ( 'NONE', #38, .T. ) ;
#202 = DIRECTION ( 'NONE',  ( -0.0000000000000000000, 0.0000000000000000000, -1.000000000000000000 ) ) ;
#203 = EDGE_LOOP ( 'NONE', ( #288, #188, #235, #193 ) ) ;
#204 = AXIS2_PLACEMENT_3D ( 'NONE', #22, #366, #141 ) ;
#205 = CONICAL_SURFACE ( 'NONE', #304, 0.06374000000000018540, 0.7853981633974528309 ) ;
#206 = CARTESIAN_POINT ( 'NONE',  ( 0.07874000000000001831, 9.642868896486260050E-18, 0.3149610000000000465 ) ) ;
#207 = ADVANCED_FACE ( 'NONE', ( #58 ), #119, .T. ) ;
#208 = ORIENTED_EDGE ( 'NONE', *, *, #364, .T. ) ;
#209 = EDGE_CURVE ( 'NONE', #12, #76, #227, .T. ) ;
#210 = CARTESIAN_POINT ( 'NONE',  ( -0.007873212599999998562, 0.0000000000000000000, 0.0000000000000000000 ) ) ;
#211 = VERTEX_POINT ( 'NONE', #196 ) ;
#212 = LENGTH_MEASURE_WITH_UNIT ( LENGTH_MEASURE( 0.02539999999999999897 ), #37 );
#213 = EDGE_LOOP ( 'NONE', ( #329, #114, #359, #353 ) ) ;
#214 = ADVANCED_FACE ( 'NONE', ( #314 ), #292, .T. ) ;
#215 = EDGE_LOOP ( 'NONE', ( #348, #103 ) ) ;
#216 = CONICAL_SURFACE ( 'NONE', #146, 0.06374000000000018540, 0.7853981633974528309 ) ;
#217 = DIRECTION ( 'NONE',  ( -0.0000000000000000000, -0.0000000000000000000, -1.000000000000000000 ) ) ;
#218 = FACE_OUTER_BOUND ( 'NONE', #203, .T. ) ;
#219 = PRODUCT_DEFINITION ( 'UNKNOWN', '', #369, #155 ) ;
#220 = CARTESIAN_POINT ( 'NONE',  ( 0.0000000000000000000, 0.0000000000000000000, 0.0000000000000000000 ) ) ;
#221 = AXIS2_PLACEMENT_3D ( 'NONE', #308, #338, #247 ) ;
#222 = VECTOR ( 'NONE', #272, 39.37007874015748143 ) ;
#223 = EDGE_CURVE ( 'NONE', #285, #35, #261, .T. ) ;
#224 = ORIENTED_EDGE ( 'NONE', *, *, #340, .F. ) ;
#225 = ADVANCED_FACE ( 'NONE', ( #170 ), #57, .T. ) ;
#226 = FACE_OUTER_BOUND ( 'NONE', #262, .T. ) ;
#227 = CIRCLE ( 'NONE', #365, 0.007873212599999998562 ) ;
#228 = DIRECTION ( 'NONE',  ( 1.000000000000000000, 0.0000000000000000000, -0.0000000000000000000 ) ) ;
#229 = DIRECTION ( 'NONE',  ( -0.0000000000000000000, -0.0000000000000000000, -1.000000000000000000 ) ) ;
#230 = EDGE_CURVE ( 'NONE', #157, #375, #43, .T. ) ;
#231 = DIRECTION ( 'NONE',  ( -1.000000000000000000, 0.0000000000000000000, 0.0000000000000000000 ) ) ;
#232 = ORIENTED_EDGE ( 'NONE', *, *, #101, .F. ) ;
#233 = DIRECTION ( 'NONE',  ( -0.0000000000000000000, -0.0000000000000000000, -1.000000000000000000 ) ) ;
#234 = CARTESIAN_POINT ( 'NONE',  ( 0.0000000000000000000, 0.0000000000000000000, 0.0000000000000000000 ) ) ;
#235 = ORIENTED_EDGE ( 'NONE', *, *, #167, .T. ) ;
#236 = ADVANCED_FACE ( 'NONE', ( #346 ), #205, .T. ) ;
#237 = DIRECTION ( 'NONE',  ( -1.000000000000000000, 0.0000000000000000000, 0.0000000000000000000 ) ) ;
#238 = EDGE_LOOP ( 'NONE', ( #42, #45, #306, #331 ) ) ;
#239 = STYLED_ITEM ( 'NONE', ( #17 ), #16 ) ;
#240 = AXIS2_PLACEMENT_3D ( 'NONE', #148, #198, #56 ) ;
#241 = ORIENTED_EDGE ( 'NONE', *, *, #334, .F. ) ;
#242 = DIRECTION ( 'NONE',  ( -0.0000000000000000000, -0.0000000000000000000, -1.000000000000000000 ) ) ;
#243 = ORIENTED_EDGE ( 'NONE', *, *, #317, .T. ) ;
#244 = CARTESIAN_POINT ( 'NONE',  ( 0.07874000000000001831, 9.642868896486260050E-18, 1.968503999999999809 ) ) ;
#245 = ORIENTED_EDGE ( 'NONE', *, *, #108, .T. ) ;
#246 =( CONVERSION_BASED_UNIT ( 'INCH', #112 ) LENGTH_UNIT ( ) NAMED_UNIT ( #23 ) );
#247 = DIRECTION ( 'NONE',  ( 1.000000000000000000, 0.0000000000000000000, 0.0000000000000000000 ) ) ;
#248 = VECTOR ( 'NONE', #182, 39.37007874015748143 ) ;
#249 = PRODUCT_CONTEXT ( 'NONE', #371, 'mechanical' ) ;
#250 = FACE_OUTER_BOUND ( 'NONE', #124, .T. ) ;
#251 = EDGE_CURVE ( 'NONE', #104, #154, #160, .T. ) ;
#252 = CARTESIAN_POINT ( 'NONE',  ( -0.007480500000000020119, 0.0000000000000000000, 0.0000000000000000000 ) ) ;
#253 = FACE_OUTER_BOUND ( 'NONE', #41, .T. ) ;
#254 = CIRCLE ( 'NONE', #50, 0.007873212599999998562 ) ;
#255 = SURFACE_STYLE_FILL_AREA ( #107 ) ;
#256 = DIRECTION ( 'NONE',  ( 0.0000000000000000000, 0.0000000000000000000, 1.000000000000000000 ) ) ;
#257 = CARTESIAN_POINT ( 'NONE',  ( 0.0000000000000000000, 0.0000000000000000000, 1.968503999999999809 ) ) ;
#258 = AXIS2_PLACEMENT_3D ( 'NONE', #282, #24, #138 ) ;
#259 = AXIS2_PLACEMENT_3D ( 'NONE', #298, #322, #40 ) ;
#260 = CARTESIAN_POINT ( 'NONE',  ( 0.0000000000000000000, 0.0000000000000000000, 1.968503999999999809 ) ) ;
#261 = LINE ( 'NONE', #115, #165 ) ;
#262 = EDGE_LOOP ( 'NONE', ( #266, #152, #224, #7 ) ) ;
#263 = CARTESIAN_POINT ( 'NONE',  ( -0.007873212599999998562, 0.0000000000000000000, 0.01574800000000000158 ) ) ;
#264 = AXIS2_PLACEMENT_3D ( 'NONE', #47, #21, #140 ) ;
#265 = CARTESIAN_POINT ( 'NONE',  ( 0.0000000000000000000, 0.0000000000000000000, 1.953504000000000129 ) ) ;
#266 = ORIENTED_EDGE ( 'NONE', *, *, #65, .F. ) ;
#267 = DIRECTION ( 'NONE',  ( -1.000000000000000000, 0.0000000000000000000, 0.0000000000000000000 ) ) ;
#268 = ORIENTED_EDGE ( 'NONE', *, *, #59, .F. ) ;
#269 = FACE_OUTER_BOUND ( 'NONE', #361, .T. ) ;
#270 = EDGE_LOOP ( 'NONE', ( #132, #280 ) ) ;
#271 = COLOUR_RGB ( '',0.7921568627450980005, 0.8196078431372548767, 0.9333333333333333481 ) ;
#272 = DIRECTION ( 'NONE',  ( -0.0000000000000000000, -0.0000000000000000000, -1.000000000000000000 ) ) ;
#273 = ADVANCED_FACE ( 'NONE', ( #127, #305 ), #123, .T. ) ;
#274 = VERTEX_POINT ( 'NONE', #44 ) ;
#275 = CARTESIAN_POINT ( 'NONE',  ( 0.007873212599999998562, 9.641904609596609667E-19, 0.0000000000000000000 ) ) ;
#276 = ORIENTED_EDGE ( 'NONE', *, *, #167, .F. ) ;
#277 = CARTESIAN_POINT ( 'NONE',  ( 0.007873212599999998562, 9.641904609596609667E-19, 0.0000000000000000000 ) ) ;
#278 = AXIS2_PLACEMENT_3D ( 'NONE', #336, #46, #190 ) ;
#279 = VECTOR ( 'NONE', #102, 39.37007874015748854 ) ;
#280 = ORIENTED_EDGE ( 'NONE', *, *, #65, .T. ) ;
#281 = CARTESIAN_POINT ( 'NONE',  ( 0.06374000000000018540, 8.724383797125754882E-18, 1.968503999999999809 ) ) ;
#282 = CARTESIAN_POINT ( 'NONE',  ( 0.0000000000000000000, 0.0000000000000000000, 0.3149610000000000465 ) ) ;
#283 = DIMENSIONAL_EXPONENTS ( 1.000000000000000000, 0.0000000000000000000, 0.0000000000000000000, 0.0000000000000000000, 0.0000000000000000000, 0.0000000000000000000, 0.0000000000000000000 ) ;
#284 =( LENGTH_UNIT ( ) NAMED_UNIT ( * ) SI_UNIT ( $, .METRE. ) );
#285 = VERTEX_POINT ( 'NONE', #94 ) ;
#286 = DIRECTION ( 'NONE',  ( -0.0000000000000000000, -0.0000000000000000000, -1.000000000000000000 ) ) ;
#287 = DIRECTION ( 'NONE',  ( -1.000000000000000000, 0.0000000000000000000, 0.0000000000000000000 ) ) ;
#288 = ORIENTED_EDGE ( 'NONE', *, *, #364, .F. ) ;
#289 = EDGE_CURVE ( 'NONE', #375, #157, #254, .T. ) ;
#290 = CARTESIAN_POINT ( 'NONE',  ( 0.06374000000000018540, 7.805898697765251255E-18, 1.968503999999999809 ) ) ;
#291 = CIRCLE ( 'NONE', #139, 0.007873212599999998562 ) ;
#292 = CYLINDRICAL_SURFACE ( 'NONE', #240, 0.007480500000000020119 ) ;
#293 = DIRECTION ( 'NONE',  ( -1.000000000000000000, 0.0000000000000000000, 0.0000000000000000000 ) ) ;
#294 = DIRECTION ( 'NONE',  ( 1.000000000000000000, 0.0000000000000000000, 0.0000000000000000000 ) ) ;
#295 = EDGE_CURVE ( 'NONE', #375, #12, #185, .T. ) ;
#296 = ORIENTED_EDGE ( 'NONE', *, *, #340, .T. ) ;
#297 = UNCERTAINTY_MEASURE_WITH_UNIT (LENGTH_MEASURE( 1.000000000000000082E-05 ), #246, 'distance_accuracy_value', 'NONE');
#298 = CARTESIAN_POINT ( 'NONE',  ( 0.0000000000000000000, 0.0000000000000000000, 0.3149609999999999910 ) ) ;
#299 = ORIENTED_EDGE ( 'NONE', *, *, #230, .F. ) ;
#300 =( NAMED_UNIT ( * ) PLANE_ANGLE_UNIT ( ) SI_UNIT ( $, .RADIAN. ) );
#301 = EDGE_CURVE ( 'NONE', #76, #12, #291, .T. ) ;
#302 = ORIENTED_EDGE ( 'NONE', *, *, #295, .T. ) ;
#303 = AXIS2_PLACEMENT_3D ( 'NONE', #257, #229, #231 ) ;
#304 = AXIS2_PLACEMENT_3D ( 'NONE', #88, #354, #267 ) ;
#305 = FACE_OUTER_BOUND ( 'NONE', #15, .T. ) ;
#306 = ORIENTED_EDGE ( 'NONE', *, *, #122, .T. ) ;
#307 = SURFACE_STYLE_USAGE ( .BOTH. , #48 ) ;
#308 = CARTESIAN_POINT ( 'NONE',  ( 0.0000000000000000000, 0.0000000000000000000, 1.968503999999999809 ) ) ;
#309 = AXIS2_PLACEMENT_3D ( 'NONE', #195, #313, #27 ) ;
#310 =( GEOMETRIC_REPRESENTATION_CONTEXT ( 3 ) GLOBAL_UNCERTAINTY_ASSIGNED_CONTEXT ( ( #79 ) ) GLOBAL_UNIT_ASSIGNED_CONTEXT ( ( #125, #300, #75 ) ) REPRESENTATION_CONTEXT ( 'NONE', 'WORKASPACE' ) );
#311 = ORIENTED_EDGE ( 'NONE', *, *, #301, .T. ) ;
#312 = CARTESIAN_POINT ( 'NONE',  ( 0.007480500000000001905, 9.401437495309192793E-19, 0.01797518382871478304 ) ) ;
#313 = DIRECTION ( 'NONE',  ( -0.0000000000000000000, -0.0000000000000000000, -1.000000000000000000 ) ) ;
#314 = FACE_OUTER_BOUND ( 'NONE', #319, .T. ) ;
#315 = LINE ( 'NONE', #290, #18 ) ;
#316 = DIRECTION ( 'NONE',  ( -0.1736481776669308030, 0.0000000000000000000, -0.9848077530122077983 ) ) ;
#317 = EDGE_CURVE ( 'NONE', #104, #355, #99, .T. ) ;
#318 = DIRECTION ( 'NONE',  ( -1.000000000000000000, 0.0000000000000000000, 0.0000000000000000000 ) ) ;
#319 = EDGE_LOOP ( 'NONE', ( #363, #95, #268, #232 ) ) ;
#320 = AXIS2_PLACEMENT_3D ( 'NONE', #379, #377, #351 ) ;
#321 = CARTESIAN_POINT ( 'NONE',  ( -0.07874000000000001831, 0.0000000000000000000, 1.968503999999999809 ) ) ;
#322 = DIRECTION ( 'NONE',  ( -0.0000000000000000000, -0.0000000000000000000, -1.000000000000000000 ) ) ;
#323 = DIRECTION ( 'NONE',  ( -0.0000000000000000000, -0.0000000000000000000, -1.000000000000000000 ) ) ;
#324 = ORIENTED_EDGE ( 'NONE', *, *, #101, .T. ) ;
#325 = CLOSED_SHELL ( 'NONE', ( #197, #214, #85, #172, #128, #225, #207, #236, #273, #1, #39, #113, #373 ) ) ;
#326 = CONICAL_SURFACE ( 'NONE', #376, 0.007873212599999998562, 0.1745329251994334474 ) ;
#327 = MECHANICAL_DESIGN_GEOMETRIC_PRESENTATION_REPRESENTATION (  '', ( #187 ), #337 ) ;
#328 = DIRECTION ( 'NONE',  ( 1.000000000000000000, 0.0000000000000000000, -0.0000000000000000000 ) ) ;
#329 = ORIENTED_EDGE ( 'NONE', *, *, #192, .F. ) ;
#330 = ORIENTED_EDGE ( 'NONE', *, *, #289, .T. ) ;
#331 = ORIENTED_EDGE ( 'NONE', *, *, #176, .F. ) ;
#332 = VECTOR ( 'NONE', #316, 39.37007874015748854 ) ;
#333 = ORIENTED_EDGE ( 'NONE', *, *, #122, .F. ) ;
#334 = EDGE_CURVE ( 'NONE', #35, #274, #55, .T. ) ;
#335 = SHAPE_DEFINITION_REPRESENTATION ( #109, #343 ) ;
#336 = CARTESIAN_POINT ( 'NONE',  ( 0.0000000000000000000, 0.0000000000000000000, 0.01797518382871478304 ) ) ;
#337 =( GEOMETRIC_REPRESENTATION_CONTEXT ( 3 ) GLOBAL_UNCERTAINTY_ASSIGNED_CONTEXT ( ( #297 ) ) GLOBAL_UNIT_ASSIGNED_CONTEXT ( ( #246, #54, #110 ) ) REPRESENTATION_CONTEXT ( 'NONE', 'WORKASPACE' ) );
#338 = DIRECTION ( 'NONE',  ( 0.0000000000000000000, 0.0000000000000000000, 1.000000000000000000 ) ) ;
#339 = EDGE_CURVE ( 'NONE', #157, #76, #93, .T. ) ;
#340 = EDGE_CURVE ( 'NONE', #154, #104, #357, .T. ) ;
#341 = CYLINDRICAL_SURFACE ( 'NONE', #309, 0.007873212599999998562 ) ;
#342 = FILL_AREA_STYLE_COLOUR ( '', #129 ) ;
#343 = ADVANCED_BREP_SHAPE_REPRESENTATION ( 'Micro_MMBM-004-8X', ( #16, #264 ), #310 ) ;
#344 = CARTESIAN_POINT ( 'NONE',  ( 0.0000000000000000000, 0.0000000000000000000, 1.968503999999999809 ) ) ;
#345 = AXIS2_PLACEMENT_3D ( 'NONE', #151, #202, #178 ) ;
#346 = FACE_OUTER_BOUND ( 'NONE', #213, .T. ) ;
#347 = DIRECTION ( 'NONE',  ( -1.000000000000000000, 0.0000000000000000000, 0.0000000000000000000 ) ) ;
#348 = ORIENTED_EDGE ( 'NONE', *, *, #362, .F. ) ;
#349 = AXIS2_PLACEMENT_3D ( 'NONE', #260, #256, #149 ) ;
#350 = EDGE_CURVE ( 'NONE', #134, #154, #158, .T. ) ;
#351 = DIRECTION ( 'NONE',  ( -1.000000000000000000, 0.0000000000000000000, 0.0000000000000000000 ) ) ;
#352 = CARTESIAN_POINT ( 'NONE',  ( 0.007873212599999998562, 9.641904609596609667E-19, 0.01574800000000000158 ) ) ;
#353 = ORIENTED_EDGE ( 'NONE', *, *, #251, .F. ) ;
#354 = DIRECTION ( 'NONE',  ( 0.0000000000000000000, 0.0000000000000000000, -1.000000000000000000 ) ) ;
#355 = VERTEX_POINT ( 'NONE', #206 ) ;
#356 = VECTOR ( 'NONE', #90, 39.37007874015748143 ) ;
#357 = CIRCLE ( 'NONE', #31, 0.07874000000000001831 ) ;
#358 = DIRECTION ( 'NONE',  ( -0.0000000000000000000, -0.0000000000000000000, -1.000000000000000000 ) ) ;
#359 = ORIENTED_EDGE ( 'NONE', *, *, #350, .T. ) ;
#360 = DIRECTION ( 'NONE',  ( -1.000000000000000000, 0.0000000000000000000, 0.0000000000000000000 ) ) ;
#361 = EDGE_LOOP ( 'NONE', ( #311, #181 ) ) ;
#362 = EDGE_CURVE ( 'NONE', #162, #285, #62, .T. ) ;
#363 = ORIENTED_EDGE ( 'NONE', *, *, #362, .T. ) ;
#364 = EDGE_CURVE ( 'NONE', #35, #375, #66, .T. ) ;
#365 = AXIS2_PLACEMENT_3D ( 'NONE', #177, #175, #293 ) ;
#366 = DIRECTION ( 'NONE',  ( -0.0000000000000000000, -0.0000000000000000000, -1.000000000000000000 ) ) ;
#367 = FILL_AREA_STYLE_COLOUR ( '', #271 ) ;
#368 = VECTOR ( 'NONE', #83, 39.37007874015748143 ) ;
#369 = PRODUCT_DEFINITION_FORMATION_WITH_SPECIFIED_SOURCE ( 'ANY', '', #20, .NOT_KNOWN. ) ;
#370 = LENGTH_MEASURE_WITH_UNIT ( LENGTH_MEASURE( 0.02539999999999999897 ), #51 );
#371 = APPLICATION_CONTEXT ( 'automotive_design' ) ;
#372 = DIRECTION ( 'NONE',  ( -1.000000000000000000, 0.0000000000000000000, 0.0000000000000000000 ) ) ;
#373 = ADVANCED_FACE ( 'NONE', ( #269 ), #153, .F. ) ;
#374 = DIRECTION ( 'NONE',  ( -0.0000000000000000000, -0.0000000000000000000, -1.000000000000000000 ) ) ;
#375 = VERTEX_POINT ( 'NONE', #352 ) ;
#376 = AXIS2_PLACEMENT_3D ( 'NONE', #191, #163, #166 ) ;
#377 = DIRECTION ( 'NONE',  ( -0.0000000000000000000, -0.0000000000000000000, -1.000000000000000000 ) ) ;
#378 = DIRECTION ( 'NONE',  ( 0.7071067811865507924, 8.659560562354973534E-17, -0.7071067811865443531 ) ) ;
#379 = CARTESIAN_POINT ( 'NONE',  ( 0.0000000000000000000, 0.0000000000000000000, 0.0000000000000000000 ) ) ;
ENDSEC;
END-ISO-10303-21;
