ISO-10303-21;
HEADER;
FILE_DESCRIPTION (( 'STEP AP214' ),
    '1' );
FILE_NAME ('23260.STEP',
    '2023-06-22T16:44:46',
    ( '' ),
    ( '' ),
    'SwSTEP 2.0',
    'SolidWorks 2023',
    '' );
FILE_SCHEMA (( 'AUTOMOTIVE_DESIGN' ));
ENDSEC;

DATA;
#1 = CYLINDRICAL_SURFACE ( 'NONE', #3, 0.3125000000000000000 ) ;
#2 = EDGE_CURVE ( 'NONE', #176, #298, #267, .T. ) ;
#3 = AXIS2_PLACEMENT_3D ( 'NONE', #260, #39, #233 ) ;
#4 = FILL_AREA_STYLE_COLOUR ( '', #188 ) ;
#5 = UNCERTAINTY_MEASURE_WITH_UNIT (LENGTH_MEASURE( 1.000000000000000082E-05 ), #222, 'distance_accuracy_value', 'NONE');
#6 = VERTEX_POINT ( 'NONE', #129 ) ;
#7 = DIRECTION ( 'NONE',  ( -0.000000000000000000, -1.000000000000000000, -0.000000000000000000 ) ) ;
#8 = FACE_OUTER_BOUND ( 'NONE', #142, .T. ) ;
#9 =( LENGTH_UNIT ( ) NAMED_UNIT ( * ) SI_UNIT ( $, .METRE. ) );
#10 = CARTESIAN_POINT ( 'NONE',  ( 0.000000000000000000, 0.000000000000000000, 0.000000000000000000 ) ) ;
#11 = CARTESIAN_POINT ( 'NONE',  ( 3.827021247335478926E-17, 0.000000000000000000, 0.3125000000000000000 ) ) ;
#12 = DIRECTION ( 'NONE',  ( -1.000000000000000000, 0.000000000000000000, 0.000000000000000000 ) ) ;
#13 = SURFACE_STYLE_FILL_AREA ( #226 ) ;
#14 = ORIENTED_EDGE ( 'NONE', *, *, #16, .F. ) ;
#15 = AXIS2_PLACEMENT_3D ( 'NONE', #10, #78, #90 ) ;
#16 = EDGE_CURVE ( 'NONE', #155, #107, #23, .T. ) ;
#17 = CARTESIAN_POINT ( 'NONE',  ( 0.3125000000000000000, 1.625000000000000000, 3.827021247335478926E-17 ) ) ;
#18 = AXIS2_PLACEMENT_3D ( 'NONE', #25, #22, #72 ) ;
#19 = CARTESIAN_POINT ( 'NONE',  ( -0.3125000000000000555, 4.000000000000000000, 0.000000000000000000 ) ) ;
#20 =( NAMED_UNIT ( * ) PLANE_ANGLE_UNIT ( ) SI_UNIT ( $, .RADIAN. ) );
#21 = DIMENSIONAL_EXPONENTS ( 1.000000000000000000, 0.000000000000000000, 0.000000000000000000, 0.000000000000000000, 0.000000000000000000, 0.000000000000000000, 0.000000000000000000 ) ;
#22 = DIRECTION ( 'NONE',  ( -2.578203787678638882E-17, 1.000000000000000000, -0.000000000000000000 ) ) ;
#23 = LINE ( 'NONE', #43, #121 ) ;
#24 = COLOUR_RGB ( '',1.000000000000000000, 0.000000000000000000, 0.000000000000000000 ) ;
#25 = CARTESIAN_POINT ( 'NONE',  ( -6.123233995736766036E-17, 4.000000000000000000, 0.000000000000000000 ) ) ;
#26 = SURFACE_STYLE_USAGE ( .BOTH. , #174 ) ;
#27 = DIRECTION ( 'NONE',  ( 0.000000000000000000, 0.000000000000000000, -1.000000000000000000 ) ) ;
#28 = DIRECTION ( 'NONE',  ( 0.000000000000000000, -0.000000000000000000, 1.000000000000000000 ) ) ;
#29 = CLOSED_SHELL ( 'NONE', ( #37, #141, #108, #305 ) ) ;
#30 = PRESENTATION_LAYER_ASSIGNMENT (  '', '', ( #180 ) ) ;
#31 = CYLINDRICAL_SURFACE ( 'NONE', #36, 0.3125000000000000000 ) ;
#32 = EDGE_LOOP ( 'NONE', ( #304, #201 ) ) ;
#33 = DIRECTION ( 'NONE',  ( -0.000000000000000000, -1.000000000000000000, -0.000000000000000000 ) ) ;
#34 = APPLICATION_PROTOCOL_DEFINITION ( 'draft international standard', 'automotive_design', 1998, #199 ) ;
#35 =( LENGTH_UNIT ( ) NAMED_UNIT ( * ) SI_UNIT ( $, .METRE. ) );
#36 = AXIS2_PLACEMENT_3D ( 'NONE', #177, #274, #12 ) ;
#37 = ADVANCED_FACE ( 'NONE', ( #91 ), #232, .T. ) ;
#38 =( NAMED_UNIT ( * ) SI_UNIT ( $, .STERADIAN. ) SOLID_ANGLE_UNIT ( ) );
#39 = DIRECTION ( 'NONE',  ( -0.000000000000000000, -1.000000000000000000, -0.000000000000000000 ) ) ;
#40 = COLOUR_RGB ( '',1.000000000000000000, 0.000000000000000000, 0.000000000000000000 ) ;
#41 = CARTESIAN_POINT ( 'NONE',  ( 0.000000000000000000, 0.000000000000000000, -0.3125000000000000000 ) ) ;
#42 = FILL_AREA_STYLE ('',( #131 ) ) ;
#43 = CARTESIAN_POINT ( 'NONE',  ( 0.3124999999999999445, 4.000000000000000000, 3.827021247335478926E-17 ) ) ;
#44 = STYLED_ITEM ( 'NONE', ( #167 ), #46 ) ;
#45 = CARTESIAN_POINT ( 'NONE',  ( 3.827021247335478926E-17, 1.625000000000000000, 0.3125000000000000000 ) ) ;
#46 = MANIFOLD_SOLID_BREP ( 'Revolve - Tool Body (Straight Shanked)', #29 ) ;
#47 = DIRECTION ( 'NONE',  ( -1.000000000000000000, 0.000000000000000000, 0.000000000000000000 ) ) ;
#48 = COLOUR_RGB ( '',1.000000000000000000, 0.000000000000000000, 0.000000000000000000 ) ;
#49 = CARTESIAN_POINT ( 'NONE',  ( 3.827021247335478926E-17, 0.000000000000000000, 0.3125000000000000000 ) ) ;
#50 = ORIENTED_EDGE ( 'NONE', *, *, #280, .F. ) ;
#51 = DIRECTION ( 'NONE',  ( 0.000000000000000000, 0.000000000000000000, -1.000000000000000000 ) ) ;
#52 = ORIENTED_EDGE ( 'NONE', *, *, #132, .F. ) ;
#53 = PRESENTATION_STYLE_ASSIGNMENT (( #248 ) ) ;
#54 = FACE_OUTER_BOUND ( 'NONE', #231, .T. ) ;
#55 = AXIS2_PLACEMENT_3D ( 'NONE', #183, #65, #287 ) ;
#56 = CIRCLE ( 'NONE', #237, 0.3125000000000000555 ) ;
#57 = SURFACE_SIDE_STYLE ('',( #182 ) ) ;
#58 = EDGE_LOOP ( 'NONE', ( #278, #116 ) ) ;
#59 = AXIS2_PLACEMENT_3D ( 'NONE', #138, #109, #114 ) ;
#60 = PRESENTATION_LAYER_ASSIGNMENT (  '', '', ( #67 ) ) ;
#61 =( LENGTH_UNIT ( ) NAMED_UNIT ( * ) SI_UNIT ( $, .METRE. ) );
#62 = SURFACE_SIDE_STYLE ('',( #238 ) ) ;
#63 = LENGTH_MEASURE_WITH_UNIT ( LENGTH_MEASURE( 0.02539999999999999897 ), #264 );
#64 = EDGE_CURVE ( 'NONE', #296, #77, #281, .T. ) ;
#65 = DIRECTION ( 'NONE',  ( -2.578203787678638882E-17, 1.000000000000000000, 0.000000000000000000 ) ) ;
#66 = AXIS2_PLACEMENT_3D ( 'NONE', #202, #277, #161 ) ;
#67 = STYLED_ITEM ( 'NONE', ( #53 ), #295 ) ;
#68 = DIRECTION ( 'NONE',  ( -2.578203787678638882E-17, 1.000000000000000000, -0.000000000000000000 ) ) ;
#69 = SURFACE_SIDE_STYLE ('',( #282 ) ) ;
#70 = FILL_AREA_STYLE ('',( #148 ) ) ;
#71 = EDGE_CURVE ( 'NONE', #155, #289, #283, .T. ) ;
#72 = DIRECTION ( 'NONE',  ( -1.000000000000000000, 0.000000000000000000, 0.000000000000000000 ) ) ;
#73 = MECHANICAL_DESIGN_GEOMETRIC_PRESENTATION_REPRESENTATION (  '', ( #180 ), #88 ) ;
#74 = CARTESIAN_POINT ( 'NONE',  ( 0.000000000000000000, 0.000000000000000000, 0.000000000000000000 ) ) ;
#75 = DIRECTION ( 'NONE',  ( -1.000000000000000000, 0.000000000000000000, 0.000000000000000000 ) ) ;
#76 = PRESENTATION_LAYER_ASSIGNMENT (  '', '', ( #218 ) ) ;
#77 = VERTEX_POINT ( 'NONE', #228 ) ;
#78 = DIRECTION ( 'NONE',  ( 0.000000000000000000, 0.000000000000000000, 1.000000000000000000 ) ) ;
#79 = DIRECTION ( 'NONE',  ( 2.578203787678638882E-17, -1.000000000000000000, 0.000000000000000000 ) ) ;
#80 = EDGE_LOOP ( 'NONE', ( #104, #119, #220, #223 ) ) ;
#81 = CARTESIAN_POINT ( 'NONE',  ( 0.3125000000000000000, 4.000000000000000000, 3.827021247335478926E-17 ) ) ;
#82 = CARTESIAN_POINT ( 'NONE',  ( 0.000000000000000000, 0.000000000000000000, 0.000000000000000000 ) ) ;
#83 = PRODUCT ( '23260', '23260', '', ( #276 ) ) ;
#84 = DIRECTION ( 'NONE',  ( 1.000000000000000000, 2.578203787678638882E-17, 0.000000000000000000 ) ) ;
#85 = DIRECTION ( 'NONE',  ( 0.000000000000000000, 0.000000000000000000, -1.000000000000000000 ) ) ;
#86 = MECHANICAL_DESIGN_GEOMETRIC_PRESENTATION_REPRESENTATION (  '', ( #263 ), #265 ) ;
#87 = PRESENTATION_LAYER_ASSIGNMENT (  '', '', ( #263 ) ) ;
#88 =( GEOMETRIC_REPRESENTATION_CONTEXT ( 3 ) GLOBAL_UNCERTAINTY_ASSIGNED_CONTEXT ( ( #252 ) ) GLOBAL_UNIT_ASSIGNED_CONTEXT ( ( #217, #244, #239 ) ) REPRESENTATION_CONTEXT ( 'NONE', 'WORKASPACE' ) );
#89 =( CONVERSION_BASED_UNIT ( 'INCH', #111 ) LENGTH_UNIT ( ) NAMED_UNIT ( #230 ) );
#90 = DIRECTION ( 'NONE',  ( 1.000000000000000000, 0.000000000000000000, 0.000000000000000000 ) ) ;
#91 = FACE_OUTER_BOUND ( 'NONE', #80, .T. ) ;
#92 = CARTESIAN_POINT ( 'NONE',  ( -6.123233995736766036E-17, 4.000000000000000000, 0.000000000000000000 ) ) ;
#93 = AXIS2_PLACEMENT_3D ( 'NONE', #242, #215, #94 ) ;
#94 = DIRECTION ( 'NONE',  ( 0.000000000000000000, 0.000000000000000000, -1.000000000000000000 ) ) ;
#95 =( NAMED_UNIT ( * ) PLANE_ANGLE_UNIT ( ) SI_UNIT ( $, .RADIAN. ) );
#96 =( GEOMETRIC_REPRESENTATION_CONTEXT ( 3 ) GLOBAL_UNCERTAINTY_ASSIGNED_CONTEXT ( ( #150 ) ) GLOBAL_UNIT_ASSIGNED_CONTEXT ( ( #240, #95, #259 ) ) REPRESENTATION_CONTEXT ( 'NONE', 'WORKASPACE' ) );
#97 =( NAMED_UNIT ( * ) SI_UNIT ( $, .STERADIAN. ) SOLID_ANGLE_UNIT ( ) );
#98 = DIRECTION ( 'NONE',  ( -2.578203787678638882E-17, 1.000000000000000000, -0.000000000000000000 ) ) ;
#99 = ORIENTED_EDGE ( 'NONE', *, *, #132, .T. ) ;
#100 = AXIS2_PLACEMENT_3D ( 'NONE', #206, #301, #85 ) ;
#101 = ORIENTED_EDGE ( 'NONE', *, *, #184, .T. ) ;
#102 = CARTESIAN_POINT ( 'NONE',  ( -6.123233995736766036E-17, 4.000000000000000000, 0.000000000000000000 ) ) ;
#103 = PRODUCT_DEFINITION_CONTEXT ( 'detailed design', #199, 'design' ) ;
#104 = ORIENTED_EDGE ( 'NONE', *, *, #280, .T. ) ;
#105 = DIMENSIONAL_EXPONENTS ( 1.000000000000000000, 0.000000000000000000, 0.000000000000000000, 0.000000000000000000, 0.000000000000000000, 0.000000000000000000, 0.000000000000000000 ) ;
#106 = DIRECTION ( 'NONE',  ( -0.000000000000000000, -1.000000000000000000, -0.000000000000000000 ) ) ;
#107 = VERTEX_POINT ( 'NONE', #81 ) ;
#108 = ADVANCED_FACE ( 'NONE', ( #54 ), #31, .T. ) ;
#109 = DIRECTION ( 'NONE',  ( -2.578203787678638882E-17, 1.000000000000000000, -0.000000000000000000 ) ) ;
#110 =( GEOMETRIC_REPRESENTATION_CONTEXT ( 3 ) GLOBAL_UNCERTAINTY_ASSIGNED_CONTEXT ( ( #299 ) ) GLOBAL_UNIT_ASSIGNED_CONTEXT ( ( #245, #153, #97 ) ) REPRESENTATION_CONTEXT ( 'NONE', 'WORKASPACE' ) );
#111 = LENGTH_MEASURE_WITH_UNIT ( LENGTH_MEASURE( 0.02539999999999999897 ), #9 );
#112 = FACE_OUTER_BOUND ( 'NONE', #32, .T. ) ;
#113 = ORIENTED_EDGE ( 'NONE', *, *, #71, .T. ) ;
#114 = DIRECTION ( 'NONE',  ( -1.000000000000000000, 0.000000000000000000, 0.000000000000000000 ) ) ;
#115 = EDGE_CURVE ( 'NONE', #296, #176, #271, .T. ) ;
#116 = ORIENTED_EDGE ( 'NONE', *, *, #292, .F. ) ;
#117 = SHAPE_DEFINITION_REPRESENTATION ( #130, #193 ) ;
#118 = CIRCLE ( 'NONE', #66, 0.3125000000000000000 ) ;
#119 = ORIENTED_EDGE ( 'NONE', *, *, #16, .T. ) ;
#120 = FACE_OUTER_BOUND ( 'NONE', #58, .T. ) ;
#121 = VECTOR ( 'NONE', #160, 39.37007874015748143 ) ;
#122 =( GEOMETRIC_REPRESENTATION_CONTEXT ( 3 ) GLOBAL_UNCERTAINTY_ASSIGNED_CONTEXT ( ( #5 ) ) GLOBAL_UNIT_ASSIGNED_CONTEXT ( ( #222, #294, #156 ) ) REPRESENTATION_CONTEXT ( 'NONE', 'WORKASPACE' ) );
#123 = CARTESIAN_POINT ( 'NONE',  ( -0.3125000000000000000, 1.625000000000000000, 0.000000000000000000 ) ) ;
#124 = FILL_AREA_STYLE ('',( #214 ) ) ;
#125 = DIMENSIONAL_EXPONENTS ( 1.000000000000000000, 0.000000000000000000, 0.000000000000000000, 0.000000000000000000, 0.000000000000000000, 0.000000000000000000, 0.000000000000000000 ) ;
#126 = EDGE_CURVE ( 'NONE', #298, #77, #203, .T. ) ;
#127 = LENGTH_MEASURE_WITH_UNIT ( LENGTH_MEASURE( 0.02539999999999999897 ), #149 );
#128 = SURFACE_STYLE_USAGE ( .BOTH. , #62 ) ;
#129 = CARTESIAN_POINT ( 'NONE',  ( -0.3125000000000001665, 4.000000000000000000, 0.000000000000000000 ) ) ;
#130 = PRODUCT_DEFINITION_SHAPE ( 'NONE', 'NONE',  #300 ) ;
#131 = FILL_AREA_STYLE_COLOUR ( '', #24 ) ;
#132 = EDGE_CURVE ( 'NONE', #77, #298, #118, .T. ) ;
#133 = VECTOR ( 'NONE', #154, 39.37007874015748143 ) ;
#134 = LENGTH_MEASURE_WITH_UNIT ( LENGTH_MEASURE( 0.02539999999999999897 ), #207 );
#135 = ORIENTED_EDGE ( 'NONE', *, *, #126, .T. ) ;
#136 = DIMENSIONAL_EXPONENTS ( 1.000000000000000000, 0.000000000000000000, 0.000000000000000000, 0.000000000000000000, 0.000000000000000000, 0.000000000000000000, 0.000000000000000000 ) ;
#137 = STYLED_ITEM ( 'NONE', ( #246 ), #157 ) ;
#138 = CARTESIAN_POINT ( 'NONE',  ( 1.516480271171051896E-32, 1.625000000000000000, 0.000000000000000000 ) ) ;
#139 = AXIS2_PLACEMENT_3D ( 'NONE', #205, #79, #84 ) ;
#140 = CARTESIAN_POINT ( 'NONE',  ( 0.000000000000000000, 1.625000000000000000, -0.3125000000000000000 ) ) ;
#141 = ADVANCED_FACE ( 'NONE', ( #8 ), #253, .F. ) ;
#142 = EDGE_LOOP ( 'NONE', ( #50, #258 ) ) ;
#143 = UNCERTAINTY_MEASURE_WITH_UNIT (LENGTH_MEASURE( 1.000000000000000082E-05 ), #241, 'distance_accuracy_value', 'NONE');
#144 = ORIENTED_EDGE ( 'NONE', *, *, #292, .T. ) ;
#145 = PRODUCT_RELATED_PRODUCT_CATEGORY ( 'part', '', ( #83 ) ) ;
#146 = ADVANCED_FACE ( 'NONE', ( #307 ), #1, .T. ) ;
#147 = CARTESIAN_POINT ( 'NONE',  ( 0.000000000000000000, 1.625000000000000000, 0.000000000000000000 ) ) ;
#148 = FILL_AREA_STYLE_COLOUR ( '', #48 ) ;
#149 =( LENGTH_UNIT ( ) NAMED_UNIT ( * ) SI_UNIT ( $, .METRE. ) );
#150 = UNCERTAINTY_MEASURE_WITH_UNIT (LENGTH_MEASURE( 1.000000000000000082E-05 ), #240, 'distance_accuracy_value', 'NONE');
#151 = CIRCLE ( 'NONE', #309, 0.3125000000000000000 ) ;
#152 = LENGTH_MEASURE_WITH_UNIT ( LENGTH_MEASURE( 0.02539999999999999897 ), #35 );
#153 =( NAMED_UNIT ( * ) PLANE_ANGLE_UNIT ( ) SI_UNIT ( $, .RADIAN. ) );
#154 = DIRECTION ( 'NONE',  ( -0.000000000000000000, -1.000000000000000000, -0.000000000000000000 ) ) ;
#155 = VERTEX_POINT ( 'NONE', #17 ) ;
#156 =( NAMED_UNIT ( * ) SI_UNIT ( $, .STERADIAN. ) SOLID_ANGLE_UNIT ( ) );
#157 = MANIFOLD_SOLID_BREP ( 'Revolve - Cutting Edge', #175 ) ;
#158 =( NAMED_UNIT ( * ) SI_UNIT ( $, .STERADIAN. ) SOLID_ANGLE_UNIT ( ) );
#159 = EDGE_LOOP ( 'NONE', ( #194, #144, #227, #249 ) ) ;
#160 = DIRECTION ( 'NONE',  ( -2.578203787678638882E-17, 1.000000000000000000, -0.000000000000000000 ) ) ;
#161 = DIRECTION ( 'NONE',  ( 0.000000000000000000, 0.000000000000000000, -1.000000000000000000 ) ) ;
#162 = SURFACE_STYLE_USAGE ( .BOTH. , #57 ) ;
#163 = AXIS2_PLACEMENT_3D ( 'NONE', #147, #288, #28 ) ;
#164 = ADVANCED_FACE ( 'NONE', ( #120 ), #166, .T. ) ;
#165 = DIRECTION ( 'NONE',  ( -2.578203787678638882E-17, 1.000000000000000000, -0.000000000000000000 ) ) ;
#166 = PLANE ( 'NONE',  #163 ) ;
#167 = PRESENTATION_STYLE_ASSIGNMENT (( #211 ) ) ;
#168 = APPLICATION_CONTEXT ( 'automotive_design' ) ;
#169 = PLANE ( 'NONE',  #196 ) ;
#170 = PRESENTATION_STYLE_ASSIGNMENT (( #26 ) ) ;
#171 = FACE_OUTER_BOUND ( 'NONE', #197, .T. ) ;
#172 = UNCERTAINTY_MEASURE_WITH_UNIT (LENGTH_MEASURE( 1.000000000000000082E-05 ), #303, 'distance_accuracy_value', 'NONE');
#173 = DIRECTION ( 'NONE',  ( 0.000000000000000000, -1.000000000000000000, -0.000000000000000000 ) ) ;
#174 = SURFACE_SIDE_STYLE ('',( #285 ) ) ;
#175 = CLOSED_SHELL ( 'NONE', ( #146, #164, #295, #243 ) ) ;
#176 = VERTEX_POINT ( 'NONE', #45 ) ;
#177 = CARTESIAN_POINT ( 'NONE',  ( -6.123233995736766036E-17, 4.000000000000000000, 0.000000000000000000 ) ) ;
#178 =( GEOMETRIC_REPRESENTATION_CONTEXT ( 3 ) GLOBAL_UNCERTAINTY_ASSIGNED_CONTEXT ( ( #172 ) ) GLOBAL_UNIT_ASSIGNED_CONTEXT ( ( #303, #213, #38 ) ) REPRESENTATION_CONTEXT ( 'NONE', 'WORKASPACE' ) );
#179 = CARTESIAN_POINT ( 'NONE',  ( 0.000000000000000000, 0.000000000000000000, 0.000000000000000000 ) ) ;
#180 = STYLED_ITEM ( 'NONE', ( #170 ), #243 ) ;
#181 = ORIENTED_EDGE ( 'NONE', *, *, #64, .F. ) ;
#182 = SURFACE_STYLE_FILL_AREA ( #236 ) ;
#183 = CARTESIAN_POINT ( 'NONE',  ( 1.038614807937575041E-34, 1.625000000000000000, 0.000000000000000000 ) ) ;
#184 = EDGE_CURVE ( 'NONE', #289, #6, #219, .T. ) ;
#185 = LENGTH_MEASURE_WITH_UNIT ( LENGTH_MEASURE( 0.02539999999999999897 ), #61 );
#186 =( LENGTH_UNIT ( ) NAMED_UNIT ( * ) SI_UNIT ( $, .METRE. ) );
#187 = VECTOR ( 'NONE', #7, 39.37007874015748143 ) ;
#188 = COLOUR_RGB ( '',1.000000000000000000, 0.000000000000000000, 0.000000000000000000 ) ;
#189 = SURFACE_SIDE_STYLE ('',( #286 ) ) ;
#190 = PRESENTATION_STYLE_ASSIGNMENT (( #128 ) ) ;
#191 = FACE_OUTER_BOUND ( 'NONE', #159, .T. ) ;
#192 = AXIS2_PLACEMENT_3D ( 'NONE', #179, #33, #27 ) ;
#193 = ADVANCED_BREP_SHAPE_REPRESENTATION ( '23260', ( #157, #46, #15 ), #122 ) ;
#194 = ORIENTED_EDGE ( 'NONE', *, *, #2, .F. ) ;
#195 = PRESENTATION_LAYER_ASSIGNMENT (  '', '', ( #44 ) ) ;
#196 = AXIS2_PLACEMENT_3D ( 'NONE', #74, #173, #269 ) ;
#197 = EDGE_LOOP ( 'NONE', ( #99, #135 ) ) ;
#198 = DIRECTION ( 'NONE',  ( -2.578203787678638882E-17, 1.000000000000000000, -0.000000000000000000 ) ) ;
#199 = APPLICATION_CONTEXT ( 'automotive_design' ) ;
#200 = DIMENSIONAL_EXPONENTS ( 1.000000000000000000, 0.000000000000000000, 0.000000000000000000, 0.000000000000000000, 0.000000000000000000, 0.000000000000000000, 0.000000000000000000 ) ;
#201 = ORIENTED_EDGE ( 'NONE', *, *, #273, .T. ) ;
#202 = CARTESIAN_POINT ( 'NONE',  ( 0.000000000000000000, 0.000000000000000000, 0.000000000000000000 ) ) ;
#203 = CIRCLE ( 'NONE', #192, 0.3125000000000000000 ) ;
#204 = CIRCLE ( 'NONE', #93, 0.3125000000000000000 ) ;
#205 = CARTESIAN_POINT ( 'NONE',  ( 0.3125000000000000000, 4.000000000000000000, 0.000000000000000000 ) ) ;
#206 = CARTESIAN_POINT ( 'NONE',  ( 0.000000000000000000, 1.625000000000000000, 0.000000000000000000 ) ) ;
#207 =( LENGTH_UNIT ( ) NAMED_UNIT ( * ) SI_UNIT ( $, .METRE. ) );
#208 = CIRCLE ( 'NONE', #18, 0.3125000000000000555 ) ;
#209 = EDGE_CURVE ( 'NONE', #6, #107, #208, .T. ) ;
#210 = FILL_AREA_STYLE_COLOUR ( '', #221 ) ;
#211 = SURFACE_STYLE_USAGE ( .BOTH. , #189 ) ;
#212 = AXIS2_PLACEMENT_3D ( 'NONE', #92, #165, #235 ) ;
#213 =( NAMED_UNIT ( * ) PLANE_ANGLE_UNIT ( ) SI_UNIT ( $, .RADIAN. ) );
#214 = FILL_AREA_STYLE_COLOUR ( '', #290 ) ;
#215 = DIRECTION ( 'NONE',  ( -0.000000000000000000, -1.000000000000000000, -0.000000000000000000 ) ) ;
#216 =( NAMED_UNIT ( * ) SI_UNIT ( $, .STERADIAN. ) SOLID_ANGLE_UNIT ( ) );
#217 =( CONVERSION_BASED_UNIT ( 'INCH', #127 ) LENGTH_UNIT ( ) NAMED_UNIT ( #125 ) );
#218 = STYLED_ITEM ( 'NONE', ( #256 ), #164 ) ;
#219 = LINE ( 'NONE', #19, #225 ) ;
#220 = ORIENTED_EDGE ( 'NONE', *, *, #209, .F. ) ;
#221 = COLOUR_RGB ( '',0.7921568627450980005, 0.8196078431372548767, 0.9333333333333333481 ) ;
#222 =( CONVERSION_BASED_UNIT ( 'INCH', #134 ) LENGTH_UNIT ( ) NAMED_UNIT ( #21 ) );
#223 = ORIENTED_EDGE ( 'NONE', *, *, #184, .F. ) ;
#224 = MECHANICAL_DESIGN_GEOMETRIC_PRESENTATION_REPRESENTATION (  '', ( #44 ), #96 ) ;
#225 = VECTOR ( 'NONE', #98, 39.37007874015748143 ) ;
#226 = FILL_AREA_STYLE ('',( #4 ) ) ;
#227 = ORIENTED_EDGE ( 'NONE', *, *, #64, .T. ) ;
#228 = CARTESIAN_POINT ( 'NONE',  ( 0.000000000000000000, 0.000000000000000000, -0.3125000000000000000 ) ) ;
#229 = ORIENTED_EDGE ( 'NONE', *, *, #273, .F. ) ;
#230 = DIMENSIONAL_EXPONENTS ( 1.000000000000000000, 0.000000000000000000, 0.000000000000000000, 0.000000000000000000, 0.000000000000000000, 0.000000000000000000, 0.000000000000000000 ) ;
#231 = EDGE_LOOP ( 'NONE', ( #14, #113, #101, #229 ) ) ;
#232 = CYLINDRICAL_SURFACE ( 'NONE', #212, 0.3125000000000000000 ) ;
#233 = DIRECTION ( 'NONE',  ( 0.000000000000000000, 0.000000000000000000, -1.000000000000000000 ) ) ;
#234 = CYLINDRICAL_SURFACE ( 'NONE', #266, 0.3125000000000000000 ) ;
#235 = DIRECTION ( 'NONE',  ( -1.000000000000000000, 0.000000000000000000, 0.000000000000000000 ) ) ;
#236 = FILL_AREA_STYLE ('',( #262 ) ) ;
#237 = AXIS2_PLACEMENT_3D ( 'NONE', #102, #198, #75 ) ;
#238 = SURFACE_STYLE_FILL_AREA ( #70 ) ;
#239 =( NAMED_UNIT ( * ) SI_UNIT ( $, .STERADIAN. ) SOLID_ANGLE_UNIT ( ) );
#240 =( CONVERSION_BASED_UNIT ( 'INCH', #306 ) LENGTH_UNIT ( ) NAMED_UNIT ( #293 ) );
#241 =( CONVERSION_BASED_UNIT ( 'INCH', #63 ) LENGTH_UNIT ( ) NAMED_UNIT ( #200 ) );
#242 = CARTESIAN_POINT ( 'NONE',  ( 0.000000000000000000, 1.625000000000000000, 0.000000000000000000 ) ) ;
#243 = ADVANCED_FACE ( 'NONE', ( #171 ), #169, .T. ) ;
#244 =( NAMED_UNIT ( * ) PLANE_ANGLE_UNIT ( ) SI_UNIT ( $, .RADIAN. ) );
#245 =( CONVERSION_BASED_UNIT ( 'INCH', #152 ) LENGTH_UNIT ( ) NAMED_UNIT ( #136 ) );
#246 = PRESENTATION_STYLE_ASSIGNMENT (( #291 ) ) ;
#247 = MECHANICAL_DESIGN_GEOMETRIC_PRESENTATION_REPRESENTATION (  '', ( #67 ), #279 ) ;
#248 = SURFACE_STYLE_USAGE ( .BOTH. , #275 ) ;
#249 = ORIENTED_EDGE ( 'NONE', *, *, #126, .F. ) ;
#250 = UNCERTAINTY_MEASURE_WITH_UNIT (LENGTH_MEASURE( 1.000000000000000082E-05 ), #89, 'distance_accuracy_value', 'NONE');
#251 =( NAMED_UNIT ( * ) PLANE_ANGLE_UNIT ( ) SI_UNIT ( $, .RADIAN. ) );
#252 = UNCERTAINTY_MEASURE_WITH_UNIT (LENGTH_MEASURE( 1.000000000000000082E-05 ), #217, 'distance_accuracy_value', 'NONE');
#253 = PLANE ( 'NONE',  #55 ) ;
#254 = ORIENTED_EDGE ( 'NONE', *, *, #2, .T. ) ;
#255 = APPLICATION_PROTOCOL_DEFINITION ( 'draft international standard', 'automotive_design', 1998, #168 ) ;
#256 = PRESENTATION_STYLE_ASSIGNMENT (( #162 ) ) ;
#257 = MECHANICAL_DESIGN_GEOMETRIC_PRESENTATION_REPRESENTATION (  '', ( #218 ), #110 ) ;
#258 = ORIENTED_EDGE ( 'NONE', *, *, #71, .F. ) ;
#259 =( NAMED_UNIT ( * ) SI_UNIT ( $, .STERADIAN. ) SOLID_ANGLE_UNIT ( ) );
#260 = CARTESIAN_POINT ( 'NONE',  ( 0.000000000000000000, 0.000000000000000000, 0.000000000000000000 ) ) ;
#261 = FILL_AREA_STYLE ('',( #210 ) ) ;
#262 = FILL_AREA_STYLE_COLOUR ( '', #40 ) ;
#263 = STYLED_ITEM ( 'NONE', ( #190 ), #146 ) ;
#264 =( LENGTH_UNIT ( ) NAMED_UNIT ( * ) SI_UNIT ( $, .METRE. ) );
#265 =( GEOMETRIC_REPRESENTATION_CONTEXT ( 3 ) GLOBAL_UNCERTAINTY_ASSIGNED_CONTEXT ( ( #143 ) ) GLOBAL_UNIT_ASSIGNED_CONTEXT ( ( #241, #20, #216 ) ) REPRESENTATION_CONTEXT ( 'NONE', 'WORKASPACE' ) );
#266 = AXIS2_PLACEMENT_3D ( 'NONE', #82, #106, #51 ) ;
#267 = LINE ( 'NONE', #49, #133 ) ;
#268 = EDGE_LOOP ( 'NONE', ( #272, #254, #52, #181 ) ) ;
#269 = DIRECTION ( 'NONE',  ( 0.000000000000000000, 0.000000000000000000, -1.000000000000000000 ) ) ;
#270 = CARTESIAN_POINT ( 'NONE',  ( 1.516480271171051896E-32, 1.625000000000000000, 0.000000000000000000 ) ) ;
#271 = CIRCLE ( 'NONE', #100, 0.3125000000000000000 ) ;
#272 = ORIENTED_EDGE ( 'NONE', *, *, #115, .T. ) ;
#273 = EDGE_CURVE ( 'NONE', #107, #6, #56, .T. ) ;
#274 = DIRECTION ( 'NONE',  ( -2.578203787678638882E-17, 1.000000000000000000, -0.000000000000000000 ) ) ;
#275 = SURFACE_SIDE_STYLE ('',( #13 ) ) ;
#276 = PRODUCT_CONTEXT ( 'NONE', #168, 'mechanical' ) ;
#277 = DIRECTION ( 'NONE',  ( -0.000000000000000000, -1.000000000000000000, -0.000000000000000000 ) ) ;
#278 = ORIENTED_EDGE ( 'NONE', *, *, #115, .F. ) ;
#279 =( GEOMETRIC_REPRESENTATION_CONTEXT ( 3 ) GLOBAL_UNCERTAINTY_ASSIGNED_CONTEXT ( ( #250 ) ) GLOBAL_UNIT_ASSIGNED_CONTEXT ( ( #89, #251, #158 ) ) REPRESENTATION_CONTEXT ( 'NONE', 'WORKASPACE' ) );
#280 = EDGE_CURVE ( 'NONE', #289, #155, #151, .T. ) ;
#281 = LINE ( 'NONE', #41, #187 ) ;
#282 = SURFACE_STYLE_FILL_AREA ( #124 ) ;
#283 = CIRCLE ( 'NONE', #59, 0.3125000000000000000 ) ;
#284 = PRODUCT_DEFINITION_FORMATION_WITH_SPECIFIED_SOURCE ( 'ANY', '', #83, .NOT_KNOWN. ) ;
#285 = SURFACE_STYLE_FILL_AREA ( #42 ) ;
#286 = SURFACE_STYLE_FILL_AREA ( #261 ) ;
#287 = DIRECTION ( 'NONE',  ( -1.000000000000000000, -2.578203787678638882E-17, 0.000000000000000000 ) ) ;
#288 = DIRECTION ( 'NONE',  ( 0.000000000000000000, 1.000000000000000000, 0.000000000000000000 ) ) ;
#289 = VERTEX_POINT ( 'NONE', #123 ) ;
#290 = COLOUR_RGB ( '',0.7921568627450980005, 0.8196078431372548767, 0.9333333333333333481 ) ;
#291 = SURFACE_STYLE_USAGE ( .BOTH. , #69 ) ;
#292 = EDGE_CURVE ( 'NONE', #176, #296, #204, .T. ) ;
#293 = DIMENSIONAL_EXPONENTS ( 1.000000000000000000, 0.000000000000000000, 0.000000000000000000, 0.000000000000000000, 0.000000000000000000, 0.000000000000000000, 0.000000000000000000 ) ;
#294 =( NAMED_UNIT ( * ) PLANE_ANGLE_UNIT ( ) SI_UNIT ( $, .RADIAN. ) );
#295 = ADVANCED_FACE ( 'NONE', ( #191 ), #234, .T. ) ;
#296 = VERTEX_POINT ( 'NONE', #140 ) ;
#297 = PLANE ( 'NONE',  #139 ) ;
#298 = VERTEX_POINT ( 'NONE', #11 ) ;
#299 = UNCERTAINTY_MEASURE_WITH_UNIT (LENGTH_MEASURE( 1.000000000000000082E-05 ), #245, 'distance_accuracy_value', 'NONE');
#300 = PRODUCT_DEFINITION ( 'UNKNOWN', '', #284, #103 ) ;
#301 = DIRECTION ( 'NONE',  ( -0.000000000000000000, -1.000000000000000000, -0.000000000000000000 ) ) ;
#302 = PRESENTATION_LAYER_ASSIGNMENT (  '', '', ( #137 ) ) ;
#303 =( CONVERSION_BASED_UNIT ( 'INCH', #185 ) LENGTH_UNIT ( ) NAMED_UNIT ( #105 ) );
#304 = ORIENTED_EDGE ( 'NONE', *, *, #209, .T. ) ;
#305 = ADVANCED_FACE ( 'NONE', ( #112 ), #297, .F. ) ;
#306 = LENGTH_MEASURE_WITH_UNIT ( LENGTH_MEASURE( 0.02539999999999999897 ), #186 );
#307 = FACE_OUTER_BOUND ( 'NONE', #268, .T. ) ;
#308 = MECHANICAL_DESIGN_GEOMETRIC_PRESENTATION_REPRESENTATION (  '', ( #137 ), #178 ) ;
#309 = AXIS2_PLACEMENT_3D ( 'NONE', #270, #68, #47 ) ;
ENDSEC;
END-ISO-10303-21;
