ISO-10303-21;
HEADER;
FILE_DESCRIPTION (( 'STEP AP214' ),
    '1' );
FILE_NAME ('23240.STEP',
    '2023-06-22T16:42:59',
    ( '' ),
    ( '' ),
    'SwSTEP 2.0',
    'SolidWorks 2023',
    '' );
FILE_SCHEMA (( 'AUTOMOTIVE_DESIGN' ));
ENDSEC;

DATA;
#1 = ORIENTED_EDGE ( 'NONE', *, *, #28, .F. ) ;
#2 = FACE_OUTER_BOUND ( 'NONE', #101, .T. ) ;
#3 = EDGE_LOOP ( 'NONE', ( #239, #144 ) ) ;
#4 = CARTESIAN_POINT ( 'NONE',  ( 0.000000000000000000, 0.7500000000000001110, 0.000000000000000000 ) ) ;
#5 = MECHANICAL_DESIGN_GEOMETRIC_PRESENTATION_REPRESENTATION (  '', ( #18 ), #115 ) ;
#6 = LENGTH_MEASURE_WITH_UNIT ( LENGTH_MEASURE( 0.02539999999999999897 ), #269 );
#7 = FILL_AREA_STYLE_COLOUR ( '', #230 ) ;
#8 = DIRECTION ( 'NONE',  ( -1.000000000000000000, 0.000000000000000000, 0.000000000000000000 ) ) ;
#9 = LENGTH_MEASURE_WITH_UNIT ( LENGTH_MEASURE( 0.02539999999999999897 ), #221 );
#10 =( CONVERSION_BASED_UNIT ( 'INCH', #109 ) LENGTH_UNIT ( ) NAMED_UNIT ( #263 ) );
#11 = SHAPE_DEFINITION_REPRESENTATION ( #22, #218 ) ;
#12 =( NAMED_UNIT ( * ) PLANE_ANGLE_UNIT ( ) SI_UNIT ( $, .RADIAN. ) );
#13 = COLOUR_RGB ( '',1.000000000000000000, 0.000000000000000000, 0.000000000000000000 ) ;
#14 =( NAMED_UNIT ( * ) SI_UNIT ( $, .STERADIAN. ) SOLID_ANGLE_UNIT ( ) );
#15 = EDGE_CURVE ( 'NONE', #237, #290, #267, .T. ) ;
#16 = LENGTH_MEASURE_WITH_UNIT ( LENGTH_MEASURE( 0.02539999999999999897 ), #105 );
#17 = SURFACE_SIDE_STYLE ('',( #299 ) ) ;
#18 = STYLED_ITEM ( 'NONE', ( #250 ), #135 ) ;
#19 = SURFACE_STYLE_FILL_AREA ( #229 ) ;
#20 = MECHANICAL_DESIGN_GEOMETRIC_PRESENTATION_REPRESENTATION (  '', ( #32 ), #266 ) ;
#21 = ORIENTED_EDGE ( 'NONE', *, *, #228, .F. ) ;
#22 = PRODUCT_DEFINITION_SHAPE ( 'NONE', 'NONE',  #146 ) ;
#23 = UNCERTAINTY_MEASURE_WITH_UNIT (LENGTH_MEASURE( 1.000000000000000082E-05 ), #272, 'distance_accuracy_value', 'NONE');
#24 = VERTEX_POINT ( 'NONE', #74 ) ;
#25 = VECTOR ( 'NONE', #212, 39.37007874015748143 ) ;
#26 =( NAMED_UNIT ( * ) SI_UNIT ( $, .STERADIAN. ) SOLID_ANGLE_UNIT ( ) );
#27 = ORIENTED_EDGE ( 'NONE', *, *, #28, .T. ) ;
#28 = EDGE_CURVE ( 'NONE', #122, #237, #302, .T. ) ;
#29 = ORIENTED_EDGE ( 'NONE', *, *, #59, .T. ) ;
#30 = ORIENTED_EDGE ( 'NONE', *, *, #224, .F. ) ;
#31 = CARTESIAN_POINT ( 'NONE',  ( 1.224646799147352714E-16, 3.000000000000000444, 0.000000000000000000 ) ) ;
#32 = STYLED_ITEM ( 'NONE', ( #110 ), #183 ) ;
#33 =( NAMED_UNIT ( * ) PLANE_ANGLE_UNIT ( ) SI_UNIT ( $, .RADIAN. ) );
#34 = DIRECTION ( 'NONE',  ( -1.000000000000000000, 0.000000000000000000, 0.000000000000000000 ) ) ;
#35 = EDGE_CURVE ( 'NONE', #122, #24, #308, .T. ) ;
#36 = FACE_OUTER_BOUND ( 'NONE', #3, .T. ) ;
#37 = STYLED_ITEM ( 'NONE', ( #204 ), #205 ) ;
#38 = FILL_AREA_STYLE ('',( #292 ) ) ;
#39 =( CONVERSION_BASED_UNIT ( 'INCH', #152 ) LENGTH_UNIT ( ) NAMED_UNIT ( #196 ) );
#40 = DIRECTION ( 'NONE',  ( 5.442874662877122626E-17, 1.000000000000000000, -0.000000000000000000 ) ) ;
#41 = FILL_AREA_STYLE_COLOUR ( '', #217 ) ;
#42 = PRODUCT_DEFINITION_CONTEXT ( 'detailed design', #193, 'design' ) ;
#43 = CLOSED_SHELL ( 'NONE', ( #283, #90, #270, #256 ) ) ;
#44 = UNCERTAINTY_MEASURE_WITH_UNIT (LENGTH_MEASURE( 1.000000000000000082E-05 ), #10, 'distance_accuracy_value', 'NONE');
#45 = FILL_AREA_STYLE_COLOUR ( '', #111 ) ;
#46 = CARTESIAN_POINT ( 'NONE',  ( 0.000000000000000000, 0.7500000000000001110, 0.000000000000000000 ) ) ;
#47 =( GEOMETRIC_REPRESENTATION_CONTEXT ( 3 ) GLOBAL_UNCERTAINTY_ASSIGNED_CONTEXT ( ( #141 ) ) GLOBAL_UNIT_ASSIGNED_CONTEXT ( ( #84, #12, #173 ) ) REPRESENTATION_CONTEXT ( 'NONE', 'WORKASPACE' ) );
#48 = DIRECTION ( 'NONE',  ( 0.000000000000000000, 0.000000000000000000, -1.000000000000000000 ) ) ;
#49 = DIRECTION ( 'NONE',  ( -1.000000000000000000, 0.000000000000000000, 0.000000000000000000 ) ) ;
#50 = ORIENTED_EDGE ( 'NONE', *, *, #260, .T. ) ;
#51 = ORIENTED_EDGE ( 'NONE', *, *, #114, .T. ) ;
#52 =( GEOMETRIC_REPRESENTATION_CONTEXT ( 3 ) GLOBAL_UNCERTAINTY_ASSIGNED_CONTEXT ( ( #116 ) ) GLOBAL_UNIT_ASSIGNED_CONTEXT ( ( #285, #33, #70 ) ) REPRESENTATION_CONTEXT ( 'NONE', 'WORKASPACE' ) );
#53 = STYLED_ITEM ( 'NONE', ( #195 ), #245 ) ;
#54 = PRODUCT_RELATED_PRODUCT_CATEGORY ( 'part', '', ( #300 ) ) ;
#55 = DIRECTION ( 'NONE',  ( 0.000000000000000000, -0.000000000000000000, 1.000000000000000000 ) ) ;
#56 = CARTESIAN_POINT ( 'NONE',  ( -0.3124999999999998335, 3.000000000000000444, 0.000000000000000000 ) ) ;
#57 =( CONVERSION_BASED_UNIT ( 'INCH', #287 ) LENGTH_UNIT ( ) NAMED_UNIT ( #200 ) );
#58 = ORIENTED_EDGE ( 'NONE', *, *, #260, .F. ) ;
#59 = EDGE_CURVE ( 'NONE', #237, #122, #257, .T. ) ;
#60 = DIRECTION ( 'NONE',  ( -1.000000000000000000, 0.000000000000000000, 0.000000000000000000 ) ) ;
#61 = STYLED_ITEM ( 'NONE', ( #106 ), #178 ) ;
#62 = PRODUCT_DEFINITION_FORMATION_WITH_SPECIFIED_SOURCE ( 'ANY', '', #300, .NOT_KNOWN. ) ;
#63 = CARTESIAN_POINT ( 'NONE',  ( 1.224646799147352714E-16, 3.000000000000000444, 0.000000000000000000 ) ) ;
#64 = DIRECTION ( 'NONE',  ( 0.000000000000000000, 0.000000000000000000, -1.000000000000000000 ) ) ;
#65 = UNCERTAINTY_MEASURE_WITH_UNIT (LENGTH_MEASURE( 1.000000000000000082E-05 ), #175, 'distance_accuracy_value', 'NONE');
#66 = PRESENTATION_LAYER_ASSIGNMENT (  '', '', ( #32 ) ) ;
#67 = DIRECTION ( 'NONE',  ( 0.000000000000000000, 0.000000000000000000, -1.000000000000000000 ) ) ;
#68 = AXIS2_PLACEMENT_3D ( 'NONE', #255, #93, #67 ) ;
#69 = ORIENTED_EDGE ( 'NONE', *, *, #15, .F. ) ;
#70 =( NAMED_UNIT ( * ) SI_UNIT ( $, .STERADIAN. ) SOLID_ANGLE_UNIT ( ) );
#71 = CARTESIAN_POINT ( 'NONE',  ( 3.827021247335478926E-17, 0.000000000000000000, 0.3125000000000000000 ) ) ;
#72 = EDGE_LOOP ( 'NONE', ( #145, #165 ) ) ;
#73 =( NAMED_UNIT ( * ) SI_UNIT ( $, .STERADIAN. ) SOLID_ANGLE_UNIT ( ) );
#74 = CARTESIAN_POINT ( 'NONE',  ( -0.3124999999999997224, 3.000000000000000444, 0.000000000000000000 ) ) ;
#75 = DIRECTION ( 'NONE',  ( 1.000000000000000000, -5.442874662877122010E-17, 0.000000000000000000 ) ) ;
#76 = ORIENTED_EDGE ( 'NONE', *, *, #180, .F. ) ;
#77 = DIRECTION ( 'NONE',  ( 5.442874662877122626E-17, 1.000000000000000000, -0.000000000000000000 ) ) ;
#78 = DIRECTION ( 'NONE',  ( -0.000000000000000000, -1.000000000000000000, -0.000000000000000000 ) ) ;
#79 = AXIS2_PLACEMENT_3D ( 'NONE', #158, #208, #49 ) ;
#80 = AXIS2_PLACEMENT_3D ( 'NONE', #4, #162, #55 ) ;
#81 = SURFACE_STYLE_USAGE ( .BOTH. , #188 ) ;
#82 = DIMENSIONAL_EXPONENTS ( 1.000000000000000000, 0.000000000000000000, 0.000000000000000000, 0.000000000000000000, 0.000000000000000000, 0.000000000000000000, 0.000000000000000000 ) ;
#83 = DIRECTION ( 'NONE',  ( -1.000000000000000000, 0.000000000000000000, 0.000000000000000000 ) ) ;
#84 =( CONVERSION_BASED_UNIT ( 'INCH', #223 ) LENGTH_UNIT ( ) NAMED_UNIT ( #220 ) );
#85 =( LENGTH_UNIT ( ) NAMED_UNIT ( * ) SI_UNIT ( $, .METRE. ) );
#86 = CARTESIAN_POINT ( 'NONE',  ( 0.3125000000000000000, 3.000000000000000444, 3.827021247335477694E-17 ) ) ;
#87 = SURFACE_SIDE_STYLE ('',( #19 ) ) ;
#88 = CIRCLE ( 'NONE', #174, 0.3125000000000000000 ) ;
#89 =( NAMED_UNIT ( * ) PLANE_ANGLE_UNIT ( ) SI_UNIT ( $, .RADIAN. ) );
#90 = ADVANCED_FACE ( 'NONE', ( #140 ), #233, .F. ) ;
#91 = CARTESIAN_POINT ( 'NONE',  ( 0.000000000000000000, 0.000000000000000000, 0.000000000000000000 ) ) ;
#92 = VECTOR ( 'NONE', #286, 39.37007874015748143 ) ;
#93 = DIRECTION ( 'NONE',  ( -0.000000000000000000, -1.000000000000000000, -0.000000000000000000 ) ) ;
#94 = CARTESIAN_POINT ( 'NONE',  ( -1.516480271171051896E-32, 0.7499999999999998890, 0.000000000000000000 ) ) ;
#95 = PLANE ( 'NONE',  #80 ) ;
#96 = CLOSED_SHELL ( 'NONE', ( #183, #245, #178, #205 ) ) ;
#97 = DIRECTION ( 'NONE',  ( 5.442874662877122010E-17, 1.000000000000000000, -0.000000000000000000 ) ) ;
#98 = SURFACE_STYLE_USAGE ( .BOTH. , #139 ) ;
#99 = CARTESIAN_POINT ( 'NONE',  ( 0.000000000000000000, 0.7500000000000001110, -0.3125000000000000000 ) ) ;
#100 = EDGE_LOOP ( 'NONE', ( #69, #29, #216, #214 ) ) ;
#101 = EDGE_LOOP ( 'NONE', ( #76, #167 ) ) ;
#102 = PRESENTATION_LAYER_ASSIGNMENT (  '', '', ( #37 ) ) ;
#103 = LINE ( 'NONE', #291, #259 ) ;
#104 = FILL_AREA_STYLE ('',( #7 ) ) ;
#105 =( LENGTH_UNIT ( ) NAMED_UNIT ( * ) SI_UNIT ( $, .METRE. ) );
#106 = PRESENTATION_STYLE_ASSIGNMENT (( #81 ) ) ;
#107 = MECHANICAL_DESIGN_GEOMETRIC_PRESENTATION_REPRESENTATION (  '', ( #53 ), #231 ) ;
#108 = SURFACE_STYLE_USAGE ( .BOTH. , #17 ) ;
#109 = LENGTH_MEASURE_WITH_UNIT ( LENGTH_MEASURE( 0.02539999999999999897 ), #132 );
#110 = PRESENTATION_STYLE_ASSIGNMENT (( #108 ) ) ;
#111 = COLOUR_RGB ( '',0.7921568627450980005, 0.8196078431372548767, 0.9333333333333333481 ) ;
#112 = PLANE ( 'NONE',  #137 ) ;
#113 = DIRECTION ( 'NONE',  ( 0.000000000000000000, -1.000000000000000000, -0.000000000000000000 ) ) ;
#114 = EDGE_CURVE ( 'NONE', #159, #147, #284, .T. ) ;
#115 =( GEOMETRIC_REPRESENTATION_CONTEXT ( 3 ) GLOBAL_UNCERTAINTY_ASSIGNED_CONTEXT ( ( #44 ) ) GLOBAL_UNIT_ASSIGNED_CONTEXT ( ( #10, #154, #129 ) ) REPRESENTATION_CONTEXT ( 'NONE', 'WORKASPACE' ) );
#116 = UNCERTAINTY_MEASURE_WITH_UNIT (LENGTH_MEASURE( 1.000000000000000082E-05 ), #285, 'distance_accuracy_value', 'NONE');
#117 = SURFACE_STYLE_FILL_AREA ( #136 ) ;
#118 = CYLINDRICAL_SURFACE ( 'NONE', #130, 0.3125000000000000000 ) ;
#119 = VERTEX_POINT ( 'NONE', #99 ) ;
#120 = VECTOR ( 'NONE', #281, 39.37007874015748143 ) ;
#121 = AXIS2_PLACEMENT_3D ( 'NONE', #172, #177, #277 ) ;
#122 = VERTEX_POINT ( 'NONE', #189 ) ;
#123 = EDGE_LOOP ( 'NONE', ( #27, #125, #207, #194 ) ) ;
#124 = SURFACE_SIDE_STYLE ('',( #190 ) ) ;
#125 = ORIENTED_EDGE ( 'NONE', *, *, #15, .T. ) ;
#126 = CIRCLE ( 'NONE', #298, 0.3125000000000000000 ) ;
#127 = FACE_OUTER_BOUND ( 'NONE', #72, .T. ) ;
#128 = SURFACE_STYLE_USAGE ( .BOTH. , #246 ) ;
#129 =( NAMED_UNIT ( * ) SI_UNIT ( $, .STERADIAN. ) SOLID_ANGLE_UNIT ( ) );
#130 = AXIS2_PLACEMENT_3D ( 'NONE', #201, #297, #64 ) ;
#131 = MECHANICAL_DESIGN_GEOMETRIC_PRESENTATION_REPRESENTATION (  '', ( #282 ), #236 ) ;
#132 =( LENGTH_UNIT ( ) NAMED_UNIT ( * ) SI_UNIT ( $, .METRE. ) );
#133 = EDGE_CURVE ( 'NONE', #24, #290, #148, .T. ) ;
#134 = DIRECTION ( 'NONE',  ( 0.000000000000000000, 0.000000000000000000, -1.000000000000000000 ) ) ;
#135 = MANIFOLD_SOLID_BREP ( 'Revolve - Tool Body (Straight Shanked)', #43 ) ;
#136 = FILL_AREA_STYLE ('',( #45 ) ) ;
#137 = AXIS2_PLACEMENT_3D ( 'NONE', #91, #113, #48 ) ;
#138 = DIRECTION ( 'NONE',  ( -0.000000000000000000, -1.000000000000000000, -0.000000000000000000 ) ) ;
#139 = SURFACE_SIDE_STYLE ('',( #117 ) ) ;
#140 = FACE_OUTER_BOUND ( 'NONE', #265, .T. ) ;
#141 = UNCERTAINTY_MEASURE_WITH_UNIT (LENGTH_MEASURE( 1.000000000000000082E-05 ), #84, 'distance_accuracy_value', 'NONE');
#142 = CARTESIAN_POINT ( 'NONE',  ( 0.3125000000000000555, 3.000000000000000444, 3.827021247335477694E-17 ) ) ;
#143 = CARTESIAN_POINT ( 'NONE',  ( 1.224646799147352714E-16, 3.000000000000000444, 0.000000000000000000 ) ) ;
#144 = ORIENTED_EDGE ( 'NONE', *, *, #228, .T. ) ;
#145 = ORIENTED_EDGE ( 'NONE', *, *, #133, .T. ) ;
#146 = PRODUCT_DEFINITION ( 'UNKNOWN', '', #62, #42 ) ;
#147 = VERTEX_POINT ( 'NONE', #150 ) ;
#148 = CIRCLE ( 'NONE', #163, 0.3124999999999998890 ) ;
#149 = AXIS2_PLACEMENT_3D ( 'NONE', #192, #288, #75 ) ;
#150 = CARTESIAN_POINT ( 'NONE',  ( 3.827021247335478926E-17, 0.000000000000000000, 0.3125000000000000000 ) ) ;
#151 =( NAMED_UNIT ( * ) PLANE_ANGLE_UNIT ( ) SI_UNIT ( $, .RADIAN. ) );
#152 = LENGTH_MEASURE_WITH_UNIT ( LENGTH_MEASURE( 0.02539999999999999897 ), #85 );
#153 = AXIS2_PLACEMENT_3D ( 'NONE', #306, #97, #186 ) ;
#154 =( NAMED_UNIT ( * ) PLANE_ANGLE_UNIT ( ) SI_UNIT ( $, .RADIAN. ) );
#155 = CARTESIAN_POINT ( 'NONE',  ( 1.224646799147352714E-16, 3.000000000000000444, 0.000000000000000000 ) ) ;
#156 = FILL_AREA_STYLE_COLOUR ( '', #243 ) ;
#157 = CARTESIAN_POINT ( 'NONE',  ( 0.3125000000000000000, 0.7499999999999998890, 3.827021247335477694E-17 ) ) ;
#158 = CARTESIAN_POINT ( 'NONE',  ( -1.516480271171051896E-32, 0.7499999999999998890, 0.000000000000000000 ) ) ;
#159 = VERTEX_POINT ( 'NONE', #247 ) ;
#160 = FACE_OUTER_BOUND ( 'NONE', #100, .T. ) ;
#161 = ORIENTED_EDGE ( 'NONE', *, *, #59, .F. ) ;
#162 = DIRECTION ( 'NONE',  ( 0.000000000000000000, 1.000000000000000000, 0.000000000000000000 ) ) ;
#163 = AXIS2_PLACEMENT_3D ( 'NONE', #63, #274, #34 ) ;
#164 = AXIS2_PLACEMENT_3D ( 'NONE', #143, #235, #83 ) ;
#165 = ORIENTED_EDGE ( 'NONE', *, *, #251, .T. ) ;
#166 = PRESENTATION_STYLE_ASSIGNMENT (( #98 ) ) ;
#167 = ORIENTED_EDGE ( 'NONE', *, *, #227, .F. ) ;
#168 =( NAMED_UNIT ( * ) PLANE_ANGLE_UNIT ( ) SI_UNIT ( $, .RADIAN. ) );
#169 = DIRECTION ( 'NONE',  ( -0.000000000000000000, -1.000000000000000000, -0.000000000000000000 ) ) ;
#170 = SURFACE_STYLE_FILL_AREA ( #38 ) ;
#171 = AXIS2_PLACEMENT_3D ( 'NONE', #242, #169, #219 ) ;
#172 = CARTESIAN_POINT ( 'NONE',  ( 0.000000000000000000, 0.000000000000000000, 0.000000000000000000 ) ) ;
#173 =( NAMED_UNIT ( * ) SI_UNIT ( $, .STERADIAN. ) SOLID_ANGLE_UNIT ( ) );
#174 = AXIS2_PLACEMENT_3D ( 'NONE', #182, #279, #134 ) ;
#175 =( CONVERSION_BASED_UNIT ( 'INCH', #16 ) LENGTH_UNIT ( ) NAMED_UNIT ( #271 ) );
#176 = SURFACE_STYLE_USAGE ( .BOTH. , #87 ) ;
#177 = DIRECTION ( 'NONE',  ( 0.000000000000000000, 0.000000000000000000, 1.000000000000000000 ) ) ;
#178 = ADVANCED_FACE ( 'NONE', ( #295 ), #301, .T. ) ;
#179 = PRESENTATION_LAYER_ASSIGNMENT (  '', '', ( #61 ) ) ;
#180 = EDGE_CURVE ( 'NONE', #119, #159, #289, .T. ) ;
#181 = ORIENTED_EDGE ( 'NONE', *, *, #180, .T. ) ;
#182 = CARTESIAN_POINT ( 'NONE',  ( 0.000000000000000000, 0.000000000000000000, 0.000000000000000000 ) ) ;
#183 = ADVANCED_FACE ( 'NONE', ( #273 ), #118, .T. ) ;
#184 = UNCERTAINTY_MEASURE_WITH_UNIT (LENGTH_MEASURE( 1.000000000000000082E-05 ), #39, 'distance_accuracy_value', 'NONE');
#185 =( GEOMETRIC_REPRESENTATION_CONTEXT ( 3 ) GLOBAL_UNCERTAINTY_ASSIGNED_CONTEXT ( ( #65 ) ) GLOBAL_UNIT_ASSIGNED_CONTEXT ( ( #175, #151, #14 ) ) REPRESENTATION_CONTEXT ( 'NONE', 'WORKASPACE' ) );
#186 = DIRECTION ( 'NONE',  ( -1.000000000000000000, 5.442874662877122010E-17, 0.000000000000000000 ) ) ;
#187 = PLANE ( 'NONE',  #149 ) ;
#188 = SURFACE_SIDE_STYLE ('',( #197 ) ) ;
#189 = CARTESIAN_POINT ( 'NONE',  ( -0.3125000000000000000, 0.7499999999999998890, 0.000000000000000000 ) ) ;
#190 = SURFACE_STYLE_FILL_AREA ( #307 ) ;
#191 = VERTEX_POINT ( 'NONE', #253 ) ;
#192 = CARTESIAN_POINT ( 'NONE',  ( 0.3125000000000000000, 3.000000000000000444, 0.000000000000000000 ) ) ;
#193 = APPLICATION_CONTEXT ( 'automotive_design' ) ;
#194 = ORIENTED_EDGE ( 'NONE', *, *, #35, .F. ) ;
#195 = PRESENTATION_STYLE_ASSIGNMENT (( #213 ) ) ;
#196 = DIMENSIONAL_EXPONENTS ( 1.000000000000000000, 0.000000000000000000, 0.000000000000000000, 0.000000000000000000, 0.000000000000000000, 0.000000000000000000, 0.000000000000000000 ) ;
#197 = SURFACE_STYLE_FILL_AREA ( #211 ) ;
#198 = MECHANICAL_DESIGN_GEOMETRIC_PRESENTATION_REPRESENTATION (  '', ( #61 ), #52 ) ;
#199 = APPLICATION_CONTEXT ( 'automotive_design' ) ;
#200 = DIMENSIONAL_EXPONENTS ( 1.000000000000000000, 0.000000000000000000, 0.000000000000000000, 0.000000000000000000, 0.000000000000000000, 0.000000000000000000, 0.000000000000000000 ) ;
#201 = CARTESIAN_POINT ( 'NONE',  ( 0.000000000000000000, 0.000000000000000000, 0.000000000000000000 ) ) ;
#202 = CIRCLE ( 'NONE', #68, 0.3125000000000000000 ) ;
#203 = AXIS2_PLACEMENT_3D ( 'NONE', #155, #40, #8 ) ;
#204 = PRESENTATION_STYLE_ASSIGNMENT (( #176 ) ) ;
#205 = ADVANCED_FACE ( 'NONE', ( #36 ), #112, .T. ) ;
#206 = PRESENTATION_LAYER_ASSIGNMENT (  '', '', ( #282 ) ) ;
#207 = ORIENTED_EDGE ( 'NONE', *, *, #133, .F. ) ;
#208 = DIRECTION ( 'NONE',  ( 5.442874662877122626E-17, 1.000000000000000000, -0.000000000000000000 ) ) ;
#209 = COLOUR_RGB ( '',0.7921568627450980005, 0.8196078431372548767, 0.9333333333333333481 ) ;
#210 = UNCERTAINTY_MEASURE_WITH_UNIT (LENGTH_MEASURE( 1.000000000000000082E-05 ), #57, 'distance_accuracy_value', 'NONE');
#211 = FILL_AREA_STYLE ('',( #156 ) ) ;
#212 = DIRECTION ( 'NONE',  ( -0.000000000000000000, -1.000000000000000000, -0.000000000000000000 ) ) ;
#213 = SURFACE_STYLE_USAGE ( .BOTH. , #124 ) ;
#214 = ORIENTED_EDGE ( 'NONE', *, *, #251, .F. ) ;
#215 =( NAMED_UNIT ( * ) PLANE_ANGLE_UNIT ( ) SI_UNIT ( $, .RADIAN. ) );
#216 = ORIENTED_EDGE ( 'NONE', *, *, #35, .T. ) ;
#217 = COLOUR_RGB ( '',1.000000000000000000, 0.000000000000000000, 0.000000000000000000 ) ;
#218 = ADVANCED_BREP_SHAPE_REPRESENTATION ( '23240', ( #238, #135, #121 ), #185 ) ;
#219 = DIRECTION ( 'NONE',  ( 0.000000000000000000, 0.000000000000000000, -1.000000000000000000 ) ) ;
#220 = DIMENSIONAL_EXPONENTS ( 1.000000000000000000, 0.000000000000000000, 0.000000000000000000, 0.000000000000000000, 0.000000000000000000, 0.000000000000000000, 0.000000000000000000 ) ;
#221 =( LENGTH_UNIT ( ) NAMED_UNIT ( * ) SI_UNIT ( $, .METRE. ) );
#222 = APPLICATION_PROTOCOL_DEFINITION ( 'draft international standard', 'automotive_design', 1998, #199 ) ;
#223 = LENGTH_MEASURE_WITH_UNIT ( LENGTH_MEASURE( 0.02539999999999999897 ), #276 );
#224 = EDGE_CURVE ( 'NONE', #191, #147, #88, .T. ) ;
#225 = AXIS2_PLACEMENT_3D ( 'NONE', #46, #138, #232 ) ;
#226 = FACE_OUTER_BOUND ( 'NONE', #123, .T. ) ;
#227 = EDGE_CURVE ( 'NONE', #159, #119, #126, .T. ) ;
#228 = EDGE_CURVE ( 'NONE', #147, #191, #202, .T. ) ;
#229 = FILL_AREA_STYLE ('',( #41 ) ) ;
#230 = COLOUR_RGB ( '',1.000000000000000000, 0.000000000000000000, 0.000000000000000000 ) ;
#231 =( GEOMETRIC_REPRESENTATION_CONTEXT ( 3 ) GLOBAL_UNCERTAINTY_ASSIGNED_CONTEXT ( ( #210 ) ) GLOBAL_UNIT_ASSIGNED_CONTEXT ( ( #57, #168, #73 ) ) REPRESENTATION_CONTEXT ( 'NONE', 'WORKASPACE' ) );
#232 = DIRECTION ( 'NONE',  ( 0.000000000000000000, 0.000000000000000000, -1.000000000000000000 ) ) ;
#233 = PLANE ( 'NONE',  #153 ) ;
#234 = DIRECTION ( 'NONE',  ( 5.442874662877122626E-17, 1.000000000000000000, -0.000000000000000000 ) ) ;
#235 = DIRECTION ( 'NONE',  ( 5.442874662877122626E-17, 1.000000000000000000, -0.000000000000000000 ) ) ;
#236 =( GEOMETRIC_REPRESENTATION_CONTEXT ( 3 ) GLOBAL_UNCERTAINTY_ASSIGNED_CONTEXT ( ( #23 ) ) GLOBAL_UNIT_ASSIGNED_CONTEXT ( ( #272, #215, #26 ) ) REPRESENTATION_CONTEXT ( 'NONE', 'WORKASPACE' ) );
#237 = VERTEX_POINT ( 'NONE', #157 ) ;
#238 = MANIFOLD_SOLID_BREP ( 'Revolve - Cutting Edge', #96 ) ;
#239 = ORIENTED_EDGE ( 'NONE', *, *, #224, .T. ) ;
#240 =( LENGTH_UNIT ( ) NAMED_UNIT ( * ) SI_UNIT ( $, .METRE. ) );
#241 = ORIENTED_EDGE ( 'NONE', *, *, #114, .F. ) ;
#242 = CARTESIAN_POINT ( 'NONE',  ( 0.000000000000000000, 0.000000000000000000, 0.000000000000000000 ) ) ;
#243 = COLOUR_RGB ( '',1.000000000000000000, 0.000000000000000000, 0.000000000000000000 ) ;
#244 = CIRCLE ( 'NONE', #303, 0.3124999999999998890 ) ;
#245 = ADVANCED_FACE ( 'NONE', ( #2 ), #95, .T. ) ;
#246 = SURFACE_SIDE_STYLE ('',( #170 ) ) ;
#247 = CARTESIAN_POINT ( 'NONE',  ( 3.827021247335478926E-17, 0.7500000000000001110, 0.3125000000000000000 ) ) ;
#248 = DIMENSIONAL_EXPONENTS ( 1.000000000000000000, 0.000000000000000000, 0.000000000000000000, 0.000000000000000000, 0.000000000000000000, 0.000000000000000000, 0.000000000000000000 ) ;
#249 = MECHANICAL_DESIGN_GEOMETRIC_PRESENTATION_REPRESENTATION (  '', ( #37 ), #47 ) ;
#250 = PRESENTATION_STYLE_ASSIGNMENT (( #128 ) ) ;
#251 = EDGE_CURVE ( 'NONE', #290, #24, #244, .T. ) ;
#252 = APPLICATION_PROTOCOL_DEFINITION ( 'draft international standard', 'automotive_design', 1998, #193 ) ;
#253 = CARTESIAN_POINT ( 'NONE',  ( 0.000000000000000000, 0.000000000000000000, -0.3125000000000000000 ) ) ;
#254 = AXIS2_PLACEMENT_3D ( 'NONE', #94, #234, #268 ) ;
#255 = CARTESIAN_POINT ( 'NONE',  ( 0.000000000000000000, 0.000000000000000000, 0.000000000000000000 ) ) ;
#256 = ADVANCED_FACE ( 'NONE', ( #127 ), #187, .F. ) ;
#257 = CIRCLE ( 'NONE', #79, 0.3125000000000000000 ) ;
#258 = DIRECTION ( 'NONE',  ( 0.000000000000000000, 0.000000000000000000, -1.000000000000000000 ) ) ;
#259 = VECTOR ( 'NONE', #78, 39.37007874015748143 ) ;
#260 = EDGE_CURVE ( 'NONE', #119, #191, #103, .T. ) ;
#261 = EDGE_LOOP ( 'NONE', ( #181, #51, #30, #58 ) ) ;
#262 = ORIENTED_EDGE ( 'NONE', *, *, #227, .T. ) ;
#263 = DIMENSIONAL_EXPONENTS ( 1.000000000000000000, 0.000000000000000000, 0.000000000000000000, 0.000000000000000000, 0.000000000000000000, 0.000000000000000000, 0.000000000000000000 ) ;
#264 = CYLINDRICAL_SURFACE ( 'NONE', #164, 0.3124999999999999445 ) ;
#265 = EDGE_LOOP ( 'NONE', ( #1, #161 ) ) ;
#266 =( GEOMETRIC_REPRESENTATION_CONTEXT ( 3 ) GLOBAL_UNCERTAINTY_ASSIGNED_CONTEXT ( ( #184 ) ) GLOBAL_UNIT_ASSIGNED_CONTEXT ( ( #39, #89, #278 ) ) REPRESENTATION_CONTEXT ( 'NONE', 'WORKASPACE' ) );
#267 = LINE ( 'NONE', #142, #92 ) ;
#268 = DIRECTION ( 'NONE',  ( -1.000000000000000000, 0.000000000000000000, 0.000000000000000000 ) ) ;
#269 =( LENGTH_UNIT ( ) NAMED_UNIT ( * ) SI_UNIT ( $, .METRE. ) );
#270 = ADVANCED_FACE ( 'NONE', ( #160 ), #264, .T. ) ;
#271 = DIMENSIONAL_EXPONENTS ( 1.000000000000000000, 0.000000000000000000, 0.000000000000000000, 0.000000000000000000, 0.000000000000000000, 0.000000000000000000, 0.000000000000000000 ) ;
#272 =( CONVERSION_BASED_UNIT ( 'INCH', #6 ) LENGTH_UNIT ( ) NAMED_UNIT ( #248 ) );
#273 = FACE_OUTER_BOUND ( 'NONE', #261, .T. ) ;
#274 = DIRECTION ( 'NONE',  ( 5.442874662877122626E-17, 1.000000000000000000, -0.000000000000000000 ) ) ;
#275 = PRESENTATION_LAYER_ASSIGNMENT (  '', '', ( #53 ) ) ;
#276 =( LENGTH_UNIT ( ) NAMED_UNIT ( * ) SI_UNIT ( $, .METRE. ) );
#277 = DIRECTION ( 'NONE',  ( 1.000000000000000000, 0.000000000000000000, 0.000000000000000000 ) ) ;
#278 =( NAMED_UNIT ( * ) SI_UNIT ( $, .STERADIAN. ) SOLID_ANGLE_UNIT ( ) );
#279 = DIRECTION ( 'NONE',  ( -0.000000000000000000, -1.000000000000000000, -0.000000000000000000 ) ) ;
#280 = CARTESIAN_POINT ( 'NONE',  ( 0.000000000000000000, 0.7500000000000001110, 0.000000000000000000 ) ) ;
#281 = DIRECTION ( 'NONE',  ( 5.442874662877122010E-17, 1.000000000000000000, -0.000000000000000000 ) ) ;
#282 = STYLED_ITEM ( 'NONE', ( #166 ), #238 ) ;
#283 = ADVANCED_FACE ( 'NONE', ( #226 ), #294, .T. ) ;
#284 = LINE ( 'NONE', #71, #25 ) ;
#285 =( CONVERSION_BASED_UNIT ( 'INCH', #9 ) LENGTH_UNIT ( ) NAMED_UNIT ( #82 ) );
#286 = DIRECTION ( 'NONE',  ( 5.442874662877122010E-17, 1.000000000000000000, -0.000000000000000000 ) ) ;
#287 = LENGTH_MEASURE_WITH_UNIT ( LENGTH_MEASURE( 0.02539999999999999897 ), #240 );
#288 = DIRECTION ( 'NONE',  ( -5.442874662877122010E-17, -1.000000000000000000, 0.000000000000000000 ) ) ;
#289 = CIRCLE ( 'NONE', #225, 0.3125000000000000000 ) ;
#290 = VERTEX_POINT ( 'NONE', #86 ) ;
#291 = CARTESIAN_POINT ( 'NONE',  ( 0.000000000000000000, 0.000000000000000000, -0.3125000000000000000 ) ) ;
#292 = FILL_AREA_STYLE_COLOUR ( '', #209 ) ;
#293 = PRESENTATION_LAYER_ASSIGNMENT (  '', '', ( #18 ) ) ;
#294 = CYLINDRICAL_SURFACE ( 'NONE', #203, 0.3124999999999999445 ) ;
#295 = FACE_OUTER_BOUND ( 'NONE', #305, .T. ) ;
#296 = PRODUCT_CONTEXT ( 'NONE', #199, 'mechanical' ) ;
#297 = DIRECTION ( 'NONE',  ( -0.000000000000000000, -1.000000000000000000, -0.000000000000000000 ) ) ;
#298 = AXIS2_PLACEMENT_3D ( 'NONE', #280, #304, #258 ) ;
#299 = SURFACE_STYLE_FILL_AREA ( #104 ) ;
#300 = PRODUCT ( '23240', '23240', '', ( #296 ) ) ;
#301 = CYLINDRICAL_SURFACE ( 'NONE', #171, 0.3125000000000000000 ) ;
#302 = CIRCLE ( 'NONE', #254, 0.3125000000000000000 ) ;
#303 = AXIS2_PLACEMENT_3D ( 'NONE', #31, #77, #60 ) ;
#304 = DIRECTION ( 'NONE',  ( -0.000000000000000000, -1.000000000000000000, -0.000000000000000000 ) ) ;
#305 = EDGE_LOOP ( 'NONE', ( #241, #262, #50, #21 ) ) ;
#306 = CARTESIAN_POINT ( 'NONE',  ( 4.628888218092148898E-34, 0.7500000000000001110, 0.000000000000000000 ) ) ;
#307 = FILL_AREA_STYLE ('',( #309 ) ) ;
#308 = LINE ( 'NONE', #56, #120 ) ;
#309 = FILL_AREA_STYLE_COLOUR ( '', #13 ) ;
ENDSEC;
END-ISO-10303-21;
