ISO-10303-21;
HEADER;
FILE_DESCRIPTION (( 'STEP AP214' ),
    '1' );
FILE_NAME ('81365.STEP',
    '2023-06-23T00:42:09',
    ( '' ),
    ( '' ),
    'SwSTEP 2.0',
    'SolidWorks 2023',
    '' );
FILE_SCHEMA (( 'AUTOMOTIVE_DESIGN' ));
ENDSEC;

DATA;
#1 = AXIS2_PLACEMENT_3D ( 'NONE', #166, #188, #40 ) ;
#2 = ORIENTED_EDGE ( 'NONE', *, *, #77, .T. ) ;
#3 =( LENGTH_UNIT ( ) NAMED_UNIT ( * ) SI_UNIT ( $, .METRE. ) );
#4 = ORIENTED_EDGE ( 'NONE', *, *, #175, .F. ) ;
#5 = PRODUCT_CONTEXT ( 'NONE', #155, 'mechanical' ) ;
#6 = ORIENTED_EDGE ( 'NONE', *, *, #77, .F. ) ;
#7 = MANIFOLD_SOLID_BREP ( 'Revolve - Cutting Edge', #298 ) ;
#8 = VECTOR ( 'NONE', #136, 39.37007874015748143 ) ;
#9 = CARTESIAN_POINT ( 'NONE',  ( 3.061616997868383141E-16, 2.500000000000000000, 0.000000000000000000 ) ) ;
#10 = CARTESIAN_POINT ( 'NONE',  ( -6.065921084684207584E-32, 1.000000000000000000, 0.000000000000000000 ) ) ;
#11 = DIMENSIONAL_EXPONENTS ( 1.000000000000000000, 0.000000000000000000, 0.000000000000000000, 0.000000000000000000, 0.000000000000000000, 0.000000000000000000, 0.000000000000000000 ) ;
#12 =( NAMED_UNIT ( * ) SI_UNIT ( $, .STERADIAN. ) SOLID_ANGLE_UNIT ( ) );
#13 = LINE ( 'NONE', #117, #113 ) ;
#14 =( GEOMETRIC_REPRESENTATION_CONTEXT ( 3 ) GLOBAL_UNCERTAINTY_ASSIGNED_CONTEXT ( ( #270 ) ) GLOBAL_UNIT_ASSIGNED_CONTEXT ( ( #15, #193, #36 ) ) REPRESENTATION_CONTEXT ( 'NONE', 'WORKASPACE' ) );
#15 =( CONVERSION_BASED_UNIT ( 'INCH', #236 ) LENGTH_UNIT ( ) NAMED_UNIT ( #48 ) );
#16 = DIRECTION ( 'NONE',  ( -0.000000000000000000, -1.000000000000000000, -0.000000000000000000 ) ) ;
#17 = SURFACE_STYLE_FILL_AREA ( #67 ) ;
#18 = DIRECTION ( 'NONE',  ( 1.000000000000000000, -2.041077998578922341E-16, 0.000000000000000000 ) ) ;
#19 = EDGE_CURVE ( 'NONE', #271, #267, #125, .T. ) ;
#20 = UNCERTAINTY_MEASURE_WITH_UNIT (LENGTH_MEASURE( 1.000000000000000082E-05 ), #53, 'distance_accuracy_value', 'NONE');
#21 = AXIS2_PLACEMENT_3D ( 'NONE', #301, #299, #261 ) ;
#22 = MECHANICAL_DESIGN_GEOMETRIC_PRESENTATION_REPRESENTATION (  '', ( #51 ), #148 ) ;
#23 = PLANE ( 'NONE',  #70 ) ;
#24 = PRESENTATION_STYLE_ASSIGNMENT (( #171 ) ) ;
#25 = CIRCLE ( 'NONE', #306, 0.09374999999999998612 ) ;
#26 = CARTESIAN_POINT ( 'NONE',  ( 0.09374999999999998612, 2.500000000000000000, 1.148106374200642322E-17 ) ) ;
#27 = CARTESIAN_POINT ( 'NONE',  ( 0.000000000000000000, 1.000000000000000000, 0.000000000000000000 ) ) ;
#28 = CARTESIAN_POINT ( 'NONE',  ( 3.061616997868383141E-16, 2.500000000000000000, 0.000000000000000000 ) ) ;
#29 = PRODUCT ( '81365', '81365', '', ( #5 ) ) ;
#30 = CIRCLE ( 'NONE', #132, 0.09374999999999968081 ) ;
#31 = DIRECTION ( 'NONE',  ( 0.000000000000000000, 0.000000000000000000, -1.000000000000000000 ) ) ;
#32 = DIRECTION ( 'NONE',  ( -1.000000000000000000, 0.000000000000000000, 0.000000000000000000 ) ) ;
#33 = VERTEX_POINT ( 'NONE', #26 ) ;
#34 = DIRECTION ( 'NONE',  ( 2.041077998578922341E-16, 1.000000000000000000, -0.000000000000000000 ) ) ;
#35 = STYLED_ITEM ( 'NONE', ( #300 ), #94 ) ;
#36 =( NAMED_UNIT ( * ) SI_UNIT ( $, .STERADIAN. ) SOLID_ANGLE_UNIT ( ) );
#37 = DIRECTION ( 'NONE',  ( -1.000000000000000000, 0.000000000000000000, 0.000000000000000000 ) ) ;
#38 = FACE_OUTER_BOUND ( 'NONE', #43, .T. ) ;
#39 =( CONVERSION_BASED_UNIT ( 'INCH', #232 ) LENGTH_UNIT ( ) NAMED_UNIT ( #307 ) );
#40 = DIRECTION ( 'NONE',  ( -1.000000000000000000, 2.041077998578922341E-16, 0.000000000000000000 ) ) ;
#41 =( NAMED_UNIT ( * ) PLANE_ANGLE_UNIT ( ) SI_UNIT ( $, .RADIAN. ) );
#42 =( NAMED_UNIT ( * ) PLANE_ANGLE_UNIT ( ) SI_UNIT ( $, .RADIAN. ) );
#43 = EDGE_LOOP ( 'NONE', ( #86, #133 ) ) ;
#44 = SURFACE_STYLE_FILL_AREA ( #216 ) ;
#45 = COLOUR_RGB ( '',1.000000000000000000, 0.000000000000000000, 0.000000000000000000 ) ;
#46 = FILL_AREA_STYLE ('',( #219 ) ) ;
#47 = APPLICATION_CONTEXT ( 'automotive_design' ) ;
#48 = DIMENSIONAL_EXPONENTS ( 1.000000000000000000, 0.000000000000000000, 0.000000000000000000, 0.000000000000000000, 0.000000000000000000, 0.000000000000000000, 0.000000000000000000 ) ;
#49 =( NAMED_UNIT ( * ) SI_UNIT ( $, .STERADIAN. ) SOLID_ANGLE_UNIT ( ) );
#50 = VECTOR ( 'NONE', #34, 39.37007874015748143 ) ;
#51 = STYLED_ITEM ( 'NONE', ( #24 ), #52 ) ;
#52 = ADVANCED_FACE ( 'NONE', ( #239 ), #23, .T. ) ;
#53 =( CONVERSION_BASED_UNIT ( 'INCH', #126 ) LENGTH_UNIT ( ) NAMED_UNIT ( #288 ) );
#54 = ORIENTED_EDGE ( 'NONE', *, *, #269, .T. ) ;
#55 = COLOUR_RGB ( '',1.000000000000000000, 0.000000000000000000, 0.000000000000000000 ) ;
#56 = CARTESIAN_POINT ( 'NONE',  ( 0.09374999999999998612, 1.000000000000000000, 1.148106374200642322E-17 ) ) ;
#57 = ADVANCED_FACE ( 'NONE', ( #38 ), #237, .F. ) ;
#58 = ORIENTED_EDGE ( 'NONE', *, *, #175, .T. ) ;
#59 = DIRECTION ( 'NONE',  ( -1.000000000000000000, 0.000000000000000000, 0.000000000000000000 ) ) ;
#60 = ADVANCED_FACE ( 'NONE', ( #158 ), #255, .F. ) ;
#61 =( GEOMETRIC_REPRESENTATION_CONTEXT ( 3 ) GLOBAL_UNCERTAINTY_ASSIGNED_CONTEXT ( ( #246 ) ) GLOBAL_UNIT_ASSIGNED_CONTEXT ( ( #242, #264, #49 ) ) REPRESENTATION_CONTEXT ( 'NONE', 'WORKASPACE' ) );
#62 = SURFACE_SIDE_STYLE ('',( #17 ) ) ;
#63 = LENGTH_MEASURE_WITH_UNIT ( LENGTH_MEASURE( 0.02539999999999999897 ), #108 );
#64 = VERTEX_POINT ( 'NONE', #163 ) ;
#65 = ADVANCED_BREP_SHAPE_REPRESENTATION ( '81365', ( #7, #223, #85 ), #181 ) ;
#66 = CARTESIAN_POINT ( 'NONE',  ( 0.09375000000000013878, 2.500000000000000000, 1.148106374200641552E-17 ) ) ;
#67 = FILL_AREA_STYLE ('',( #160 ) ) ;
#68 = PRESENTATION_STYLE_ASSIGNMENT (( #114 ) ) ;
#69 = FILL_AREA_STYLE_COLOUR ( '', #174 ) ;
#70 = AXIS2_PLACEMENT_3D ( 'NONE', #131, #103, #286 ) ;
#71 = EDGE_LOOP ( 'NONE', ( #262, #243, #2, #279 ) ) ;
#72 = FILL_AREA_STYLE_COLOUR ( '', #45 ) ;
#73 = ORIENTED_EDGE ( 'NONE', *, *, #19, .F. ) ;
#74 = COLOUR_RGB ( '',0.7921568627450980005, 0.8196078431372548767, 0.9333333333333333481 ) ;
#75 = CLOSED_SHELL ( 'NONE', ( #222, #60, #235, #57 ) ) ;
#76 =( CONVERSION_BASED_UNIT ( 'INCH', #197 ) LENGTH_UNIT ( ) NAMED_UNIT ( #183 ) );
#77 = EDGE_CURVE ( 'NONE', #267, #204, #259, .T. ) ;
#78 =( NAMED_UNIT ( * ) PLANE_ANGLE_UNIT ( ) SI_UNIT ( $, .RADIAN. ) );
#79 = AXIS2_PLACEMENT_3D ( 'NONE', #274, #157, #90 ) ;
#80 =( NAMED_UNIT ( * ) PLANE_ANGLE_UNIT ( ) SI_UNIT ( $, .RADIAN. ) );
#81 = VERTEX_POINT ( 'NONE', #140 ) ;
#82 =( CONVERSION_BASED_UNIT ( 'INCH', #266 ) LENGTH_UNIT ( ) NAMED_UNIT ( #198 ) );
#83 = ORIENTED_EDGE ( 'NONE', *, *, #200, .F. ) ;
#84 = CARTESIAN_POINT ( 'NONE',  ( 0.000000000000000000, 0.000000000000000000, 0.000000000000000000 ) ) ;
#85 = AXIS2_PLACEMENT_3D ( 'NONE', #84, #129, #228 ) ;
#86 = ORIENTED_EDGE ( 'NONE', *, *, #191, .T. ) ;
#87 = STYLED_ITEM ( 'NONE', ( #147 ), #7 ) ;
#88 = EDGE_LOOP ( 'NONE', ( #203, #154 ) ) ;
#89 = DIRECTION ( 'NONE',  ( -0.000000000000000000, -1.000000000000000000, -0.000000000000000000 ) ) ;
#90 = DIRECTION ( 'NONE',  ( 0.000000000000000000, 0.000000000000000000, -1.000000000000000000 ) ) ;
#91 = VECTOR ( 'NONE', #231, 39.37007874015748143 ) ;
#92 = CARTESIAN_POINT ( 'NONE',  ( 3.061616997868383141E-16, 2.500000000000000000, 0.000000000000000000 ) ) ;
#93 =( CONVERSION_BASED_UNIT ( 'INCH', #63 ) LENGTH_UNIT ( ) NAMED_UNIT ( #11 ) );
#94 = ADVANCED_FACE ( 'NONE', ( #137 ), #205, .T. ) ;
#95 = FACE_OUTER_BOUND ( 'NONE', #127, .T. ) ;
#96 = FILL_AREA_STYLE ('',( #185 ) ) ;
#97 = AXIS2_PLACEMENT_3D ( 'NONE', #27, #172, #308 ) ;
#98 = PRESENTATION_STYLE_ASSIGNMENT (( #254 ) ) ;
#99 = CARTESIAN_POINT ( 'NONE',  ( -6.065921084684207584E-32, 1.000000000000000000, 0.000000000000000000 ) ) ;
#100 = SURFACE_SIDE_STYLE ('',( #122 ) ) ;
#101 = AXIS2_PLACEMENT_3D ( 'NONE', #150, #178, #31 ) ;
#102 = EDGE_CURVE ( 'NONE', #64, #247, #13, .T. ) ;
#103 = DIRECTION ( 'NONE',  ( 0.000000000000000000, 1.000000000000000000, 0.000000000000000000 ) ) ;
#104 = CIRCLE ( 'NONE', #217, 0.09374999999999968081 ) ;
#105 =( NAMED_UNIT ( * ) SI_UNIT ( $, .STERADIAN. ) SOLID_ANGLE_UNIT ( ) );
#106 = APPLICATION_PROTOCOL_DEFINITION ( 'draft international standard', 'automotive_design', 1998, #47 ) ;
#107 = CARTESIAN_POINT ( 'NONE',  ( 0.000000000000000000, 0.000000000000000000, 0.000000000000000000 ) ) ;
#108 =( LENGTH_UNIT ( ) NAMED_UNIT ( * ) SI_UNIT ( $, .METRE. ) );
#109 = EDGE_CURVE ( 'NONE', #64, #81, #25, .T. ) ;
#110 = DIMENSIONAL_EXPONENTS ( 1.000000000000000000, 0.000000000000000000, 0.000000000000000000, 0.000000000000000000, 0.000000000000000000, 0.000000000000000000, 0.000000000000000000 ) ;
#111 = CARTESIAN_POINT ( 'NONE',  ( 0.000000000000000000, 1.000000000000000000, 0.000000000000000000 ) ) ;
#112 = SURFACE_SIDE_STYLE ('',( #257 ) ) ;
#113 = VECTOR ( 'NONE', #161, 39.37007874015748143 ) ;
#114 = SURFACE_STYLE_USAGE ( .BOTH. , #112 ) ;
#115 = ORIENTED_EDGE ( 'NONE', *, *, #102, .F. ) ;
#116 = FACE_OUTER_BOUND ( 'NONE', #71, .T. ) ;
#117 = CARTESIAN_POINT ( 'NONE',  ( 0.000000000000000000, 0.000000000000000000, -0.09374999999999998612 ) ) ;
#118 = CYLINDRICAL_SURFACE ( 'NONE', #211, 0.09374999999999983347 ) ;
#119 = PRODUCT_DEFINITION_FORMATION_WITH_SPECIFIED_SOURCE ( 'ANY', '', #29, .NOT_KNOWN. ) ;
#120 = EDGE_CURVE ( 'NONE', #267, #271, #138, .T. ) ;
#121 = FILL_AREA_STYLE ('',( #285 ) ) ;
#122 = SURFACE_STYLE_FILL_AREA ( #121 ) ;
#123 = EDGE_CURVE ( 'NONE', #271, #33, #208, .T. ) ;
#124 = SURFACE_STYLE_USAGE ( .BOTH. , #283 ) ;
#125 = CIRCLE ( 'NONE', #292, 0.09374999999999998612 ) ;
#126 = LENGTH_MEASURE_WITH_UNIT ( LENGTH_MEASURE( 0.02539999999999999897 ), #268 );
#127 = EDGE_LOOP ( 'NONE', ( #224, #260, #4, #115 ) ) ;
#128 = UNCERTAINTY_MEASURE_WITH_UNIT (LENGTH_MEASURE( 1.000000000000000082E-05 ), #76, 'distance_accuracy_value', 'NONE');
#129 = DIRECTION ( 'NONE',  ( 0.000000000000000000, 0.000000000000000000, 1.000000000000000000 ) ) ;
#130 = DIRECTION ( 'NONE',  ( -0.000000000000000000, -1.000000000000000000, -0.000000000000000000 ) ) ;
#131 = CARTESIAN_POINT ( 'NONE',  ( 0.000000000000000000, 1.000000000000000000, 0.000000000000000000 ) ) ;
#132 = AXIS2_PLACEMENT_3D ( 'NONE', #28, #229, #32 ) ;
#133 = ORIENTED_EDGE ( 'NONE', *, *, #272, .T. ) ;
#134 = PLANE ( 'NONE',  #21 ) ;
#135 = DIRECTION ( 'NONE',  ( 0.000000000000000000, 0.000000000000000000, -1.000000000000000000 ) ) ;
#136 = DIRECTION ( 'NONE',  ( 2.041077998578922341E-16, 1.000000000000000000, -0.000000000000000000 ) ) ;
#137 = FACE_OUTER_BOUND ( 'NONE', #151, .T. ) ;
#138 = CIRCLE ( 'NONE', #273, 0.09374999999999998612 ) ;
#139 = DIRECTION ( 'NONE',  ( -1.000000000000000000, 0.000000000000000000, 0.000000000000000000 ) ) ;
#140 = CARTESIAN_POINT ( 'NONE',  ( 1.148106374200643401E-17, 1.000000000000000000, 0.09374999999999998612 ) ) ;
#141 = LINE ( 'NONE', #238, #91 ) ;
#142 = UNCERTAINTY_MEASURE_WITH_UNIT (LENGTH_MEASURE( 1.000000000000000082E-05 ), #82, 'distance_accuracy_value', 'NONE');
#143 = PRODUCT_DEFINITION ( 'UNKNOWN', '', #119, #180 ) ;
#144 = COLOUR_RGB ( '',1.000000000000000000, 0.000000000000000000, 0.000000000000000000 ) ;
#145 = LENGTH_MEASURE_WITH_UNIT ( LENGTH_MEASURE( 0.02539999999999999897 ), #240 );
#146 = CYLINDRICAL_SURFACE ( 'NONE', #170, 0.09374999999999998612 ) ;
#147 = PRESENTATION_STYLE_ASSIGNMENT (( #124 ) ) ;
#148 =( GEOMETRIC_REPRESENTATION_CONTEXT ( 3 ) GLOBAL_UNCERTAINTY_ASSIGNED_CONTEXT ( ( #128 ) ) GLOBAL_UNIT_ASSIGNED_CONTEXT ( ( #76, #250, #199 ) ) REPRESENTATION_CONTEXT ( 'NONE', 'WORKASPACE' ) );
#149 = CARTESIAN_POINT ( 'NONE',  ( -0.09374999999999998612, 1.000000000000000000, 0.000000000000000000 ) ) ;
#150 = CARTESIAN_POINT ( 'NONE',  ( 0.000000000000000000, 0.000000000000000000, 0.000000000000000000 ) ) ;
#151 = EDGE_LOOP ( 'NONE', ( #83, #54, #168, #177 ) ) ;
#152 = PRESENTATION_LAYER_ASSIGNMENT (  '', '', ( #225 ) ) ;
#153 = MECHANICAL_DESIGN_GEOMETRIC_PRESENTATION_REPRESENTATION (  '', ( #87 ), #61 ) ;
#154 = ORIENTED_EDGE ( 'NONE', *, *, #269, .F. ) ;
#155 = APPLICATION_CONTEXT ( 'automotive_design' ) ;
#156 = ORIENTED_EDGE ( 'NONE', *, *, #303, .T. ) ;
#157 = DIRECTION ( 'NONE',  ( -0.000000000000000000, -1.000000000000000000, -0.000000000000000000 ) ) ;
#158 = FACE_OUTER_BOUND ( 'NONE', #289, .T. ) ;
#159 = STYLED_ITEM ( 'NONE', ( #68 ), #167 ) ;
#160 = FILL_AREA_STYLE_COLOUR ( '', #74 ) ;
#161 = DIRECTION ( 'NONE',  ( -0.000000000000000000, -1.000000000000000000, -0.000000000000000000 ) ) ;
#162 = CARTESIAN_POINT ( 'NONE',  ( 3.061616997868383141E-16, 2.500000000000000000, 0.000000000000000000 ) ) ;
#163 = CARTESIAN_POINT ( 'NONE',  ( 0.000000000000000000, 1.000000000000000000, -0.09374999999999998612 ) ) ;
#164 =( LENGTH_UNIT ( ) NAMED_UNIT ( * ) SI_UNIT ( $, .METRE. ) );
#165 = CIRCLE ( 'NONE', #79, 0.09375000000000001388 ) ;
#166 = CARTESIAN_POINT ( 'NONE',  ( 1.952812217007627094E-33, 1.000000000000000000, 0.000000000000000000 ) ) ;
#167 = ADVANCED_FACE ( 'NONE', ( #295 ), #134, .T. ) ;
#168 = ORIENTED_EDGE ( 'NONE', *, *, #102, .T. ) ;
#169 = DIRECTION ( 'NONE',  ( -1.000000000000000000, 0.000000000000000000, 0.000000000000000000 ) ) ;
#170 = AXIS2_PLACEMENT_3D ( 'NONE', #107, #130, #176 ) ;
#171 = SURFACE_STYLE_USAGE ( .BOTH. , #100 ) ;
#172 = DIRECTION ( 'NONE',  ( -0.000000000000000000, -1.000000000000000000, -0.000000000000000000 ) ) ;
#173 = CIRCLE ( 'NONE', #101, 0.09375000000000001388 ) ;
#174 = COLOUR_RGB ( '',1.000000000000000000, 0.000000000000000000, 0.000000000000000000 ) ;
#175 = EDGE_CURVE ( 'NONE', #247, #251, #165, .T. ) ;
#176 = DIRECTION ( 'NONE',  ( 0.000000000000000000, 0.000000000000000000, -1.000000000000000000 ) ) ;
#177 = ORIENTED_EDGE ( 'NONE', *, *, #303, .F. ) ;
#178 = DIRECTION ( 'NONE',  ( -0.000000000000000000, -1.000000000000000000, -0.000000000000000000 ) ) ;
#179 = ORIENTED_EDGE ( 'NONE', *, *, #120, .F. ) ;
#180 = PRODUCT_DEFINITION_CONTEXT ( 'detailed design', #47, 'design' ) ;
#181 =( GEOMETRIC_REPRESENTATION_CONTEXT ( 3 ) GLOBAL_UNCERTAINTY_ASSIGNED_CONTEXT ( ( #20 ) ) GLOBAL_UNIT_ASSIGNED_CONTEXT ( ( #53, #78, #248 ) ) REPRESENTATION_CONTEXT ( 'NONE', 'WORKASPACE' ) );
#182 = DIRECTION ( 'NONE',  ( 0.000000000000000000, 0.000000000000000000, -1.000000000000000000 ) ) ;
#183 = DIMENSIONAL_EXPONENTS ( 1.000000000000000000, 0.000000000000000000, 0.000000000000000000, 0.000000000000000000, 0.000000000000000000, 0.000000000000000000, 0.000000000000000000 ) ;
#184 = DIRECTION ( 'NONE',  ( 2.041077998578922094E-16, 1.000000000000000000, -0.000000000000000000 ) ) ;
#185 = FILL_AREA_STYLE_COLOUR ( '', #144 ) ;
#186 = PRESENTATION_LAYER_ASSIGNMENT (  '', '', ( #309 ) ) ;
#187 = CYLINDRICAL_SURFACE ( 'NONE', #244, 0.09374999999999983347 ) ;
#188 = DIRECTION ( 'NONE',  ( 2.041077998578922341E-16, 1.000000000000000000, -0.000000000000000000 ) ) ;
#189 = FILL_AREA_STYLE ('',( #69 ) ) ;
#190 =( NAMED_UNIT ( * ) SI_UNIT ( $, .STERADIAN. ) SOLID_ANGLE_UNIT ( ) );
#191 = EDGE_CURVE ( 'NONE', #204, #33, #104, .T. ) ;
#192 = ORIENTED_EDGE ( 'NONE', *, *, #191, .F. ) ;
#193 =( NAMED_UNIT ( * ) PLANE_ANGLE_UNIT ( ) SI_UNIT ( $, .RADIAN. ) );
#194 = EDGE_LOOP ( 'NONE', ( #227, #290, #192, #6 ) ) ;
#195 = PRESENTATION_STYLE_ASSIGNMENT (( #215 ) ) ;
#196 = DIRECTION ( 'NONE',  ( 2.041077998578922094E-16, 1.000000000000000000, -0.000000000000000000 ) ) ;
#197 = LENGTH_MEASURE_WITH_UNIT ( LENGTH_MEASURE( 0.02539999999999999897 ), #221 );
#198 = DIMENSIONAL_EXPONENTS ( 1.000000000000000000, 0.000000000000000000, 0.000000000000000000, 0.000000000000000000, 0.000000000000000000, 0.000000000000000000, 0.000000000000000000 ) ;
#199 =( NAMED_UNIT ( * ) SI_UNIT ( $, .STERADIAN. ) SOLID_ANGLE_UNIT ( ) );
#200 = EDGE_CURVE ( 'NONE', #81, #251, #141, .T. ) ;
#201 = PRESENTATION_LAYER_ASSIGNMENT (  '', '', ( #159 ) ) ;
#202 = MECHANICAL_DESIGN_GEOMETRIC_PRESENTATION_REPRESENTATION (  '', ( #309 ), #14 ) ;
#203 = ORIENTED_EDGE ( 'NONE', *, *, #109, .F. ) ;
#204 = VERTEX_POINT ( 'NONE', #294 ) ;
#205 = CYLINDRICAL_SURFACE ( 'NONE', #263, 0.09374999999999998612 ) ;
#206 = EDGE_LOOP ( 'NONE', ( #58, #156 ) ) ;
#207 = DIRECTION ( 'NONE',  ( 2.041077998578922094E-16, 1.000000000000000000, -0.000000000000000000 ) ) ;
#208 = LINE ( 'NONE', #66, #50 ) ;
#209 = PRODUCT_RELATED_PRODUCT_CATEGORY ( 'part', '', ( #29 ) ) ;
#210 = CARTESIAN_POINT ( 'NONE',  ( -0.09374999999999952816, 2.500000000000000000, 0.000000000000000000 ) ) ;
#211 = AXIS2_PLACEMENT_3D ( 'NONE', #162, #184, #37 ) ;
#212 = DIRECTION ( 'NONE',  ( 2.041077998578922094E-16, 1.000000000000000000, -0.000000000000000000 ) ) ;
#213 = SURFACE_STYLE_FILL_AREA ( #189 ) ;
#214 = PRESENTATION_LAYER_ASSIGNMENT (  '', '', ( #35 ) ) ;
#215 = SURFACE_STYLE_USAGE ( .BOTH. , #305 ) ;
#216 = FILL_AREA_STYLE ('',( #72 ) ) ;
#217 = AXIS2_PLACEMENT_3D ( 'NONE', #92, #207, #258 ) ;
#218 = COLOUR_RGB ( '',0.7921568627450980005, 0.8196078431372548767, 0.9333333333333333481 ) ;
#219 = FILL_AREA_STYLE_COLOUR ( '', #218 ) ;
#220 = UNCERTAINTY_MEASURE_WITH_UNIT (LENGTH_MEASURE( 1.000000000000000082E-05 ), #39, 'distance_accuracy_value', 'NONE');
#221 =( LENGTH_UNIT ( ) NAMED_UNIT ( * ) SI_UNIT ( $, .METRE. ) );
#222 = ADVANCED_FACE ( 'NONE', ( #277 ), #118, .T. ) ;
#223 = MANIFOLD_SOLID_BREP ( 'Revolve - Tool Body (Straight Shanked)', #75 ) ;
#224 = ORIENTED_EDGE ( 'NONE', *, *, #109, .T. ) ;
#225 = STYLED_ITEM ( 'NONE', ( #195 ), #252 ) ;
#226 = PRODUCT_DEFINITION_SHAPE ( 'NONE', 'NONE',  #143 ) ;
#227 = ORIENTED_EDGE ( 'NONE', *, *, #120, .T. ) ;
#228 = DIRECTION ( 'NONE',  ( 1.000000000000000000, 0.000000000000000000, 0.000000000000000000 ) ) ;
#229 = DIRECTION ( 'NONE',  ( 2.041077998578922094E-16, 1.000000000000000000, -0.000000000000000000 ) ) ;
#230 = SURFACE_SIDE_STYLE ('',( #213 ) ) ;
#231 = DIRECTION ( 'NONE',  ( -0.000000000000000000, -1.000000000000000000, -0.000000000000000000 ) ) ;
#232 = LENGTH_MEASURE_WITH_UNIT ( LENGTH_MEASURE( 0.02539999999999999897 ), #296 );
#233 = CARTESIAN_POINT ( 'NONE',  ( 1.148106374200643555E-17, 0.000000000000000000, 0.09375000000000001388 ) ) ;
#234 =( GEOMETRIC_REPRESENTATION_CONTEXT ( 3 ) GLOBAL_UNCERTAINTY_ASSIGNED_CONTEXT ( ( #220 ) ) GLOBAL_UNIT_ASSIGNED_CONTEXT ( ( #39, #41, #12 ) ) REPRESENTATION_CONTEXT ( 'NONE', 'WORKASPACE' ) );
#235 = ADVANCED_FACE ( 'NONE', ( #116 ), #187, .T. ) ;
#236 = LENGTH_MEASURE_WITH_UNIT ( LENGTH_MEASURE( 0.02539999999999999897 ), #164 );
#237 = PLANE ( 'NONE',  #241 ) ;
#238 = CARTESIAN_POINT ( 'NONE',  ( 1.148106374200643401E-17, 0.000000000000000000, 0.09374999999999998612 ) ) ;
#239 = FACE_OUTER_BOUND ( 'NONE', #88, .T. ) ;
#240 =( LENGTH_UNIT ( ) NAMED_UNIT ( * ) SI_UNIT ( $, .METRE. ) );
#241 = AXIS2_PLACEMENT_3D ( 'NONE', #278, #276, #18 ) ;
#242 =( CONVERSION_BASED_UNIT ( 'INCH', #145 ) LENGTH_UNIT ( ) NAMED_UNIT ( #110 ) );
#243 = ORIENTED_EDGE ( 'NONE', *, *, #19, .T. ) ;
#244 = AXIS2_PLACEMENT_3D ( 'NONE', #9, #297, #139 ) ;
#245 = PRESENTATION_LAYER_ASSIGNMENT (  '', '', ( #87 ) ) ;
#246 = UNCERTAINTY_MEASURE_WITH_UNIT (LENGTH_MEASURE( 1.000000000000000082E-05 ), #242, 'distance_accuracy_value', 'NONE');
#247 = VERTEX_POINT ( 'NONE', #275 ) ;
#248 =( NAMED_UNIT ( * ) SI_UNIT ( $, .STERADIAN. ) SOLID_ANGLE_UNIT ( ) );
#249 = SHAPE_DEFINITION_REPRESENTATION ( #226, #65 ) ;
#250 =( NAMED_UNIT ( * ) PLANE_ANGLE_UNIT ( ) SI_UNIT ( $, .RADIAN. ) );
#251 = VERTEX_POINT ( 'NONE', #233 ) ;
#252 = ADVANCED_FACE ( 'NONE', ( #95 ), #146, .T. ) ;
#253 = CIRCLE ( 'NONE', #97, 0.09374999999999998612 ) ;
#254 = SURFACE_STYLE_USAGE ( .BOTH. , #62 ) ;
#255 = PLANE ( 'NONE',  #1 ) ;
#256 = MECHANICAL_DESIGN_GEOMETRIC_PRESENTATION_REPRESENTATION (  '', ( #35 ), #284 ) ;
#257 = SURFACE_STYLE_FILL_AREA ( #96 ) ;
#258 = DIRECTION ( 'NONE',  ( -1.000000000000000000, 0.000000000000000000, 0.000000000000000000 ) ) ;
#259 = LINE ( 'NONE', #210, #8 ) ;
#260 = ORIENTED_EDGE ( 'NONE', *, *, #200, .T. ) ;
#261 = DIRECTION ( 'NONE',  ( 0.000000000000000000, 0.000000000000000000, -1.000000000000000000 ) ) ;
#262 = ORIENTED_EDGE ( 'NONE', *, *, #123, .F. ) ;
#263 = AXIS2_PLACEMENT_3D ( 'NONE', #280, #16, #135 ) ;
#264 =( NAMED_UNIT ( * ) PLANE_ANGLE_UNIT ( ) SI_UNIT ( $, .RADIAN. ) );
#265 = SURFACE_STYLE_FILL_AREA ( #46 ) ;
#266 = LENGTH_MEASURE_WITH_UNIT ( LENGTH_MEASURE( 0.02539999999999999897 ), #3 );
#267 = VERTEX_POINT ( 'NONE', #149 ) ;
#268 =( LENGTH_UNIT ( ) NAMED_UNIT ( * ) SI_UNIT ( $, .METRE. ) );
#269 = EDGE_CURVE ( 'NONE', #81, #64, #253, .T. ) ;
#270 = UNCERTAINTY_MEASURE_WITH_UNIT (LENGTH_MEASURE( 1.000000000000000082E-05 ), #15, 'distance_accuracy_value', 'NONE');
#271 = VERTEX_POINT ( 'NONE', #56 ) ;
#272 = EDGE_CURVE ( 'NONE', #33, #204, #30, .T. ) ;
#273 = AXIS2_PLACEMENT_3D ( 'NONE', #10, #212, #59 ) ;
#274 = CARTESIAN_POINT ( 'NONE',  ( 0.000000000000000000, 0.000000000000000000, 0.000000000000000000 ) ) ;
#275 = CARTESIAN_POINT ( 'NONE',  ( 0.000000000000000000, 0.000000000000000000, -0.09375000000000001388 ) ) ;
#276 = DIRECTION ( 'NONE',  ( -2.041077998578922341E-16, -1.000000000000000000, 0.000000000000000000 ) ) ;
#277 = FACE_OUTER_BOUND ( 'NONE', #194, .T. ) ;
#278 = CARTESIAN_POINT ( 'NONE',  ( 0.09374999999999998612, 2.500000000000000000, 0.000000000000000000 ) ) ;
#279 = ORIENTED_EDGE ( 'NONE', *, *, #272, .F. ) ;
#280 = CARTESIAN_POINT ( 'NONE',  ( 0.000000000000000000, 0.000000000000000000, 0.000000000000000000 ) ) ;
#281 =( GEOMETRIC_REPRESENTATION_CONTEXT ( 3 ) GLOBAL_UNCERTAINTY_ASSIGNED_CONTEXT ( ( #142 ) ) GLOBAL_UNIT_ASSIGNED_CONTEXT ( ( #82, #80, #105 ) ) REPRESENTATION_CONTEXT ( 'NONE', 'WORKASPACE' ) );
#282 = UNCERTAINTY_MEASURE_WITH_UNIT (LENGTH_MEASURE( 1.000000000000000082E-05 ), #93, 'distance_accuracy_value', 'NONE');
#283 = SURFACE_SIDE_STYLE ('',( #265 ) ) ;
#284 =( GEOMETRIC_REPRESENTATION_CONTEXT ( 3 ) GLOBAL_UNCERTAINTY_ASSIGNED_CONTEXT ( ( #282 ) ) GLOBAL_UNIT_ASSIGNED_CONTEXT ( ( #93, #42, #190 ) ) REPRESENTATION_CONTEXT ( 'NONE', 'WORKASPACE' ) );
#285 = FILL_AREA_STYLE_COLOUR ( '', #55 ) ;
#286 = DIRECTION ( 'NONE',  ( 0.000000000000000000, -0.000000000000000000, 1.000000000000000000 ) ) ;
#287 = MECHANICAL_DESIGN_GEOMETRIC_PRESENTATION_REPRESENTATION (  '', ( #159 ), #234 ) ;
#288 = DIMENSIONAL_EXPONENTS ( 1.000000000000000000, 0.000000000000000000, 0.000000000000000000, 0.000000000000000000, 0.000000000000000000, 0.000000000000000000, 0.000000000000000000 ) ;
#289 = EDGE_LOOP ( 'NONE', ( #179, #73 ) ) ;
#290 = ORIENTED_EDGE ( 'NONE', *, *, #123, .T. ) ;
#291 = APPLICATION_PROTOCOL_DEFINITION ( 'draft international standard', 'automotive_design', 1998, #155 ) ;
#292 = AXIS2_PLACEMENT_3D ( 'NONE', #99, #196, #169 ) ;
#293 = SURFACE_STYLE_USAGE ( .BOTH. , #230 ) ;
#294 = CARTESIAN_POINT ( 'NONE',  ( -0.09374999999999937550, 2.500000000000000000, 0.000000000000000000 ) ) ;
#295 = FACE_OUTER_BOUND ( 'NONE', #206, .T. ) ;
#296 =( LENGTH_UNIT ( ) NAMED_UNIT ( * ) SI_UNIT ( $, .METRE. ) );
#297 = DIRECTION ( 'NONE',  ( 2.041077998578922094E-16, 1.000000000000000000, -0.000000000000000000 ) ) ;
#298 = CLOSED_SHELL ( 'NONE', ( #252, #52, #94, #167 ) ) ;
#299 = DIRECTION ( 'NONE',  ( 0.000000000000000000, -1.000000000000000000, -0.000000000000000000 ) ) ;
#300 = PRESENTATION_STYLE_ASSIGNMENT (( #293 ) ) ;
#301 = CARTESIAN_POINT ( 'NONE',  ( 0.000000000000000000, 0.000000000000000000, 0.000000000000000000 ) ) ;
#302 = MECHANICAL_DESIGN_GEOMETRIC_PRESENTATION_REPRESENTATION (  '', ( #225 ), #281 ) ;
#303 = EDGE_CURVE ( 'NONE', #251, #247, #173, .T. ) ;
#304 = PRESENTATION_LAYER_ASSIGNMENT (  '', '', ( #51 ) ) ;
#305 = SURFACE_SIDE_STYLE ('',( #44 ) ) ;
#306 = AXIS2_PLACEMENT_3D ( 'NONE', #111, #89, #182 ) ;
#307 = DIMENSIONAL_EXPONENTS ( 1.000000000000000000, 0.000000000000000000, 0.000000000000000000, 0.000000000000000000, 0.000000000000000000, 0.000000000000000000, 0.000000000000000000 ) ;
#308 = DIRECTION ( 'NONE',  ( 0.000000000000000000, 0.000000000000000000, -1.000000000000000000 ) ) ;
#309 = STYLED_ITEM ( 'NONE', ( #98 ), #223 ) ;
ENDSEC;
END-ISO-10303-21;
