ISO-10303-21;
HEADER;
FILE_DESCRIPTION (( 'STEP AP214' ),
    '1' );
FILE_NAME ('Micro_GEC-250-4-020X.STEP',
    '2021-09-03T17:16:23',
    ( '' ),
    ( '' ),
    'SwSTEP 2.0',
    'SolidWorks 2020',
    '' );
FILE_SCHEMA (( 'AUTOMOTIVE_DESIGN' ));
ENDSEC;

DATA;
#1 = DIRECTION ( 'NONE',  ( 1.000000000000000000, 0.0000000000000000000, 0.0000000000000000000 ) ) ;
#2 = DIRECTION ( 'NONE',  ( -1.224646799147353207E-16, -0.0000000000000000000, -1.000000000000000000 ) ) ;
#3 = CYLINDRICAL_SURFACE ( 'NONE', #85, 0.1248749999999999999 ) ;
#4 = UNCERTAINTY_MEASURE_WITH_UNIT (LENGTH_MEASURE( 1.000000000000000082E-05 ), #182, 'distance_accuracy_value', 'NONE');
#5 = CARTESIAN_POINT ( 'NONE',  ( -0.1048749999999999960, 1.284348330605786605E-17, 0.02000000000000000042 ) ) ;
#6 = APPLICATION_PROTOCOL_DEFINITION ( 'draft international standard', 'automotive_design', 1998, #348 ) ;
#7 = DIRECTION ( 'NONE',  ( 0.0000000000000000000, 0.0000000000000000000, -1.000000000000000000 ) ) ;
#8 = EDGE_CURVE ( 'NONE', #50, #215, #133, .T. ) ;
#9 = FILL_AREA_STYLE_COLOUR ( '', #97 ) ;
#10 = TOROIDAL_SURFACE ( 'NONE', #180, 0.1048749999999999960, 0.02000000000000000042 ) ;
#11 = DIRECTION ( 'NONE',  ( 1.000000000000000000, 0.0000000000000000000, 0.0000000000000000000 ) ) ;
#12 =( NAMED_UNIT ( * ) SI_UNIT ( $, .STERADIAN. ) SOLID_ANGLE_UNIT ( ) );
#13 = PRODUCT_DEFINITION_FORMATION_WITH_SPECIFIED_SOURCE ( 'ANY', '', #345, .NOT_KNOWN. ) ;
#14 = VERTEX_POINT ( 'NONE', #240 ) ;
#15 = DIRECTION ( 'NONE',  ( 0.0000000000000000000, 0.0000000000000000000, 1.000000000000000000 ) ) ;
#16 = ORIENTED_EDGE ( 'NONE', *, *, #56, .F. ) ;
#17 = AXIS2_PLACEMENT_3D ( 'NONE', #217, #298, #81 ) ;
#18 = EDGE_LOOP ( 'NONE', ( #291, #349, #320, #272 ) ) ;
#19 = ORIENTED_EDGE ( 'NONE', *, *, #350, .T. ) ;
#20 = EDGE_LOOP ( 'NONE', ( #213, #157, #292, #52 ) ) ;
#21 = ORIENTED_EDGE ( 'NONE', *, *, #56, .T. ) ;
#22 = CARTESIAN_POINT ( 'NONE',  ( 0.1248750000000000970, 0.0000000000000000000, 0.7500000000000001110 ) ) ;
#23 = EDGE_CURVE ( 'NONE', #79, #185, #179, .T. ) ;
#24 = LENGTH_MEASURE_WITH_UNIT ( LENGTH_MEASURE( 0.02539999999999999897 ), #351 );
#25 = DIRECTION ( 'NONE',  ( -1.000000000000000000, 0.0000000000000000000, 1.224646799147353454E-16 ) ) ;
#26 = DIRECTION ( 'NONE',  ( -0.7071067811865499042, 0.0000000000000000000, -0.7071067811865451302 ) ) ;
#27 = CIRCLE ( 'NONE', #309, 0.1100000000000001948 ) ;
#28 = AXIS2_PLACEMENT_3D ( 'NONE', #31, #329, #231 ) ;
#29 = CARTESIAN_POINT ( 'NONE',  ( 0.1248750000000000970, 0.0000000000000000000, 0.7500000000000001110 ) ) ;
#30 = LINE ( 'NONE', #29, #135 ) ;
#31 = CARTESIAN_POINT ( 'NONE',  ( 0.0000000000000000000, 0.0000000000000000000, 0.0000000000000000000 ) ) ;
#32 = CARTESIAN_POINT ( 'NONE',  ( 0.0000000000000000000, 0.0000000000000000000, 2.485000000000000320 ) ) ;
#33 = ADVANCED_BREP_SHAPE_REPRESENTATION ( 'Micro_GEC-250-4-020X', ( #112, #28 ), #104 ) ;
#34 = CLOSED_SHELL ( 'NONE', ( #255, #77, #46, #106, #40, #80, #200, #131, #337, #295, #193, #103 ) ) ;
#35 = CIRCLE ( 'NONE', #126, 0.1248749999999999999 ) ;
#36 = COLOUR_RGB ( '',0.7921568627450980005, 0.8196078431372548767, 0.9333333333333333481 ) ;
#37 = DIRECTION ( 'NONE',  ( -0.0000000000000000000, -0.0000000000000000000, -1.000000000000000000 ) ) ;
#38 = VECTOR ( 'NONE', #120, 39.37007874015748143 ) ;
#39 = PLANE ( 'NONE',  #221 ) ;
#40 = ADVANCED_FACE ( 'NONE', ( #344 ), #271, .T. ) ;
#41 = CARTESIAN_POINT ( 'NONE',  ( -0.1248749999999999999, 0.0000000000000000000, 0.02000000000000000389 ) ) ;
#42 = ORIENTED_EDGE ( 'NONE', *, *, #119, .T. ) ;
#43 = FACE_OUTER_BOUND ( 'NONE', #314, .T. ) ;
#44 = AXIS2_PLACEMENT_3D ( 'NONE', #254, #115, #84 ) ;
#45 = EDGE_CURVE ( 'NONE', #218, #50, #225, .T. ) ;
#46 = ADVANCED_FACE ( 'NONE', ( #143 ), #75, .T. ) ;
#47 =( NAMED_UNIT ( * ) SI_UNIT ( $, .STERADIAN. ) SOLID_ANGLE_UNIT ( ) );
#48 = DIRECTION ( 'NONE',  ( -1.224646799147353207E-16, -0.0000000000000000000, -1.000000000000000000 ) ) ;
#49 = EDGE_LOOP ( 'NONE', ( #130, #262, #76, #241 ) ) ;
#50 = VERTEX_POINT ( 'NONE', #281 ) ;
#51 = PRODUCT_DEFINITION_SHAPE ( 'NONE', 'NONE',  #72 ) ;
#52 = ORIENTED_EDGE ( 'NONE', *, *, #67, .F. ) ;
#53 = AXIS2_PLACEMENT_3D ( 'NONE', #5, #283, #247 ) ;
#54 = CYLINDRICAL_SURFACE ( 'NONE', #17, 0.1248749999999999999 ) ;
#55 = ORIENTED_EDGE ( 'NONE', *, *, #183, .T. ) ;
#56 = EDGE_CURVE ( 'NONE', #161, #218, #340, .T. ) ;
#57 =( LENGTH_UNIT ( ) NAMED_UNIT ( * ) SI_UNIT ( $, .METRE. ) );
#58 = EDGE_CURVE ( 'NONE', #245, #136, #209, .T. ) ;
#59 = LINE ( 'NONE', #268, #147 ) ;
#60 = TOROIDAL_SURFACE ( 'NONE', #326, 0.1048749999999999960, 0.02000000000000000042 ) ;
#61 = CARTESIAN_POINT ( 'NONE',  ( 0.0000000000000000000, 0.0000000000000000000, 2.500000000000000000 ) ) ;
#62 = FACE_OUTER_BOUND ( 'NONE', #20, .T. ) ;
#63 = DIRECTION ( 'NONE',  ( 1.224646799147353207E-16, 0.0000000000000000000, 1.000000000000000000 ) ) ;
#64 = VECTOR ( 'NONE', #154, 39.37007874015748143 ) ;
#65 = EDGE_CURVE ( 'NONE', #14, #129, #248, .T. ) ;
#66 =( NAMED_UNIT ( * ) PLANE_ANGLE_UNIT ( ) SI_UNIT ( $, .RADIAN. ) );
#67 = EDGE_CURVE ( 'NONE', #129, #14, #242, .T. ) ;
#68 = DIRECTION ( 'NONE',  ( 1.000000000000000000, 0.0000000000000000000, 0.0000000000000000000 ) ) ;
#69 = FACE_OUTER_BOUND ( 'NONE', #297, .T. ) ;
#70 = DIRECTION ( 'NONE',  ( 0.0000000000000000000, -1.000000000000000000, 0.0000000000000000000 ) ) ;
#71 = ORIENTED_EDGE ( 'NONE', *, *, #67, .T. ) ;
#72 = PRODUCT_DEFINITION ( 'UNKNOWN', '', #13, #258 ) ;
#73 = CARTESIAN_POINT ( 'NONE',  ( 9.184850993605150903E-17, 0.0000000000000000000, 0.7500000000000001110 ) ) ;
#74 = ORIENTED_EDGE ( 'NONE', *, *, #167, .F. ) ;
#75 = CONICAL_SURFACE ( 'NONE', #197, 0.1248749999999999999, 0.1745329251994338082 ) ;
#76 = ORIENTED_EDGE ( 'NONE', *, *, #119, .F. ) ;
#77 = ADVANCED_FACE ( 'NONE', ( #282 ), #3, .T. ) ;
#78 = EDGE_LOOP ( 'NONE', ( #317, #216 ) ) ;
#79 = VERTEX_POINT ( 'NONE', #22 ) ;
#80 = ADVANCED_FACE ( 'NONE', ( #62 ), #113, .T. ) ;
#81 = DIRECTION ( 'NONE',  ( -1.000000000000000000, 0.0000000000000000000, 1.224646799147353454E-16 ) ) ;
#82 = FACE_OUTER_BOUND ( 'NONE', #18, .T. ) ;
#83 = PRODUCT_CONTEXT ( 'NONE', #302, 'mechanical' ) ;
#84 = DIRECTION ( 'NONE',  ( 1.000000000000000000, 0.0000000000000000000, 0.0000000000000000000 ) ) ;
#85 = AXIS2_PLACEMENT_3D ( 'NONE', #146, #300, #25 ) ;
#86 = DIRECTION ( 'NONE',  ( -1.000000000000000000, 0.0000000000000000000, 0.0000000000000000000 ) ) ;
#87 = SURFACE_STYLE_FILL_AREA ( #118 ) ;
#88 = EDGE_CURVE ( 'NONE', #79, #129, #30, .T. ) ;
#89 = DIRECTION ( 'NONE',  ( 1.000000000000000000, 0.0000000000000000000, 0.0000000000000000000 ) ) ;
#90 = ORIENTED_EDGE ( 'NONE', *, *, #144, .F. ) ;
#91 = DIRECTION ( 'NONE',  ( 1.000000000000000000, 0.0000000000000000000, 0.0000000000000000000 ) ) ;
#92 = DIRECTION ( 'NONE',  ( 1.000000000000000000, 0.0000000000000000000, -0.0000000000000000000 ) ) ;
#93 = CARTESIAN_POINT ( 'NONE',  ( 0.1250000000000000833, 1.530808498934192433E-17, 0.7507089102274522308 ) ) ;
#94 = EDGE_LOOP ( 'NONE', ( #239, #230, #188, #132 ) ) ;
#95 = EDGE_CURVE ( 'NONE', #245, #153, #214, .T. ) ;
#96 = CARTESIAN_POINT ( 'NONE',  ( 2.449293598294707154E-18, 0.0000000000000000000, 0.02000000000000000389 ) ) ;
#97 = COLOUR_RGB ( '',0.7921568627450980005, 0.8196078431372548767, 0.9333333333333333481 ) ;
#98 = SURFACE_STYLE_USAGE ( .BOTH. , #246 ) ;
#99 = ORIENTED_EDGE ( 'NONE', *, *, #95, .T. ) ;
#100 = ORIENTED_EDGE ( 'NONE', *, *, #227, .T. ) ;
#101 = ORIENTED_EDGE ( 'NONE', *, *, #211, .T. ) ;
#102 = STYLED_ITEM ( 'NONE', ( #322 ), #112 ) ;
#103 = ADVANCED_FACE ( 'NONE', ( #82 ), #60, .T. ) ;
#104 =( GEOMETRIC_REPRESENTATION_CONTEXT ( 3 ) GLOBAL_UNCERTAINTY_ASSIGNED_CONTEXT ( ( #252 ) ) GLOBAL_UNIT_ASSIGNED_CONTEXT ( ( #107, #189, #342 ) ) REPRESENTATION_CONTEXT ( 'NONE', 'WORKASPACE' ) );
#105 = VERTEX_POINT ( 'NONE', #195 ) ;
#106 = ADVANCED_FACE ( 'NONE', ( #196 ), #257, .T. ) ;
#107 =( CONVERSION_BASED_UNIT ( 'INCH', #24 ) LENGTH_UNIT ( ) NAMED_UNIT ( #123 ) );
#108 = ORIENTED_EDGE ( 'NONE', *, *, #23, .F. ) ;
#109 = CARTESIAN_POINT ( 'NONE',  ( 2.449293598294706769E-18, 0.0000000000000000000, 0.02000000000000000042 ) ) ;
#110 = CONICAL_SURFACE ( 'NONE', #285, 0.1100000000000001948, 0.7853981633974517207 ) ;
#111 = AXIS2_PLACEMENT_3D ( 'NONE', #205, #15, #338 ) ;
#112 = MANIFOLD_SOLID_BREP ( 'Fillet1', #34 ) ;
#113 = CYLINDRICAL_SURFACE ( 'NONE', #339, 0.1250000000000000000 ) ;
#114 = LENGTH_MEASURE_WITH_UNIT ( LENGTH_MEASURE( 0.02539999999999999897 ), #321 );
#115 = DIRECTION ( 'NONE',  ( -1.224646799147353207E-16, -0.0000000000000000000, -1.000000000000000000 ) ) ;
#116 = DIRECTION ( 'NONE',  ( -0.0000000000000000000, -0.0000000000000000000, -1.000000000000000000 ) ) ;
#117 =( GEOMETRIC_REPRESENTATION_CONTEXT ( 3 ) GLOBAL_UNCERTAINTY_ASSIGNED_CONTEXT ( ( #158 ) ) GLOBAL_UNIT_ASSIGNED_CONTEXT ( ( #152, #66, #12 ) ) REPRESENTATION_CONTEXT ( 'NONE', 'WORKASPACE' ) );
#118 = FILL_AREA_STYLE ('',( #9 ) ) ;
#119 = EDGE_CURVE ( 'NONE', #215, #50, #142, .T. ) ;
#120 = DIRECTION ( 'NONE',  ( -1.224646799147353207E-16, -0.0000000000000000000, -1.000000000000000000 ) ) ;
#121 = CARTESIAN_POINT ( 'NONE',  ( 0.1100000000000001948, 1.438959988998141146E-17, 2.500000000000000000 ) ) ;
#122 = CIRCLE ( 'NONE', #163, 0.02000000000000000042 ) ;
#123 = DIMENSIONAL_EXPONENTS ( 1.000000000000000000, 0.0000000000000000000, 0.0000000000000000000, 0.0000000000000000000, 0.0000000000000000000, 0.0000000000000000000, 0.0000000000000000000 ) ;
#124 = LINE ( 'NONE', #235, #64 ) ;
#125 = DIRECTION ( 'NONE',  ( 0.0000000000000000000, 0.0000000000000000000, 1.000000000000000000 ) ) ;
#126 = AXIS2_PLACEMENT_3D ( 'NONE', #96, #203, #11 ) ;
#127 = FILL_AREA_STYLE_COLOUR ( '', #36 ) ;
#128 = VECTOR ( 'NONE', #166, 39.37007874015748143 ) ;
#129 = VERTEX_POINT ( 'NONE', #93 ) ;
#130 = ORIENTED_EDGE ( 'NONE', *, *, #183, .F. ) ;
#131 = ADVANCED_FACE ( 'NONE', ( #43 ), #110, .T. ) ;
#132 = ORIENTED_EDGE ( 'NONE', *, *, #227, .F. ) ;
#133 = CIRCLE ( 'NONE', #274, 0.1250000000000000000 ) ;
#134 = ORIENTED_EDGE ( 'NONE', *, *, #88, .F. ) ;
#135 = VECTOR ( 'NONE', #324, 39.37007874015748143 ) ;
#136 = VERTEX_POINT ( 'NONE', #176 ) ;
#137 = LINE ( 'NONE', #278, #286 ) ;
#138 = DIRECTION ( 'NONE',  ( 1.000000000000000000, 0.0000000000000000000, 0.0000000000000000000 ) ) ;
#139 = DIRECTION ( 'NONE',  ( -1.000000000000000000, 0.0000000000000000000, 0.0000000000000000000 ) ) ;
#140 = CIRCLE ( 'NONE', #333, 0.1048749999999999960 ) ;
#141 = DIRECTION ( 'NONE',  ( -1.224646799147353207E-16, -0.0000000000000000000, -1.000000000000000000 ) ) ;
#142 = CIRCLE ( 'NONE', #190, 0.1250000000000000000 ) ;
#143 = FACE_OUTER_BOUND ( 'NONE', #244, .T. ) ;
#144 = EDGE_CURVE ( 'NONE', #105, #153, #35, .T. ) ;
#145 = DIRECTION ( 'NONE',  ( 1.000000000000000000, 0.0000000000000000000, 0.0000000000000000000 ) ) ;
#146 = CARTESIAN_POINT ( 'NONE',  ( 0.0000000000000000000, 0.0000000000000000000, 0.0000000000000000000 ) ) ;
#147 = VECTOR ( 'NONE', #2, 39.37007874015748143 ) ;
#148 = LINE ( 'NONE', #259, #38 ) ;
#149 = CARTESIAN_POINT ( 'NONE',  ( -0.1048749999999999960, 1.406813010520521809E-17, 0.0000000000000000000 ) ) ;
#150 = CARTESIAN_POINT ( 'NONE',  ( 2.449293598294707154E-18, 0.0000000000000000000, 0.02000000000000000389 ) ) ;
#151 = AXIS2_PLACEMENT_3D ( 'NONE', #323, #250, #273 ) ;
#152 =( CONVERSION_BASED_UNIT ( 'INCH', #168 ) LENGTH_UNIT ( ) NAMED_UNIT ( #310 ) );
#153 = VERTEX_POINT ( 'NONE', #41 ) ;
#154 = DIRECTION ( 'NONE',  ( -0.0000000000000000000, -0.0000000000000000000, -1.000000000000000000 ) ) ;
#155 = FACE_OUTER_BOUND ( 'NONE', #276, .T. ) ;
#156 = DIRECTION ( 'NONE',  ( -1.000000000000000000, 0.0000000000000000000, 0.0000000000000000000 ) ) ;
#157 = ORIENTED_EDGE ( 'NONE', *, *, #8, .T. ) ;
#158 = UNCERTAINTY_MEASURE_WITH_UNIT (LENGTH_MEASURE( 1.000000000000000082E-05 ), #152, 'distance_accuracy_value', 'NONE');
#159 = ORIENTED_EDGE ( 'NONE', *, *, #8, .F. ) ;
#160 = DIRECTION ( 'NONE',  ( -1.000000000000000000, 0.0000000000000000000, 0.0000000000000000000 ) ) ;
#161 = VERTEX_POINT ( 'NONE', #288 ) ;
#162 = VECTOR ( 'NONE', #172, 39.37007874015748143 ) ;
#163 = AXIS2_PLACEMENT_3D ( 'NONE', #207, #70, #181 ) ;
#164 = EDGE_LOOP ( 'NONE', ( #21, #55 ) ) ;
#165 = DIRECTION ( 'NONE',  ( -1.000000000000000000, 0.0000000000000000000, 0.0000000000000000000 ) ) ;
#166 = DIRECTION ( 'NONE',  ( -0.0000000000000000000, -0.0000000000000000000, -1.000000000000000000 ) ) ;
#167 = EDGE_CURVE ( 'NONE', #215, #14, #124, .T. ) ;
#168 = LENGTH_MEASURE_WITH_UNIT ( LENGTH_MEASURE( 0.02539999999999999897 ), #57 );
#169 = AXIS2_PLACEMENT_3D ( 'NONE', #249, #224, #138 ) ;
#170 = AXIS2_PLACEMENT_3D ( 'NONE', #73, #48, #156 ) ;
#171 = CARTESIAN_POINT ( 'NONE',  ( 0.1100000000000001948, 1.347111479062090784E-17, 2.500000000000000000 ) ) ;
#172 = DIRECTION ( 'NONE',  ( 0.7071067811865499042, 8.659560562354961208E-17, -0.7071067811865451302 ) ) ;
#173 = PLANE ( 'NONE',  #111 ) ;
#174 = EDGE_CURVE ( 'NONE', #136, #245, #140, .T. ) ;
#175 = FACE_OUTER_BOUND ( 'NONE', #78, .T. ) ;
#176 = CARTESIAN_POINT ( 'NONE',  ( 0.1048749999999999960, 0.0000000000000000000, 0.0000000000000000000 ) ) ;
#177 = CARTESIAN_POINT ( 'NONE',  ( 2.449293598294706769E-18, 0.0000000000000000000, 0.02000000000000000042 ) ) ;
#178 = MECHANICAL_DESIGN_GEOMETRIC_PRESENTATION_REPRESENTATION (  '', ( #102 ), #117 ) ;
#179 = CIRCLE ( 'NONE', #170, 0.1248749999999999999 ) ;
#180 = AXIS2_PLACEMENT_3D ( 'NONE', #177, #229, #332 ) ;
#181 = DIRECTION ( 'NONE',  ( 0.0000000000000000000, 0.0000000000000000000, -1.000000000000000000 ) ) ;
#182 =( CONVERSION_BASED_UNIT ( 'INCH', #114 ) LENGTH_UNIT ( ) NAMED_UNIT ( #237 ) );
#183 = EDGE_CURVE ( 'NONE', #218, #161, #27, .T. ) ;
#184 = APPLICATION_PROTOCOL_DEFINITION ( 'draft international standard', 'automotive_design', 1998, #302 ) ;
#185 = VERTEX_POINT ( 'NONE', #307 ) ;
#186 = EDGE_LOOP ( 'NONE', ( #42, #19, #187, #74 ) ) ;
#187 = ORIENTED_EDGE ( 'NONE', *, *, #65, .F. ) ;
#188 = ORIENTED_EDGE ( 'NONE', *, *, #144, .T. ) ;
#189 =( NAMED_UNIT ( * ) PLANE_ANGLE_UNIT ( ) SI_UNIT ( $, .RADIAN. ) );
#190 = AXIS2_PLACEMENT_3D ( 'NONE', #32, #265, #68 ) ;
#191 = ORIENTED_EDGE ( 'NONE', *, *, #23, .T. ) ;
#192 = VECTOR ( 'NONE', #202, 39.37007874015747433 ) ;
#193 = ADVANCED_FACE ( 'NONE', ( #175 ), #39, .F. ) ;
#194 = CARTESIAN_POINT ( 'NONE',  ( 0.0000000000000000000, 0.0000000000000000000, 2.500000000000000000 ) ) ;
#195 = CARTESIAN_POINT ( 'NONE',  ( 0.1248749999999999999, 1.529277690435257475E-17, 0.02000000000000000389 ) ) ;
#196 = FACE_OUTER_BOUND ( 'NONE', #49, .T. ) ;
#197 = AXIS2_PLACEMENT_3D ( 'NONE', #199, #63, #299 ) ;
#198 = AXIS2_PLACEMENT_3D ( 'NONE', #305, #141, #160 ) ;
#199 = CARTESIAN_POINT ( 'NONE',  ( 9.184850993605150903E-17, 0.0000000000000000000, 0.7500000000000001110 ) ) ;
#200 = ADVANCED_FACE ( 'NONE', ( #284 ), #173, .T. ) ;
#201 = SURFACE_SIDE_STYLE ('',( #87 ) ) ;
#202 = DIRECTION ( 'NONE',  ( -0.1736481776669311083, 2.126576849575782084E-17, 0.9848077530122080203 ) ) ;
#203 = DIRECTION ( 'NONE',  ( 0.0000000000000000000, 0.0000000000000000000, 1.000000000000000000 ) ) ;
#204 = EDGE_CURVE ( 'NONE', #136, #105, #122, .T. ) ;
#205 = CARTESIAN_POINT ( 'NONE',  ( 0.0000000000000000000, 0.0000000000000000000, 2.500000000000000000 ) ) ;
#206 = ORIENTED_EDGE ( 'NONE', *, *, #211, .F. ) ;
#207 = CARTESIAN_POINT ( 'NONE',  ( 0.1048749999999999960, 0.0000000000000000000, 0.02000000000000000042 ) ) ;
#208 = ORIENTED_EDGE ( 'NONE', *, *, #45, .F. ) ;
#209 = CIRCLE ( 'NONE', #315, 0.1048749999999999960 ) ;
#210 = LINE ( 'NONE', #290, #192 ) ;
#211 = EDGE_CURVE ( 'NONE', #185, #14, #210, .T. ) ;
#212 = DIRECTION ( 'NONE',  ( 1.000000000000000000, 0.0000000000000000000, 0.0000000000000000000 ) ) ;
#213 = ORIENTED_EDGE ( 'NONE', *, *, #350, .F. ) ;
#214 = CIRCLE ( 'NONE', #53, 0.01999999999999999001 ) ;
#215 = VERTEX_POINT ( 'NONE', #303 ) ;
#216 = ORIENTED_EDGE ( 'NONE', *, *, #58, .T. ) ;
#217 = CARTESIAN_POINT ( 'NONE',  ( 0.0000000000000000000, 0.0000000000000000000, 0.0000000000000000000 ) ) ;
#218 = VERTEX_POINT ( 'NONE', #121 ) ;
#219 = PRESENTATION_STYLE_ASSIGNMENT (( #98 ) ) ;
#220 = AXIS2_PLACEMENT_3D ( 'NONE', #277, #256, #325 ) ;
#221 = AXIS2_PLACEMENT_3D ( 'NONE', #266, #261, #92 ) ;
#222 = FACE_OUTER_BOUND ( 'NONE', #308, .T. ) ;
#223 = LINE ( 'NONE', #312, #128 ) ;
#224 = DIRECTION ( 'NONE',  ( -1.224646799147353207E-16, -0.0000000000000000000, -1.000000000000000000 ) ) ;
#225 = LINE ( 'NONE', #171, #162 ) ;
#226 = AXIS2_PLACEMENT_3D ( 'NONE', #194, #116, #165 ) ;
#227 = EDGE_CURVE ( 'NONE', #185, #153, #148, .T. ) ;
#228 = DIRECTION ( 'NONE',  ( -0.0000000000000000000, -0.0000000000000000000, -1.000000000000000000 ) ) ;
#229 = DIRECTION ( 'NONE',  ( 0.0000000000000000000, 0.0000000000000000000, 1.000000000000000000 ) ) ;
#230 = ORIENTED_EDGE ( 'NONE', *, *, #328, .T. ) ;
#231 = DIRECTION ( 'NONE',  ( 1.000000000000000000, 0.0000000000000000000, 0.0000000000000000000 ) ) ;
#232 = DIRECTION ( 'NONE',  ( 0.0000000000000000000, 0.0000000000000000000, 1.000000000000000000 ) ) ;
#233 = CARTESIAN_POINT ( 'NONE',  ( 2.449293598294706769E-18, 0.0000000000000000000, 0.0000000000000000000 ) ) ;
#234 = DIRECTION ( 'NONE',  ( 1.000000000000000000, 0.0000000000000000000, 0.0000000000000000000 ) ) ;
#235 = CARTESIAN_POINT ( 'NONE',  ( -0.1250000000000000000, 0.0000000000000000000, 2.500000000000000000 ) ) ;
#236 = ORIENTED_EDGE ( 'NONE', *, *, #260, .T. ) ;
#237 = DIMENSIONAL_EXPONENTS ( 1.000000000000000000, 0.0000000000000000000, 0.0000000000000000000, 0.0000000000000000000, 0.0000000000000000000, 0.0000000000000000000, 0.0000000000000000000 ) ;
#238 = SURFACE_STYLE_FILL_AREA ( #280 ) ;
#239 = ORIENTED_EDGE ( 'NONE', *, *, #267, .T. ) ;
#240 = CARTESIAN_POINT ( 'NONE',  ( -0.1249999999999999167, 0.0000000000000000000, 0.7507089102274522308 ) ) ;
#241 = ORIENTED_EDGE ( 'NONE', *, *, #311, .F. ) ;
#242 = CIRCLE ( 'NONE', #169, 0.1250000000000000000 ) ;
#243 = MECHANICAL_DESIGN_GEOMETRIC_PRESENTATION_REPRESENTATION (  '', ( #275 ), #304 ) ;
#244 = EDGE_LOOP ( 'NONE', ( #294, #101, #318, #134 ) ) ;
#245 = VERTEX_POINT ( 'NONE', #149 ) ;
#246 = SURFACE_SIDE_STYLE ('',( #238 ) ) ;
#247 = DIRECTION ( 'NONE',  ( -1.000000000000000000, 1.224646799147353947E-16, 0.0000000000000000000 ) ) ;
#248 = CIRCLE ( 'NONE', #44, 0.1250000000000000000 ) ;
#249 = CARTESIAN_POINT ( 'NONE',  ( 9.193532640014472135E-17, 0.0000000000000000000, 0.7507089102274522308 ) ) ;
#250 = DIRECTION ( 'NONE',  ( 1.224646799147353207E-16, 0.0000000000000000000, 1.000000000000000000 ) ) ;
#251 = CARTESIAN_POINT ( 'NONE',  ( 2.449293598294706769E-18, 0.0000000000000000000, 0.0000000000000000000 ) ) ;
#252 = UNCERTAINTY_MEASURE_WITH_UNIT (LENGTH_MEASURE( 1.000000000000000082E-05 ), #107, 'distance_accuracy_value', 'NONE');
#253 = SHAPE_DEFINITION_REPRESENTATION ( #51, #33 ) ;
#254 = CARTESIAN_POINT ( 'NONE',  ( 9.193532640014472135E-17, 0.0000000000000000000, 0.7507089102274522308 ) ) ;
#255 = ADVANCED_FACE ( 'NONE', ( #69 ), #10, .T. ) ;
#256 = DIRECTION ( 'NONE',  ( 0.0000000000000000000, 0.0000000000000000000, 1.000000000000000000 ) ) ;
#257 = CONICAL_SURFACE ( 'NONE', #263, 0.1100000000000001948, 0.7853981633974517207 ) ;
#258 = PRODUCT_DEFINITION_CONTEXT ( 'detailed design', #348, 'design' ) ;
#259 = CARTESIAN_POINT ( 'NONE',  ( -0.1248749999999999999, 0.0000000000000000000, 1.529277690435257475E-17 ) ) ;
#260 = EDGE_CURVE ( 'NONE', #153, #105, #316, .T. ) ;
#261 = DIRECTION ( 'NONE',  ( 0.0000000000000000000, 0.0000000000000000000, 1.000000000000000000 ) ) ;
#262 = ORIENTED_EDGE ( 'NONE', *, *, #45, .T. ) ;
#263 = AXIS2_PLACEMENT_3D ( 'NONE', #61, #7, #86 ) ;
#264 = CONICAL_SURFACE ( 'NONE', #151, 0.1248749999999999999, 0.1745329251994338082 ) ;
#265 = DIRECTION ( 'NONE',  ( 0.0000000000000000000, 0.0000000000000000000, -1.000000000000000000 ) ) ;
#266 = CARTESIAN_POINT ( 'NONE',  ( 0.0000000000000000000, 0.0000000000000000000, 0.0000000000000000000 ) ) ;
#267 = EDGE_CURVE ( 'NONE', #185, #79, #341, .T. ) ;
#268 = CARTESIAN_POINT ( 'NONE',  ( 0.1248749999999999999, 1.529277690435257475E-17, -1.529277690435257475E-17 ) ) ;
#269 = PRESENTATION_LAYER_ASSIGNMENT (  '', '', ( #275 ) ) ;
#270 = DIRECTION ( 'NONE',  ( 0.0000000000000000000, 0.0000000000000000000, -1.000000000000000000 ) ) ;
#271 = CYLINDRICAL_SURFACE ( 'NONE', #226, 0.1250000000000000000 ) ;
#272 = ORIENTED_EDGE ( 'NONE', *, *, #260, .F. ) ;
#273 = DIRECTION ( 'NONE',  ( 1.000000000000000000, 0.0000000000000000000, 0.0000000000000000000 ) ) ;
#274 = AXIS2_PLACEMENT_3D ( 'NONE', #343, #270, #212 ) ;
#275 = STYLED_ITEM ( 'NONE', ( #219 ), #33 ) ;
#276 = EDGE_LOOP ( 'NONE', ( #206, #108, #293, #71 ) ) ;
#277 = CARTESIAN_POINT ( 'NONE',  ( 0.0000000000000000000, 0.0000000000000000000, 2.500000000000000000 ) ) ;
#278 = CARTESIAN_POINT ( 'NONE',  ( -0.1100000000000001948, 0.0000000000000000000, 2.500000000000000000 ) ) ;
#279 = DIRECTION ( 'NONE',  ( -0.0000000000000000000, -0.0000000000000000000, -1.000000000000000000 ) ) ;
#280 = FILL_AREA_STYLE ('',( #127 ) ) ;
#281 = CARTESIAN_POINT ( 'NONE',  ( 0.1250000000000000000, 1.530808498934191509E-17, 2.485000000000000320 ) ) ;
#282 = FACE_OUTER_BOUND ( 'NONE', #94, .T. ) ;
#283 = DIRECTION ( 'NONE',  ( 1.224646799147353207E-16, 1.000000000000000000, -0.0000000000000000000 ) ) ;
#284 = FACE_OUTER_BOUND ( 'NONE', #164, .T. ) ;
#285 = AXIS2_PLACEMENT_3D ( 'NONE', #287, #336, #335 ) ;
#286 = VECTOR ( 'NONE', #26, 39.37007874015748143 ) ;
#287 = CARTESIAN_POINT ( 'NONE',  ( 0.0000000000000000000, 0.0000000000000000000, 2.500000000000000000 ) ) ;
#288 = CARTESIAN_POINT ( 'NONE',  ( -0.1100000000000001948, 0.0000000000000000000, 2.500000000000000000 ) ) ;
#289 = CARTESIAN_POINT ( 'NONE',  ( 0.0000000000000000000, 0.0000000000000000000, 2.500000000000000000 ) ) ;
#290 = CARTESIAN_POINT ( 'NONE',  ( -0.1248749999999999166, 1.529277690435257475E-17, 0.7500000000000001110 ) ) ;
#291 = ORIENTED_EDGE ( 'NONE', *, *, #95, .F. ) ;
#292 = ORIENTED_EDGE ( 'NONE', *, *, #167, .T. ) ;
#293 = ORIENTED_EDGE ( 'NONE', *, *, #88, .T. ) ;
#294 = ORIENTED_EDGE ( 'NONE', *, *, #267, .F. ) ;
#295 = ADVANCED_FACE ( 'NONE', ( #222 ), #54, .T. ) ;
#296 = PRESENTATION_LAYER_ASSIGNMENT (  '', '', ( #102 ) ) ;
#297 = EDGE_LOOP ( 'NONE', ( #347, #99, #90, #313 ) ) ;
#298 = DIRECTION ( 'NONE',  ( -1.224646799147353207E-16, -0.0000000000000000000, -1.000000000000000000 ) ) ;
#299 = DIRECTION ( 'NONE',  ( 1.000000000000000000, 0.0000000000000000000, 0.0000000000000000000 ) ) ;
#300 = DIRECTION ( 'NONE',  ( -1.224646799147353207E-16, -0.0000000000000000000, -1.000000000000000000 ) ) ;
#301 = SURFACE_STYLE_USAGE ( .BOTH. , #201 ) ;
#302 = APPLICATION_CONTEXT ( 'automotive_design' ) ;
#303 = CARTESIAN_POINT ( 'NONE',  ( -0.1250000000000000000, 0.0000000000000000000, 2.485000000000000320 ) ) ;
#304 =( GEOMETRIC_REPRESENTATION_CONTEXT ( 3 ) GLOBAL_UNCERTAINTY_ASSIGNED_CONTEXT ( ( #4 ) ) GLOBAL_UNIT_ASSIGNED_CONTEXT ( ( #182, #319, #47 ) ) REPRESENTATION_CONTEXT ( 'NONE', 'WORKASPACE' ) );
#305 = CARTESIAN_POINT ( 'NONE',  ( 9.184850993605150903E-17, 0.0000000000000000000, 0.7500000000000001110 ) ) ;
#306 = PRODUCT_RELATED_PRODUCT_CATEGORY ( 'part', '', ( #345 ) ) ;
#307 = CARTESIAN_POINT ( 'NONE',  ( -0.1248749999999999166, 1.530043094684724646E-17, 0.7500000000000001110 ) ) ;
#308 = EDGE_LOOP ( 'NONE', ( #331, #191, #100, #236 ) ) ;
#309 = AXIS2_PLACEMENT_3D ( 'NONE', #289, #125, #234 ) ;
#310 = DIMENSIONAL_EXPONENTS ( 1.000000000000000000, 0.0000000000000000000, 0.0000000000000000000, 0.0000000000000000000, 0.0000000000000000000, 0.0000000000000000000, 0.0000000000000000000 ) ;
#311 = EDGE_CURVE ( 'NONE', #161, #215, #137, .T. ) ;
#312 = CARTESIAN_POINT ( 'NONE',  ( 0.1250000000000000000, 1.530808498934191509E-17, 2.500000000000000000 ) ) ;
#313 = ORIENTED_EDGE ( 'NONE', *, *, #204, .F. ) ;
#314 = EDGE_LOOP ( 'NONE', ( #208, #16, #346, #159 ) ) ;
#315 = AXIS2_PLACEMENT_3D ( 'NONE', #251, #228, #1 ) ;
#316 = CIRCLE ( 'NONE', #334, 0.1248749999999999999 ) ;
#317 = ORIENTED_EDGE ( 'NONE', *, *, #174, .T. ) ;
#318 = ORIENTED_EDGE ( 'NONE', *, *, #65, .T. ) ;
#319 =( NAMED_UNIT ( * ) PLANE_ANGLE_UNIT ( ) SI_UNIT ( $, .RADIAN. ) );
#320 = ORIENTED_EDGE ( 'NONE', *, *, #204, .T. ) ;
#321 =( LENGTH_UNIT ( ) NAMED_UNIT ( * ) SI_UNIT ( $, .METRE. ) );
#322 = PRESENTATION_STYLE_ASSIGNMENT (( #301 ) ) ;
#323 = CARTESIAN_POINT ( 'NONE',  ( 9.184850993605150903E-17, 0.0000000000000000000, 0.7500000000000001110 ) ) ;
#324 = DIRECTION ( 'NONE',  ( 0.1736481776669313026, 0.0000000000000000000, 0.9848077530122077983 ) ) ;
#325 = DIRECTION ( 'NONE',  ( 1.000000000000000000, 0.0000000000000000000, 0.0000000000000000000 ) ) ;
#326 = AXIS2_PLACEMENT_3D ( 'NONE', #109, #327, #145 ) ;
#327 = DIRECTION ( 'NONE',  ( 0.0000000000000000000, 0.0000000000000000000, 1.000000000000000000 ) ) ;
#328 = EDGE_CURVE ( 'NONE', #79, #105, #59, .T. ) ;
#329 = DIRECTION ( 'NONE',  ( 0.0000000000000000000, 0.0000000000000000000, 1.000000000000000000 ) ) ;
#330 = CARTESIAN_POINT ( 'NONE',  ( 0.0000000000000000000, 0.0000000000000000000, 2.500000000000000000 ) ) ;
#331 = ORIENTED_EDGE ( 'NONE', *, *, #328, .F. ) ;
#332 = DIRECTION ( 'NONE',  ( 1.000000000000000000, 0.0000000000000000000, 0.0000000000000000000 ) ) ;
#333 = AXIS2_PLACEMENT_3D ( 'NONE', #233, #37, #89 ) ;
#334 = AXIS2_PLACEMENT_3D ( 'NONE', #150, #232, #91 ) ;
#335 = DIRECTION ( 'NONE',  ( -1.000000000000000000, 0.0000000000000000000, 0.0000000000000000000 ) ) ;
#336 = DIRECTION ( 'NONE',  ( 0.0000000000000000000, 0.0000000000000000000, -1.000000000000000000 ) ) ;
#337 = ADVANCED_FACE ( 'NONE', ( #155 ), #264, .T. ) ;
#338 = DIRECTION ( 'NONE',  ( 1.000000000000000000, 0.0000000000000000000, -0.0000000000000000000 ) ) ;
#339 = AXIS2_PLACEMENT_3D ( 'NONE', #330, #279, #139 ) ;
#340 = CIRCLE ( 'NONE', #220, 0.1100000000000001948 ) ;
#341 = CIRCLE ( 'NONE', #198, 0.1248749999999999999 ) ;
#342 =( NAMED_UNIT ( * ) SI_UNIT ( $, .STERADIAN. ) SOLID_ANGLE_UNIT ( ) );
#343 = CARTESIAN_POINT ( 'NONE',  ( 0.0000000000000000000, 0.0000000000000000000, 2.485000000000000320 ) ) ;
#344 = FACE_OUTER_BOUND ( 'NONE', #186, .T. ) ;
#345 = PRODUCT ( 'Micro_GEC-250-4-020X', 'Micro_GEC-250-4-020X', '', ( #83 ) ) ;
#346 = ORIENTED_EDGE ( 'NONE', *, *, #311, .T. ) ;
#347 = ORIENTED_EDGE ( 'NONE', *, *, #58, .F. ) ;
#348 = APPLICATION_CONTEXT ( 'automotive_design' ) ;
#349 = ORIENTED_EDGE ( 'NONE', *, *, #174, .F. ) ;
#350 = EDGE_CURVE ( 'NONE', #50, #129, #223, .T. ) ;
#351 =( LENGTH_UNIT ( ) NAMED_UNIT ( * ) SI_UNIT ( $, .METRE. ) );
ENDSEC;
END-ISO-10303-21;
