ISO-10303-21;
HEADER;
FILE_DESCRIPTION (( 'STEP AP214' ),
    '1' );
FILE_NAME ('Micro_SEM-109-03X.STEP',
    '2021-09-02T01:20:16',
    ( '' ),
    ( '' ),
    'SwSTEP 2.0',
    'SolidWorks 2020',
    '' );
FILE_SCHEMA (( 'AUTOMOTIVE_DESIGN' ));
ENDSEC;

DATA;
#1 = DIRECTION ( 'NONE',  ( -1.224646799147353454E-16, -0.0000000000000000000, -1.000000000000000000 ) ) ;
#2 = CARTESIAN_POINT ( 'NONE',  ( 0.0000000000000000000, 0.0000000000000000000, 1.500000000000000222 ) ) ;
#3 = CLOSED_SHELL ( 'NONE', ( #85, #250, #192, #226, #199, #37, #223, #273, #31, #297 ) ) ;
#4 = DIRECTION ( 'NONE',  ( 0.0000000000000000000, 0.0000000000000000000, -1.000000000000000000 ) ) ;
#5 = DIRECTION ( 'NONE',  ( -1.000000000000000000, 0.0000000000000000000, 0.0000000000000000000 ) ) ;
#6 = VERTEX_POINT ( 'NONE', #176 ) ;
#7 = CIRCLE ( 'NONE', #94, 0.05464530000000000776 ) ;
#8 = DIRECTION ( 'NONE',  ( -1.224646799147353454E-16, -0.0000000000000000000, -1.000000000000000000 ) ) ;
#9 =( NAMED_UNIT ( * ) PLANE_ANGLE_UNIT ( ) SI_UNIT ( $, .RADIAN. ) );
#10 = APPLICATION_CONTEXT ( 'automotive_design' ) ;
#11 = EDGE_LOOP ( 'NONE', ( #299, #178 ) ) ;
#12 = EDGE_CURVE ( 'NONE', #88, #193, #80, .T. ) ;
#13 = FILL_AREA_STYLE ('',( #191 ) ) ;
#14 = ORIENTED_EDGE ( 'NONE', *, *, #18, .F. ) ;
#15 = AXIS2_PLACEMENT_3D ( 'NONE', #205, #180, #76 ) ;
#16 = PRESENTATION_STYLE_ASSIGNMENT (( #131 ) ) ;
#17 = ORIENTED_EDGE ( 'NONE', *, *, #63, .T. ) ;
#18 = EDGE_CURVE ( 'NONE', #99, #137, #269, .T. ) ;
#19 = ORIENTED_EDGE ( 'NONE', *, *, #280, .T. ) ;
#20 =( NAMED_UNIT ( * ) SI_UNIT ( $, .STERADIAN. ) SOLID_ANGLE_UNIT ( ) );
#21 = EDGE_LOOP ( 'NONE', ( #173, #17, #292, #14 ) ) ;
#22 = MECHANICAL_DESIGN_GEOMETRIC_PRESENTATION_REPRESENTATION (  '', ( #265 ), #65 ) ;
#23 = PRESENTATION_LAYER_ASSIGNMENT (  '', '', ( #212 ) ) ;
#24 = ORIENTED_EDGE ( 'NONE', *, *, #245, .F. ) ;
#25 = DIRECTION ( 'NONE',  ( -1.224646799147353454E-16, -0.0000000000000000000, -1.000000000000000000 ) ) ;
#26 = AXIS2_PLACEMENT_3D ( 'NONE', #141, #283, #5 ) ;
#27 = EDGE_CURVE ( 'NONE', #296, #193, #153, .T. ) ;
#28 = ORIENTED_EDGE ( 'NONE', *, *, #106, .T. ) ;
#29 = CARTESIAN_POINT ( 'NONE',  ( -0.05464529999999999388, 0.0000000000000000000, 1.338423834668937481E-17 ) ) ;
#30 = SURFACE_STYLE_FILL_AREA ( #140 ) ;
#31 = ADVANCED_FACE ( 'NONE', ( #46 ), #271, .T. ) ;
#32 = CYLINDRICAL_SURFACE ( 'NONE', #156, 0.06250000000000000000 ) ;
#33 = CYLINDRICAL_SURFACE ( 'NONE', #107, 0.06250000000000000000 ) ;
#34 = ORIENTED_EDGE ( 'NONE', *, *, #18, .T. ) ;
#35 = CONICAL_SURFACE ( 'NONE', #146, 0.05464530000000000776, 0.1745329251994339192 ) ;
#36 = DIRECTION ( 'NONE',  ( 1.000000000000000000, 0.0000000000000000000, 0.0000000000000000000 ) ) ;
#37 = ADVANCED_FACE ( 'NONE', ( #201 ), #219, .T. ) ;
#38 = LENGTH_MEASURE_WITH_UNIT ( LENGTH_MEASURE( 0.02539999999999999897 ), #59 );
#39 = ORIENTED_EDGE ( 'NONE', *, *, #241, .F. ) ;
#40 = COLOUR_RGB ( '',0.7921568627450980005, 0.8196078431372548767, 0.9333333333333333481 ) ;
#41 = LINE ( 'NONE', #130, #133 ) ;
#42 = CARTESIAN_POINT ( 'NONE',  ( 0.0000000000000000000, 0.0000000000000000000, 1.500000000000000222 ) ) ;
#43 = DIMENSIONAL_EXPONENTS ( 1.000000000000000000, 0.0000000000000000000, 0.0000000000000000000, 0.0000000000000000000, 0.0000000000000000000, 0.0000000000000000000, 0.0000000000000000000 ) ;
#44 = CARTESIAN_POINT ( 'NONE',  ( 0.06250000000000000000, 7.654042494670956004E-18, 1.485000000000000764 ) ) ;
#45 = DIRECTION ( 'NONE',  ( 1.000000000000000000, 0.0000000000000000000, 0.0000000000000000000 ) ) ;
#46 = FACE_OUTER_BOUND ( 'NONE', #150, .T. ) ;
#47 = PRESENTATION_LAYER_ASSIGNMENT (  '', '', ( #265 ) ) ;
#48 = ORIENTED_EDGE ( 'NONE', *, *, #270, .T. ) ;
#49 = DIRECTION ( 'NONE',  ( -1.000000000000000000, 0.0000000000000000000, 1.224646799147353454E-16 ) ) ;
#50 = DIRECTION ( 'NONE',  ( 0.0000000000000000000, 0.0000000000000000000, 1.000000000000000000 ) ) ;
#51 = CIRCLE ( 'NONE', #15, 0.05464529999999999388 ) ;
#52 = EDGE_CURVE ( 'NONE', #193, #88, #115, .T. ) ;
#53 = SURFACE_SIDE_STYLE ('',( #30 ) ) ;
#54 = CARTESIAN_POINT ( 'NONE',  ( 0.0000000000000000000, 0.0000000000000000000, 1.500000000000000222 ) ) ;
#55 = CARTESIAN_POINT ( 'NONE',  ( 0.0000000000000000000, 0.0000000000000000000, 1.500000000000000222 ) ) ;
#56 = EDGE_LOOP ( 'NONE', ( #243, #60, #86, #216 ) ) ;
#57 = LINE ( 'NONE', #288, #95 ) ;
#58 = VERTEX_POINT ( 'NONE', #237 ) ;
#59 =( LENGTH_UNIT ( ) NAMED_UNIT ( * ) SI_UNIT ( $, .METRE. ) );
#60 = ORIENTED_EDGE ( 'NONE', *, *, #75, .F. ) ;
#61 = CARTESIAN_POINT ( 'NONE',  ( 2.847869806807417895E-17, 0.0000000000000000000, 0.2325462173085509621 ) ) ;
#62 = DIRECTION ( 'NONE',  ( 0.0000000000000000000, 0.0000000000000000000, 1.000000000000000000 ) ) ;
#63 = EDGE_CURVE ( 'NONE', #58, #6, #171, .T. ) ;
#64 = CARTESIAN_POINT ( 'NONE',  ( -0.05464530000000000776, 0.0000000000000000000, 6.692119173344688177E-18 ) ) ;
#65 =( GEOMETRIC_REPRESENTATION_CONTEXT ( 3 ) GLOBAL_UNCERTAINTY_ASSIGNED_CONTEXT ( ( #276 ) ) GLOBAL_UNIT_ASSIGNED_CONTEXT ( ( #189, #194, #259 ) ) REPRESENTATION_CONTEXT ( 'NONE', 'WORKASPACE' ) );
#66 = EDGE_CURVE ( 'NONE', #77, #296, #41, .T. ) ;
#67 = DIRECTION ( 'NONE',  ( -1.000000000000000000, 0.0000000000000000000, 1.224646799147353454E-16 ) ) ;
#68 = FACE_OUTER_BOUND ( 'NONE', #284, .T. ) ;
#69 = DIRECTION ( 'NONE',  ( 1.000000000000000000, 0.0000000000000000000, 0.0000000000000000000 ) ) ;
#70 = FACE_OUTER_BOUND ( 'NONE', #123, .T. ) ;
#71 = APPLICATION_PROTOCOL_DEFINITION ( 'draft international standard', 'automotive_design', 1998, #112 ) ;
#72 = AXIS2_PLACEMENT_3D ( 'NONE', #61, #114, #113 ) ;
#73 = AXIS2_PLACEMENT_3D ( 'NONE', #238, #79, #218 ) ;
#74 = DIRECTION ( 'NONE',  ( -0.0000000000000000000, -0.0000000000000000000, -1.000000000000000000 ) ) ;
#75 = EDGE_CURVE ( 'NONE', #220, #77, #136, .T. ) ;
#76 = DIRECTION ( 'NONE',  ( -1.000000000000000000, 0.0000000000000000000, 1.224646799147353700E-16 ) ) ;
#77 = VERTEX_POINT ( 'NONE', #132 ) ;
#78 = DIRECTION ( 'NONE',  ( -1.000000000000000000, 0.0000000000000000000, 1.224646799147353700E-16 ) ) ;
#79 = DIRECTION ( 'NONE',  ( 0.0000000000000000000, 0.0000000000000000000, 1.000000000000000000 ) ) ;
#80 = CIRCLE ( 'NONE', #72, 0.06250000000000000000 ) ;
#81 = SURFACE_SIDE_STYLE ('',( #291 ) ) ;
#82 = ORIENTED_EDGE ( 'NONE', *, *, #90, .F. ) ;
#83 = FACE_OUTER_BOUND ( 'NONE', #286, .T. ) ;
#84 = DIRECTION ( 'NONE',  ( 0.0000000000000000000, 0.0000000000000000000, 1.000000000000000000 ) ) ;
#85 = ADVANCED_FACE ( 'NONE', ( #182 ), #119, .T. ) ;
#86 = ORIENTED_EDGE ( 'NONE', *, *, #241, .T. ) ;
#87 = VECTOR ( 'NONE', #74, 39.37007874015748143 ) ;
#88 = VERTEX_POINT ( 'NONE', #228 ) ;
#89 = CARTESIAN_POINT ( 'NONE',  ( 2.302335982397024786E-17, 0.0000000000000000000, 0.1880000000000000282 ) ) ;
#90 = EDGE_CURVE ( 'NONE', #6, #137, #51, .T. ) ;
#91 = CARTESIAN_POINT ( 'NONE',  ( 0.0000000000000000000, 0.0000000000000000000, 0.0000000000000000000 ) ) ;
#92 = DIRECTION ( 'NONE',  ( -0.0000000000000000000, -0.0000000000000000000, -1.000000000000000000 ) ) ;
#93 = DIRECTION ( 'NONE',  ( -1.224646799147353454E-16, -0.0000000000000000000, -1.000000000000000000 ) ) ;
#94 = AXIS2_PLACEMENT_3D ( 'NONE', #275, #8, #142 ) ;
#95 = VECTOR ( 'NONE', #214, 39.37007874015747433 ) ;
#96 = DIRECTION ( 'NONE',  ( -1.000000000000000000, 0.0000000000000000000, 0.0000000000000000000 ) ) ;
#97 = ORIENTED_EDGE ( 'NONE', *, *, #52, .F. ) ;
#98 = SURFACE_STYLE_USAGE ( .BOTH. , #81 ) ;
#99 = VERTEX_POINT ( 'NONE', #225 ) ;
#100 = PLANE ( 'NONE',  #73 ) ;
#101 = EDGE_CURVE ( 'NONE', #99, #58, #293, .T. ) ;
#102 = APPLICATION_PROTOCOL_DEFINITION ( 'draft international standard', 'automotive_design', 1998, #10 ) ;
#103 = ORIENTED_EDGE ( 'NONE', *, *, #177, .F. ) ;
#104 = CARTESIAN_POINT ( 'NONE',  ( -0.06250000000000000000, 0.0000000000000000000, 1.485000000000000764 ) ) ;
#105 = ORIENTED_EDGE ( 'NONE', *, *, #280, .F. ) ;
#106 = EDGE_CURVE ( 'NONE', #58, #99, #7, .T. ) ;
#107 = AXIS2_PLACEMENT_3D ( 'NONE', #120, #92, #144 ) ;
#108 =( GEOMETRIC_REPRESENTATION_CONTEXT ( 3 ) GLOBAL_UNCERTAINTY_ASSIGNED_CONTEXT ( ( #229 ) ) GLOBAL_UNIT_ASSIGNED_CONTEXT ( ( #290, #9, #20 ) ) REPRESENTATION_CONTEXT ( 'NONE', 'WORKASPACE' ) );
#109 = ORIENTED_EDGE ( 'NONE', *, *, #177, .T. ) ;
#110 = AXIS2_PLACEMENT_3D ( 'NONE', #200, #1, #242 ) ;
#111 = CIRCLE ( 'NONE', #186, 0.05464529999999999388 ) ;
#112 = APPLICATION_CONTEXT ( 'automotive_design' ) ;
#113 = DIRECTION ( 'NONE',  ( 1.000000000000000000, 0.0000000000000000000, 0.0000000000000000000 ) ) ;
#114 = DIRECTION ( 'NONE',  ( -1.224646799147353454E-16, -0.0000000000000000000, -1.000000000000000000 ) ) ;
#115 = CIRCLE ( 'NONE', #110, 0.06250000000000000000 ) ;
#116 = LINE ( 'NONE', #117, #227 ) ;
#117 = CARTESIAN_POINT ( 'NONE',  ( 0.05464530000000002857, 0.0000000000000000000, 0.1880000000000000282 ) ) ;
#118 = UNCERTAINTY_MEASURE_WITH_UNIT (LENGTH_MEASURE( 1.000000000000000082E-05 ), #244, 'distance_accuracy_value', 'NONE');
#119 = CYLINDRICAL_SURFACE ( 'NONE', #281, 0.05464530000000000776 ) ;
#120 = CARTESIAN_POINT ( 'NONE',  ( 0.0000000000000000000, 0.0000000000000000000, 1.500000000000000222 ) ) ;
#121 = SHAPE_DEFINITION_REPRESENTATION ( #277, #129 ) ;
#122 = CARTESIAN_POINT ( 'NONE',  ( 0.0000000000000000000, 0.0000000000000000000, 1.485000000000000764 ) ) ;
#123 = EDGE_LOOP ( 'NONE', ( #168, #147, #210, #239 ) ) ;
#124 = ORIENTED_EDGE ( 'NONE', *, *, #27, .F. ) ;
#125 = LENGTH_MEASURE_WITH_UNIT ( LENGTH_MEASURE( 0.02539999999999999897 ), #149 );
#126 = CONICAL_SURFACE ( 'NONE', #298, 0.04750000000000064587, 0.7853981633974457255 ) ;
#127 = COLOUR_RGB ( '',0.7921568627450980005, 0.8196078431372548767, 0.9333333333333333481 ) ;
#128 = ORIENTED_EDGE ( 'NONE', *, *, #101, .F. ) ;
#129 = ADVANCED_BREP_SHAPE_REPRESENTATION ( 'Micro_SEM-109-03X', ( #257, #179 ), #108 ) ;
#130 = CARTESIAN_POINT ( 'NONE',  ( 0.04750000000000064587, 5.817072295950006528E-18, 1.500000000000000222 ) ) ;
#131 = SURFACE_STYLE_USAGE ( .BOTH. , #53 ) ;
#132 = CARTESIAN_POINT ( 'NONE',  ( 0.04750000000000064587, 6.735557395310482421E-18, 1.500000000000000222 ) ) ;
#133 = VECTOR ( 'NONE', #195, 39.37007874015748143 ) ;
#134 = ORIENTED_EDGE ( 'NONE', *, *, #188, .T. ) ;
#135 = LENGTH_MEASURE_WITH_UNIT ( LENGTH_MEASURE( 0.02539999999999999897 ), #152 );
#136 = CIRCLE ( 'NONE', #151, 0.04750000000000064587 ) ;
#137 = VERTEX_POINT ( 'NONE', #29 ) ;
#138 = DIRECTION ( 'NONE',  ( -1.000000000000000000, 0.0000000000000000000, 0.0000000000000000000 ) ) ;
#139 = AXIS2_PLACEMENT_3D ( 'NONE', #159, #25, #67 ) ;
#140 = FILL_AREA_STYLE ('',( #252 ) ) ;
#141 = CARTESIAN_POINT ( 'NONE',  ( 2.302335982397024786E-17, 0.0000000000000000000, 0.1880000000000000282 ) ) ;
#142 = DIRECTION ( 'NONE',  ( -1.000000000000000000, 0.0000000000000000000, 0.0000000000000000000 ) ) ;
#143 = ORIENTED_EDGE ( 'NONE', *, *, #106, .F. ) ;
#144 = DIRECTION ( 'NONE',  ( -1.000000000000000000, 0.0000000000000000000, 0.0000000000000000000 ) ) ;
#145 = VECTOR ( 'NONE', #175, 39.37007874015748143 ) ;
#146 = AXIS2_PLACEMENT_3D ( 'NONE', #261, #285, #234 ) ;
#147 = ORIENTED_EDGE ( 'NONE', *, *, #27, .T. ) ;
#148 = EDGE_LOOP ( 'NONE', ( #128, #19, #260, #103 ) ) ;
#149 =( LENGTH_UNIT ( ) NAMED_UNIT ( * ) SI_UNIT ( $, .METRE. ) );
#150 = EDGE_LOOP ( 'NONE', ( #211, #28, #34, #82 ) ) ;
#151 = AXIS2_PLACEMENT_3D ( 'NONE', #295, #84, #45 ) ;
#152 =( LENGTH_UNIT ( ) NAMED_UNIT ( * ) SI_UNIT ( $, .METRE. ) );
#153 = LINE ( 'NONE', #155, #236 ) ;
#154 = DIRECTION ( 'NONE',  ( -0.0000000000000000000, -0.0000000000000000000, -1.000000000000000000 ) ) ;
#155 = CARTESIAN_POINT ( 'NONE',  ( 0.06250000000000000000, 7.654042494670956004E-18, 1.500000000000000222 ) ) ;
#156 = AXIS2_PLACEMENT_3D ( 'NONE', #181, #165, #256 ) ;
#157 = CIRCLE ( 'NONE', #272, 0.04750000000000064587 ) ;
#158 = PRODUCT_DEFINITION_FORMATION_WITH_SPECIFIED_SOURCE ( 'ANY', '', #190, .NOT_KNOWN. ) ;
#159 = CARTESIAN_POINT ( 'NONE',  ( 0.0000000000000000000, 0.0000000000000000000, 0.0000000000000000000 ) ) ;
#160 = CARTESIAN_POINT ( 'NONE',  ( 8.195482325149204388E-34, 0.0000000000000000000, 6.692119173344687407E-18 ) ) ;
#161 = CARTESIAN_POINT ( 'NONE',  ( -0.04750000000000064587, 0.0000000000000000000, 1.500000000000000222 ) ) ;
#162 = CIRCLE ( 'NONE', #196, 0.06250000000000000000 ) ;
#163 = FACE_OUTER_BOUND ( 'NONE', #148, .T. ) ;
#164 = PRODUCT_RELATED_PRODUCT_CATEGORY ( 'part', '', ( #190 ) ) ;
#165 = DIRECTION ( 'NONE',  ( -0.0000000000000000000, -0.0000000000000000000, -1.000000000000000000 ) ) ;
#166 =( NAMED_UNIT ( * ) PLANE_ANGLE_UNIT ( ) SI_UNIT ( $, .RADIAN. ) );
#167 = CARTESIAN_POINT ( 'NONE',  ( 0.06250000000000002776, 7.654042494670959086E-18, 0.2325462173085509621 ) ) ;
#168 = ORIENTED_EDGE ( 'NONE', *, *, #198, .T. ) ;
#169 = AXIS2_PLACEMENT_3D ( 'NONE', #89, #233, #69 ) ;
#170 = ORIENTED_EDGE ( 'NONE', *, *, #183, .T. ) ;
#171 = LINE ( 'NONE', #263, #145 ) ;
#172 = PRESENTATION_STYLE_ASSIGNMENT (( #98 ) ) ;
#173 = ORIENTED_EDGE ( 'NONE', *, *, #101, .T. ) ;
#174 = CONICAL_SURFACE ( 'NONE', #169, 0.05464530000000000776, 0.1745329251994339192 ) ;
#175 = DIRECTION ( 'NONE',  ( -1.224646799147353454E-16, -0.0000000000000000000, -1.000000000000000000 ) ) ;
#176 = CARTESIAN_POINT ( 'NONE',  ( 0.05464529999999999388, 6.692119173344685866E-18, 9.478001694819074349E-34 ) ) ;
#177 = EDGE_CURVE ( 'NONE', #58, #193, #116, .T. ) ;
#178 = ORIENTED_EDGE ( 'NONE', *, *, #245, .T. ) ;
#179 = AXIS2_PLACEMENT_3D ( 'NONE', #232, #279, #209 ) ;
#180 = DIRECTION ( 'NONE',  ( -1.224646799147353454E-16, -0.0000000000000000000, -1.000000000000000000 ) ) ;
#181 = CARTESIAN_POINT ( 'NONE',  ( 0.0000000000000000000, 0.0000000000000000000, 1.500000000000000222 ) ) ;
#182 = FACE_OUTER_BOUND ( 'NONE', #21, .T. ) ;
#183 = EDGE_CURVE ( 'NONE', #267, #88, #254, .T. ) ;
#184 = CIRCLE ( 'NONE', #253, 0.06250000000000000000 ) ;
#185 = DIRECTION ( 'NONE',  ( 0.0000000000000000000, 0.0000000000000000000, -1.000000000000000000 ) ) ;
#186 = AXIS2_PLACEMENT_3D ( 'NONE', #160, #264, #78 ) ;
#187 = DIRECTION ( 'NONE',  ( -0.7071067811865456854, 0.0000000000000000000, -0.7071067811865493491 ) ) ;
#188 = EDGE_CURVE ( 'NONE', #296, #267, #162, .T. ) ;
#189 =( CONVERSION_BASED_UNIT ( 'INCH', #125 ) LENGTH_UNIT ( ) NAMED_UNIT ( #268 ) );
#190 = PRODUCT ( 'Micro_SEM-109-03X', 'Micro_SEM-109-03X', '', ( #217 ) ) ;
#191 = FILL_AREA_STYLE_COLOUR ( '', #127 ) ;
#192 = ADVANCED_FACE ( 'NONE', ( #68 ), #258, .T. ) ;
#193 = VERTEX_POINT ( 'NONE', #167 ) ;
#194 =( NAMED_UNIT ( * ) PLANE_ANGLE_UNIT ( ) SI_UNIT ( $, .RADIAN. ) );
#195 = DIRECTION ( 'NONE',  ( 0.7071067811865456854, 8.659560562354911904E-17, -0.7071067811865493491 ) ) ;
#196 = AXIS2_PLACEMENT_3D ( 'NONE', #204, #203, #274 ) ;
#197 = ORIENTED_EDGE ( 'NONE', *, *, #66, .T. ) ;
#198 = EDGE_CURVE ( 'NONE', #267, #296, #184, .T. ) ;
#199 = ADVANCED_FACE ( 'NONE', ( #231 ), #32, .T. ) ;
#200 = CARTESIAN_POINT ( 'NONE',  ( 2.847869806807417895E-17, 0.0000000000000000000, 0.2325462173085509621 ) ) ;
#201 = FACE_OUTER_BOUND ( 'NONE', #11, .T. ) ;
#202 =( NAMED_UNIT ( * ) SI_UNIT ( $, .STERADIAN. ) SOLID_ANGLE_UNIT ( ) );
#203 = DIRECTION ( 'NONE',  ( 0.0000000000000000000, 0.0000000000000000000, -1.000000000000000000 ) ) ;
#204 = CARTESIAN_POINT ( 'NONE',  ( 0.0000000000000000000, 0.0000000000000000000, 1.485000000000000764 ) ) ;
#205 = CARTESIAN_POINT ( 'NONE',  ( 8.195482325149204388E-34, 0.0000000000000000000, 6.692119173344687407E-18 ) ) ;
#206 = AXIS2_PLACEMENT_3D ( 'NONE', #42, #62, #248 ) ;
#207 = LINE ( 'NONE', #161, #246 ) ;
#208 = DIRECTION ( 'NONE',  ( 1.000000000000000000, 0.0000000000000000000, 0.0000000000000000000 ) ) ;
#209 = DIRECTION ( 'NONE',  ( 1.000000000000000000, 0.0000000000000000000, 0.0000000000000000000 ) ) ;
#210 = ORIENTED_EDGE ( 'NONE', *, *, #12, .F. ) ;
#211 = ORIENTED_EDGE ( 'NONE', *, *, #63, .F. ) ;
#212 = STYLED_ITEM ( 'NONE', ( #172 ), #129 ) ;
#213 = EDGE_LOOP ( 'NONE', ( #124, #134, #170, #97 ) ) ;
#214 = DIRECTION ( 'NONE',  ( -0.1736481776669312194, 2.126576849575783625E-17, 0.9848077530122080203 ) ) ;
#215 = PRODUCT_DEFINITION ( 'UNKNOWN', '', #158, #251 ) ;
#216 = ORIENTED_EDGE ( 'NONE', *, *, #188, .F. ) ;
#217 = PRODUCT_CONTEXT ( 'NONE', #10, 'mechanical' ) ;
#218 = DIRECTION ( 'NONE',  ( 1.000000000000000000, 0.0000000000000000000, -0.0000000000000000000 ) ) ;
#219 = PLANE ( 'NONE',  #206 ) ;
#220 = VERTEX_POINT ( 'NONE', #249 ) ;
#221 = DIRECTION ( 'NONE',  ( -1.224646799147353454E-16, -0.0000000000000000000, -1.000000000000000000 ) ) ;
#222 = DIMENSIONAL_EXPONENTS ( 1.000000000000000000, 0.0000000000000000000, 0.0000000000000000000, 0.0000000000000000000, 0.0000000000000000000, 0.0000000000000000000, 0.0000000000000000000 ) ;
#223 = ADVANCED_FACE ( 'NONE', ( #255 ), #126, .T. ) ;
#224 = ORIENTED_EDGE ( 'NONE', *, *, #198, .F. ) ;
#225 = CARTESIAN_POINT ( 'NONE',  ( -0.05464529999999998000, 7.173080834007822861E-18, 0.1880000000000000282 ) ) ;
#226 = ADVANCED_FACE ( 'NONE', ( #70 ), #33, .T. ) ;
#227 = VECTOR ( 'NONE', #230, 39.37007874015748143 ) ;
#228 = CARTESIAN_POINT ( 'NONE',  ( -0.06249999999999997224, 0.0000000000000000000, 0.2325462173085509621 ) ) ;
#229 = UNCERTAINTY_MEASURE_WITH_UNIT (LENGTH_MEASURE( 1.000000000000000082E-05 ), #290, 'distance_accuracy_value', 'NONE');
#230 = DIRECTION ( 'NONE',  ( 0.1736481776669314137, 0.0000000000000000000, 0.9848077530122077983 ) ) ;
#231 = FACE_OUTER_BOUND ( 'NONE', #213, .T. ) ;
#232 = CARTESIAN_POINT ( 'NONE',  ( 0.0000000000000000000, 0.0000000000000000000, 0.0000000000000000000 ) ) ;
#233 = DIRECTION ( 'NONE',  ( 1.224646799147353454E-16, 0.0000000000000000000, 1.000000000000000000 ) ) ;
#234 = DIRECTION ( 'NONE',  ( 1.000000000000000000, 0.0000000000000000000, 0.0000000000000000000 ) ) ;
#235 = VECTOR ( 'NONE', #221, 39.37007874015748143 ) ;
#236 = VECTOR ( 'NONE', #154, 39.37007874015748143 ) ;
#237 = CARTESIAN_POINT ( 'NONE',  ( 0.05464530000000002857, 0.0000000000000000000, 0.1880000000000000282 ) ) ;
#238 = CARTESIAN_POINT ( 'NONE',  ( 0.0000000000000000000, 0.0000000000000000000, 0.0000000000000000000 ) ) ;
#239 = ORIENTED_EDGE ( 'NONE', *, *, #183, .F. ) ;
#240 = FACE_OUTER_BOUND ( 'NONE', #266, .T. ) ;
#241 = EDGE_CURVE ( 'NONE', #220, #267, #207, .T. ) ;
#242 = DIRECTION ( 'NONE',  ( 1.000000000000000000, 0.0000000000000000000, 0.0000000000000000000 ) ) ;
#243 = ORIENTED_EDGE ( 'NONE', *, *, #66, .F. ) ;
#244 =( CONVERSION_BASED_UNIT ( 'INCH', #135 ) LENGTH_UNIT ( ) NAMED_UNIT ( #222 ) );
#245 = EDGE_CURVE ( 'NONE', #77, #220, #157, .T. ) ;
#246 = VECTOR ( 'NONE', #187, 39.37007874015748143 ) ;
#247 = MECHANICAL_DESIGN_GEOMETRIC_PRESENTATION_REPRESENTATION (  '', ( #212 ), #294 ) ;
#248 = DIRECTION ( 'NONE',  ( 1.000000000000000000, 0.0000000000000000000, -0.0000000000000000000 ) ) ;
#249 = CARTESIAN_POINT ( 'NONE',  ( -0.04750000000000064587, 0.0000000000000000000, 1.500000000000000222 ) ) ;
#250 = ADVANCED_FACE ( 'NONE', ( #163 ), #174, .T. ) ;
#251 = PRODUCT_DEFINITION_CONTEXT ( 'detailed design', #112, 'design' ) ;
#252 = FILL_AREA_STYLE_COLOUR ( '', #40 ) ;
#253 = AXIS2_PLACEMENT_3D ( 'NONE', #122, #4, #208 ) ;
#254 = LINE ( 'NONE', #282, #87 ) ;
#255 = FACE_OUTER_BOUND ( 'NONE', #56, .T. ) ;
#256 = DIRECTION ( 'NONE',  ( -1.000000000000000000, 0.0000000000000000000, 0.0000000000000000000 ) ) ;
#257 = MANIFOLD_SOLID_BREP ( 'Cut-Revolve1', #3 ) ;
#258 = CONICAL_SURFACE ( 'NONE', #287, 0.04750000000000064587, 0.7853981633974457255 ) ;
#259 =( NAMED_UNIT ( * ) SI_UNIT ( $, .STERADIAN. ) SOLID_ANGLE_UNIT ( ) );
#260 = ORIENTED_EDGE ( 'NONE', *, *, #12, .T. ) ;
#261 = CARTESIAN_POINT ( 'NONE',  ( 2.302335982397024786E-17, 0.0000000000000000000, 0.1880000000000000282 ) ) ;
#262 = ORIENTED_EDGE ( 'NONE', *, *, #90, .T. ) ;
#263 = CARTESIAN_POINT ( 'NONE',  ( 0.05464530000000000776, 6.692119173344686636E-18, -6.692119173344688177E-18 ) ) ;
#264 = DIRECTION ( 'NONE',  ( -1.224646799147353454E-16, -0.0000000000000000000, -1.000000000000000000 ) ) ;
#265 = STYLED_ITEM ( 'NONE', ( #16 ), #257 ) ;
#266 = EDGE_LOOP ( 'NONE', ( #105, #143, #109, #289 ) ) ;
#267 = VERTEX_POINT ( 'NONE', #104 ) ;
#268 = DIMENSIONAL_EXPONENTS ( 1.000000000000000000, 0.0000000000000000000, 0.0000000000000000000, 0.0000000000000000000, 0.0000000000000000000, 0.0000000000000000000, 0.0000000000000000000 ) ;
#269 = LINE ( 'NONE', #64, #235 ) ;
#270 = EDGE_CURVE ( 'NONE', #137, #6, #111, .T. ) ;
#271 = CYLINDRICAL_SURFACE ( 'NONE', #139, 0.05464530000000000776 ) ;
#272 = AXIS2_PLACEMENT_3D ( 'NONE', #55, #50, #36 ) ;
#273 = ADVANCED_FACE ( 'NONE', ( #240 ), #35, .T. ) ;
#274 = DIRECTION ( 'NONE',  ( 1.000000000000000000, 0.0000000000000000000, 0.0000000000000000000 ) ) ;
#275 = CARTESIAN_POINT ( 'NONE',  ( 2.302335982397024786E-17, 0.0000000000000000000, 0.1880000000000000282 ) ) ;
#276 = UNCERTAINTY_MEASURE_WITH_UNIT (LENGTH_MEASURE( 1.000000000000000082E-05 ), #189, 'distance_accuracy_value', 'NONE');
#277 = PRODUCT_DEFINITION_SHAPE ( 'NONE', 'NONE',  #215 ) ;
#278 = DIRECTION ( 'NONE',  ( 0.0000000000000000000, 0.0000000000000000000, -1.000000000000000000 ) ) ;
#279 = DIRECTION ( 'NONE',  ( 0.0000000000000000000, 0.0000000000000000000, 1.000000000000000000 ) ) ;
#280 = EDGE_CURVE ( 'NONE', #99, #88, #57, .T. ) ;
#281 = AXIS2_PLACEMENT_3D ( 'NONE', #91, #93, #49 ) ;
#282 = CARTESIAN_POINT ( 'NONE',  ( -0.06250000000000000000, 0.0000000000000000000, 1.500000000000000222 ) ) ;
#283 = DIRECTION ( 'NONE',  ( -1.224646799147353454E-16, -0.0000000000000000000, -1.000000000000000000 ) ) ;
#284 = EDGE_LOOP ( 'NONE', ( #24, #197, #224, #39 ) ) ;
#285 = DIRECTION ( 'NONE',  ( 1.224646799147353454E-16, 0.0000000000000000000, 1.000000000000000000 ) ) ;
#286 = EDGE_LOOP ( 'NONE', ( #48, #262 ) ) ;
#287 = AXIS2_PLACEMENT_3D ( 'NONE', #2, #185, #138 ) ;
#288 = CARTESIAN_POINT ( 'NONE',  ( -0.05464529999999998000, 6.692119173344686636E-18, 0.1880000000000000282 ) ) ;
#289 = ORIENTED_EDGE ( 'NONE', *, *, #52, .T. ) ;
#290 =( CONVERSION_BASED_UNIT ( 'INCH', #38 ) LENGTH_UNIT ( ) NAMED_UNIT ( #43 ) );
#291 = SURFACE_STYLE_FILL_AREA ( #13 ) ;
#292 = ORIENTED_EDGE ( 'NONE', *, *, #270, .F. ) ;
#293 = CIRCLE ( 'NONE', #26, 0.05464530000000000776 ) ;
#294 =( GEOMETRIC_REPRESENTATION_CONTEXT ( 3 ) GLOBAL_UNCERTAINTY_ASSIGNED_CONTEXT ( ( #118 ) ) GLOBAL_UNIT_ASSIGNED_CONTEXT ( ( #244, #166, #202 ) ) REPRESENTATION_CONTEXT ( 'NONE', 'WORKASPACE' ) );
#295 = CARTESIAN_POINT ( 'NONE',  ( 0.0000000000000000000, 0.0000000000000000000, 1.500000000000000222 ) ) ;
#296 = VERTEX_POINT ( 'NONE', #44 ) ;
#297 = ADVANCED_FACE ( 'NONE', ( #83 ), #100, .F. ) ;
#298 = AXIS2_PLACEMENT_3D ( 'NONE', #54, #278, #96 ) ;
#299 = ORIENTED_EDGE ( 'NONE', *, *, #75, .T. ) ;
ENDSEC;
END-ISO-10303-21;
