ISO-10303-21;
HEADER;
FILE_DESCRIPTION (( 'STEP AP214' ),
    '1' );
FILE_NAME ('84609.STEP',
    '2023-07-12T13:11:14',
    ( '' ),
    ( '' ),
    'SwSTEP 2.0',
    'SolidWorks 2023',
    '' );
FILE_SCHEMA (( 'AUTOMOTIVE_DESIGN' ));
ENDSEC;

DATA;
#1 =( NAMED_UNIT ( * ) PLANE_ANGLE_UNIT ( ) SI_UNIT ( $, .RADIAN. ) );
#2 = DIMENSIONAL_EXPONENTS ( 1.000000000000000000, 0.000000000000000000, 0.000000000000000000, 0.000000000000000000, 0.000000000000000000, 0.000000000000000000, 0.000000000000000000 ) ;
#3 = EDGE_CURVE ( 'NONE', #138, #67, #64, .T. ) ;
#4 = VERTEX_POINT ( 'NONE', #73 ) ;
#5 = SURFACE_SIDE_STYLE ('',( #151 ) ) ;
#6 = SURFACE_STYLE_FILL_AREA ( #128 ) ;
#7 = EDGE_CURVE ( 'NONE', #99, #109, #260, .T. ) ;
#8 = DIRECTION ( 'NONE',  ( -1.000000000000000000, 0.000000000000000000, 0.000000000000000000 ) ) ;
#9 = APPLICATION_PROTOCOL_DEFINITION ( 'draft international standard', 'automotive_design', 1998, #51 ) ;
#10 =( NAMED_UNIT ( * ) PLANE_ANGLE_UNIT ( ) SI_UNIT ( $, .RADIAN. ) );
#11 = PRODUCT_DEFINITION_SHAPE ( 'NONE', 'NONE',  #285 ) ;
#12 = VECTOR ( 'NONE', #238, 39.37007874015748854 ) ;
#13 = EDGE_CURVE ( 'NONE', #86, #138, #23, .T. ) ;
#14 = MECHANICAL_DESIGN_GEOMETRIC_PRESENTATION_REPRESENTATION (  '', ( #132 ), #114 ) ;
#15 =( GEOMETRIC_REPRESENTATION_CONTEXT ( 3 ) GLOBAL_UNCERTAINTY_ASSIGNED_CONTEXT ( ( #245 ) ) GLOBAL_UNIT_ASSIGNED_CONTEXT ( ( #276, #46, #126 ) ) REPRESENTATION_CONTEXT ( 'NONE', 'WORKASPACE' ) );
#16 =( LENGTH_UNIT ( ) NAMED_UNIT ( * ) SI_UNIT ( $, .METRE. ) );
#17 = DIRECTION ( 'NONE',  ( -1.000000000000000000, -9.808453778935679373E-34, 0.000000000000000000 ) ) ;
#18 = CARTESIAN_POINT ( 'NONE',  ( -2.369500423704768587E-34, 0.2415773655164111522, 0.000000000000000000 ) ) ;
#19 = EDGE_CURVE ( 'NONE', #67, #138, #212, .T. ) ;
#20 = SURFACE_SIDE_STYLE ('',( #263 ) ) ;
#21 = CARTESIAN_POINT ( 'NONE',  ( -6.123233995736772199E-17, 3.000000000000000444, 0.000000000000000000 ) ) ;
#22 =( GEOMETRIC_REPRESENTATION_CONTEXT ( 3 ) GLOBAL_UNCERTAINTY_ASSIGNED_CONTEXT ( ( #163 ) ) GLOBAL_UNIT_ASSIGNED_CONTEXT ( ( #85, #10, #225 ) ) REPRESENTATION_CONTEXT ( 'NONE', 'WORKASPACE' ) );
#23 = LINE ( 'NONE', #250, #12 ) ;
#24 = DIRECTION ( 'NONE',  ( 0.000000000000000000, 0.000000000000000000, 1.000000000000000000 ) ) ;
#25 = LENGTH_MEASURE_WITH_UNIT ( LENGTH_MEASURE( 0.02539999999999999897 ), #302 );
#26 = PRODUCT_CONTEXT ( 'NONE', #281, 'mechanical' ) ;
#27 = FACE_OUTER_BOUND ( 'NONE', #44, .T. ) ;
#28 = AXIS2_PLACEMENT_3D ( 'NONE', #18, #171, #294 ) ;
#29 = STYLED_ITEM ( 'NONE', ( #50 ), #186 ) ;
#30 = ORIENTED_EDGE ( 'NONE', *, *, #74, .F. ) ;
#31 = ORIENTED_EDGE ( 'NONE', *, *, #3, .F. ) ;
#32 = VECTOR ( 'NONE', #197, 39.37007874015748854 ) ;
#33 = ADVANCED_FACE ( 'NONE', ( #223 ), #305, .T. ) ;
#34 =( NAMED_UNIT ( * ) PLANE_ANGLE_UNIT ( ) SI_UNIT ( $, .RADIAN. ) );
#35 = CARTESIAN_POINT ( 'NONE',  ( -0.2499999999999994171, 0.2415773655164113187, 0.000000000000000000 ) ) ;
#36 =( CONVERSION_BASED_UNIT ( 'INCH', #265 ) LENGTH_UNIT ( ) NAMED_UNIT ( #306 ) );
#37 =( LENGTH_UNIT ( ) NAMED_UNIT ( * ) SI_UNIT ( $, .METRE. ) );
#38 = CLOSED_SHELL ( 'NONE', ( #33, #186, #115, #279 ) ) ;
#39 = PRODUCT_DEFINITION_FORMATION_WITH_SPECIFIED_SOURCE ( 'ANY', '', #107, .NOT_KNOWN. ) ;
#40 = ORIENTED_EDGE ( 'NONE', *, *, #7, .F. ) ;
#41 = FILL_AREA_STYLE ('',( #175 ) ) ;
#42 = DIRECTION ( 'NONE',  ( -1.000000000000000000, -1.206665185214025874E-16, 0.000000000000000000 ) ) ;
#43 = DIRECTION ( 'NONE',  ( 1.000000000000000000, 9.808453778935677663E-34, 0.000000000000000000 ) ) ;
#44 = EDGE_LOOP ( 'NONE', ( #173, #304 ) ) ;
#45 = EDGE_LOOP ( 'NONE', ( #169, #290 ) ) ;
#46 =( NAMED_UNIT ( * ) PLANE_ANGLE_UNIT ( ) SI_UNIT ( $, .RADIAN. ) );
#47 = ORIENTED_EDGE ( 'NONE', *, *, #3, .T. ) ;
#48 = PRESENTATION_STYLE_ASSIGNMENT (( #247 ) ) ;
#49 = ORIENTED_EDGE ( 'NONE', *, *, #19, .T. ) ;
#50 = PRESENTATION_STYLE_ASSIGNMENT (( #155 ) ) ;
#51 = APPLICATION_CONTEXT ( 'automotive_design' ) ;
#52 = FACE_OUTER_BOUND ( 'NONE', #210, .T. ) ;
#53 = MECHANICAL_DESIGN_GEOMETRIC_PRESENTATION_REPRESENTATION (  '', ( #208 ), #108 ) ;
#54 =( GEOMETRIC_REPRESENTATION_CONTEXT ( 3 ) GLOBAL_UNCERTAINTY_ASSIGNED_CONTEXT ( ( #76 ) ) GLOBAL_UNIT_ASSIGNED_CONTEXT ( ( #220, #252, #57 ) ) REPRESENTATION_CONTEXT ( 'NONE', 'WORKASPACE' ) );
#55 = EDGE_CURVE ( 'NONE', #109, #99, #69, .T. ) ;
#56 = DIRECTION ( 'NONE',  ( 1.000000000000000000, 9.808453778935679373E-34, 0.000000000000000000 ) ) ;
#57 =( NAMED_UNIT ( * ) SI_UNIT ( $, .STERADIAN. ) SOLID_ANGLE_UNIT ( ) );
#58 = MANIFOLD_SOLID_BREP ( 'Revolve - Cutting Edge', #38 ) ;
#59 = COLOUR_RGB ( '',1.000000000000000000, 0.000000000000000000, 0.000000000000000000 ) ;
#60 = DIRECTION ( 'NONE',  ( 1.000000000000000000, 1.206665185214025874E-16, 0.000000000000000000 ) ) ;
#61 = ORIENTED_EDGE ( 'NONE', *, *, #244, .F. ) ;
#62 = CARTESIAN_POINT ( 'NONE',  ( 3.848230621340703528E-68, -3.923381511574271493E-35, 0.000000000000000000 ) ) ;
#63 = UNCERTAINTY_MEASURE_WITH_UNIT (LENGTH_MEASURE( 1.000000000000000082E-05 ), #165, 'distance_accuracy_value', 'NONE');
#64 = CIRCLE ( 'NONE', #28, 0.2499999999999999722 ) ;
#65 =( GEOMETRIC_REPRESENTATION_CONTEXT ( 3 ) GLOBAL_UNCERTAINTY_ASSIGNED_CONTEXT ( ( #258 ) ) GLOBAL_UNIT_ASSIGNED_CONTEXT ( ( #190, #102, #101 ) ) REPRESENTATION_CONTEXT ( 'NONE', 'WORKASPACE' ) );
#66 = DIRECTION ( 'NONE',  ( -1.206665185214025874E-16, 1.000000000000000000, -0.000000000000000000 ) ) ;
#67 = VERTEX_POINT ( 'NONE', #142 ) ;
#68 = EDGE_LOOP ( 'NONE', ( #187, #233, #198, #49 ) ) ;
#69 = CIRCLE ( 'NONE', #229, 0.2500000000000000555 ) ;
#70 = CARTESIAN_POINT ( 'NONE',  ( 0.04000000000000000083, 0.000000000000000000, 1.775737858763662224E-17 ) ) ;
#71 = ADVANCED_BREP_SHAPE_REPRESENTATION ( '84609', ( #58, #174, #206 ), #54 ) ;
#72 = SURFACE_STYLE_FILL_AREA ( #124 ) ;
#73 = CARTESIAN_POINT ( 'NONE',  ( -0.04000000000000000083, -7.846763023148542985E-35, 0.000000000000000000 ) ) ;
#74 = EDGE_CURVE ( 'NONE', #4, #67, #236, .T. ) ;
#75 = PLANE ( 'NONE',  #230 ) ;
#76 = UNCERTAINTY_MEASURE_WITH_UNIT (LENGTH_MEASURE( 1.000000000000000082E-05 ), #220, 'distance_accuracy_value', 'NONE');
#77 = CARTESIAN_POINT ( 'NONE',  ( -2.369500423704768587E-34, 0.2415773655164111522, 0.000000000000000000 ) ) ;
#78 = DIRECTION ( 'NONE',  ( -1.000000000000000000, 0.000000000000000000, 0.000000000000000000 ) ) ;
#79 = COLOUR_RGB ( '',1.000000000000000000, 0.000000000000000000, 0.000000000000000000 ) ;
#80 = VECTOR ( 'NONE', #256, 39.37007874015748143 ) ;
#81 =( NAMED_UNIT ( * ) SI_UNIT ( $, .STERADIAN. ) SOLID_ANGLE_UNIT ( ) );
#82 = EDGE_CURVE ( 'NONE', #164, #90, #176, .T. ) ;
#83 = DIRECTION ( 'NONE',  ( 9.808453778935677663E-34, -1.000000000000000000, -0.000000000000000000 ) ) ;
#84 = CIRCLE ( 'NONE', #127, 0.2499999999999996947 ) ;
#85 =( CONVERSION_BASED_UNIT ( 'INCH', #25 ) LENGTH_UNIT ( ) NAMED_UNIT ( #271 ) );
#86 = VERTEX_POINT ( 'NONE', #70 ) ;
#87 = MECHANICAL_DESIGN_GEOMETRIC_PRESENTATION_REPRESENTATION (  '', ( #94 ), #125 ) ;
#88 = PRESENTATION_LAYER_ASSIGNMENT (  '', '', ( #29 ) ) ;
#89 = FACE_OUTER_BOUND ( 'NONE', #189, .T. ) ;
#90 = VERTEX_POINT ( 'NONE', #35 ) ;
#91 = LENGTH_MEASURE_WITH_UNIT ( LENGTH_MEASURE( 0.02539999999999999897 ), #16 );
#92 = LENGTH_MEASURE_WITH_UNIT ( LENGTH_MEASURE( 0.02539999999999999897 ), #292 );
#93 = DIRECTION ( 'NONE',  ( 9.808453778935677663E-34, -1.000000000000000000, -0.000000000000000000 ) ) ;
#94 = STYLED_ITEM ( 'NONE', ( #243 ), #58 ) ;
#95 = MECHANICAL_DESIGN_GEOMETRIC_PRESENTATION_REPRESENTATION (  '', ( #29 ), #15 ) ;
#96 = CARTESIAN_POINT ( 'NONE',  ( 0.2500000000000000000, 3.000000000000000444, 3.061616997868383018E-17 ) ) ;
#97 = PRESENTATION_LAYER_ASSIGNMENT (  '', '', ( #118 ) ) ;
#98 = ADVANCED_FACE ( 'NONE', ( #89 ), #268, .F. ) ;
#99 = VERTEX_POINT ( 'NONE', #96 ) ;
#100 = ORIENTED_EDGE ( 'NONE', *, *, #13, .T. ) ;
#101 =( NAMED_UNIT ( * ) SI_UNIT ( $, .STERADIAN. ) SOLID_ANGLE_UNIT ( ) );
#102 =( NAMED_UNIT ( * ) PLANE_ANGLE_UNIT ( ) SI_UNIT ( $, .RADIAN. ) );
#103 = DIRECTION ( 'NONE',  ( 1.000000000000000000, 9.808453778935679373E-34, 0.000000000000000000 ) ) ;
#104 = PRODUCT_RELATED_PRODUCT_CATEGORY ( 'part', '', ( #107 ) ) ;
#105 = LINE ( 'NONE', #203, #110 ) ;
#106 = FILL_AREA_STYLE ('',( #185 ) ) ;
#107 = PRODUCT ( '84609', '84609', '', ( #26 ) ) ;
#108 =( GEOMETRIC_REPRESENTATION_CONTEXT ( 3 ) GLOBAL_UNCERTAINTY_ASSIGNED_CONTEXT ( ( #136 ) ) GLOBAL_UNIT_ASSIGNED_CONTEXT ( ( #218, #1, #195 ) ) REPRESENTATION_CONTEXT ( 'NONE', 'WORKASPACE' ) );
#109 = VERTEX_POINT ( 'NONE', #147 ) ;
#110 = VECTOR ( 'NONE', #180, 39.37007874015748143 ) ;
#111 = CARTESIAN_POINT ( 'NONE',  ( 0.2500000000000000000, 3.000000000000000444, 0.000000000000000000 ) ) ;
#112 = ORIENTED_EDGE ( 'NONE', *, *, #244, .T. ) ;
#113 = COLOUR_RGB ( '',0.7921568627450980005, 0.8196078431372548767, 0.9333333333333333481 ) ;
#114 =( GEOMETRIC_REPRESENTATION_CONTEXT ( 3 ) GLOBAL_UNCERTAINTY_ASSIGNED_CONTEXT ( ( #63 ) ) GLOBAL_UNIT_ASSIGNED_CONTEXT ( ( #165, #34, #192 ) ) REPRESENTATION_CONTEXT ( 'NONE', 'WORKASPACE' ) );
#115 = ADVANCED_FACE ( 'NONE', ( #239 ), #213, .T. ) ;
#116 = DIRECTION ( 'NONE',  ( -9.808453778935677663E-34, 1.000000000000000000, 0.000000000000000000 ) ) ;
#117 = COLOUR_RGB ( '',1.000000000000000000, 0.000000000000000000, 0.000000000000000000 ) ;
#118 = STYLED_ITEM ( 'NONE', ( #205 ), #279 ) ;
#119 = LENGTH_MEASURE_WITH_UNIT ( LENGTH_MEASURE( 0.02539999999999999897 ), #37 );
#120 = CARTESIAN_POINT ( 'NONE',  ( 2.716169159564024159E-16, 0.2415773655164111522, 0.000000000000000000 ) ) ;
#121 = SURFACE_STYLE_USAGE ( .BOTH. , #5 ) ;
#122 = DIRECTION ( 'NONE',  ( -1.000000000000000000, -9.808453778935679373E-34, 0.000000000000000000 ) ) ;
#123 = CARTESIAN_POINT ( 'NONE',  ( 3.848230621340703528E-68, -3.923381511574271493E-35, 0.000000000000000000 ) ) ;
#124 = FILL_AREA_STYLE ('',( #179 ) ) ;
#125 =( GEOMETRIC_REPRESENTATION_CONTEXT ( 3 ) GLOBAL_UNCERTAINTY_ASSIGNED_CONTEXT ( ( #143 ) ) GLOBAL_UNIT_ASSIGNED_CONTEXT ( ( #36, #296, #81 ) ) REPRESENTATION_CONTEXT ( 'NONE', 'WORKASPACE' ) );
#126 =( NAMED_UNIT ( * ) SI_UNIT ( $, .STERADIAN. ) SOLID_ANGLE_UNIT ( ) );
#127 = AXIS2_PLACEMENT_3D ( 'NONE', #158, #299, #280 ) ;
#128 = FILL_AREA_STYLE ('',( #277 ) ) ;
#129 = CARTESIAN_POINT ( 'NONE',  ( -6.123233995736772199E-17, 3.000000000000000444, 0.000000000000000000 ) ) ;
#130 = LENGTH_MEASURE_WITH_UNIT ( LENGTH_MEASURE( 0.02539999999999999897 ), #219 );
#131 = DIRECTION ( 'NONE',  ( -1.206665185214025874E-16, 1.000000000000000000, -0.000000000000000000 ) ) ;
#132 = STYLED_ITEM ( 'NONE', ( #211 ), #115 ) ;
#133 = CARTESIAN_POINT ( 'NONE',  ( 0.000000000000000000, 0.000000000000000000, 0.000000000000000000 ) ) ;
#134 = PRESENTATION_STYLE_ASSIGNMENT (( #159 ) ) ;
#135 = STYLED_ITEM ( 'NONE', ( #134 ), #174 ) ;
#136 = UNCERTAINTY_MEASURE_WITH_UNIT (LENGTH_MEASURE( 1.000000000000000082E-05 ), #218, 'distance_accuracy_value', 'NONE');
#137 = ORIENTED_EDGE ( 'NONE', *, *, #264, .T. ) ;
#138 = VERTEX_POINT ( 'NONE', #167 ) ;
#139 = FILL_AREA_STYLE ('',( #166 ) ) ;
#140 = EDGE_CURVE ( 'NONE', #4, #86, #261, .T. ) ;
#141 = EDGE_LOOP ( 'NONE', ( #257, #31 ) ) ;
#142 = CARTESIAN_POINT ( 'NONE',  ( -0.2500000000000000000, 0.2415773655164111522, 0.000000000000000000 ) ) ;
#143 = UNCERTAINTY_MEASURE_WITH_UNIT (LENGTH_MEASURE( 1.000000000000000082E-05 ), #36, 'distance_accuracy_value', 'NONE');
#144 = MECHANICAL_DESIGN_GEOMETRIC_PRESENTATION_REPRESENTATION (  '', ( #118 ), #22 ) ;
#145 = CARTESIAN_POINT ( 'NONE',  ( 2.716169159564024159E-16, 0.2415773655164113742, 0.000000000000000000 ) ) ;
#146 = DIRECTION ( 'NONE',  ( -1.000000000000000000, 0.000000000000000000, 0.000000000000000000 ) ) ;
#147 = CARTESIAN_POINT ( 'NONE',  ( -0.2500000000000001110, 3.000000000000000444, 0.000000000000000000 ) ) ;
#148 = FILL_AREA_STYLE_COLOUR ( '', #113 ) ;
#149 = CYLINDRICAL_SURFACE ( 'NONE', #202, 0.2499999999999998612 ) ;
#150 = EDGE_LOOP ( 'NONE', ( #303, #100, #47, #30 ) ) ;
#151 = SURFACE_STYLE_FILL_AREA ( #287 ) ;
#152 = DIRECTION ( 'NONE',  ( -1.206665185214025874E-16, 1.000000000000000000, -0.000000000000000000 ) ) ;
#153 = CARTESIAN_POINT ( 'NONE',  ( -6.123233995736772199E-17, 3.000000000000000444, 0.000000000000000000 ) ) ;
#154 = CARTESIAN_POINT ( 'NONE',  ( -6.123233995736772199E-17, 3.000000000000000444, 0.000000000000000000 ) ) ;
#155 = SURFACE_STYLE_USAGE ( .BOTH. , #275 ) ;
#156 = CLOSED_SHELL ( 'NONE', ( #184, #98, #162, #259 ) ) ;
#157 = COLOUR_RGB ( '',0.7921568627450980005, 0.8196078431372548767, 0.9333333333333333481 ) ;
#158 = CARTESIAN_POINT ( 'NONE',  ( 2.716169159564024159E-16, 0.2415773655164113742, 0.000000000000000000 ) ) ;
#159 = SURFACE_STYLE_USAGE ( .BOTH. , #200 ) ;
#160 = PLANE ( 'NONE',  #255 ) ;
#161 = CARTESIAN_POINT ( 'NONE',  ( 3.848230621340703528E-68, -3.923381511574271493E-35, 0.000000000000000000 ) ) ;
#162 = ADVANCED_FACE ( 'NONE', ( #298 ), #226, .T. ) ;
#163 = UNCERTAINTY_MEASURE_WITH_UNIT (LENGTH_MEASURE( 1.000000000000000082E-05 ), #85, 'distance_accuracy_value', 'NONE');
#164 = VERTEX_POINT ( 'NONE', #293 ) ;
#165 =( CONVERSION_BASED_UNIT ( 'INCH', #235 ) LENGTH_UNIT ( ) NAMED_UNIT ( #191 ) );
#166 = FILL_AREA_STYLE_COLOUR ( '', #117 ) ;
#167 = CARTESIAN_POINT ( 'NONE',  ( 0.2500000000000000000, 0.2415773655164111522, 3.061616997868382402E-17 ) ) ;
#168 = DIRECTION ( 'NONE',  ( -9.808453778935677663E-34, 1.000000000000000000, 0.000000000000000000 ) ) ;
#169 = ORIENTED_EDGE ( 'NONE', *, *, #55, .T. ) ;
#170 = EDGE_CURVE ( 'NONE', #164, #99, #105, .T. ) ;
#171 = DIRECTION ( 'NONE',  ( 9.808453778935677663E-34, -1.000000000000000000, -0.000000000000000000 ) ) ;
#172 = DIMENSIONAL_EXPONENTS ( 1.000000000000000000, 0.000000000000000000, 0.000000000000000000, 0.000000000000000000, 0.000000000000000000, 0.000000000000000000, 0.000000000000000000 ) ;
#173 = ORIENTED_EDGE ( 'NONE', *, *, #140, .T. ) ;
#174 = MANIFOLD_SOLID_BREP ( 'Revolve - Tool Body (Tipped Off)', #156 ) ;
#175 = FILL_AREA_STYLE_COLOUR ( '', #79 ) ;
#176 = CIRCLE ( 'NONE', #273, 0.2499999999999996947 ) ;
#177 = CARTESIAN_POINT ( 'NONE',  ( -2.369500423704768587E-34, 0.2415773655164111522, 0.000000000000000000 ) ) ;
#178 = APPLICATION_PROTOCOL_DEFINITION ( 'draft international standard', 'automotive_design', 1998, #281 ) ;
#179 = FILL_AREA_STYLE_COLOUR ( '', #59 ) ;
#180 = DIRECTION ( 'NONE',  ( -1.206665185214025874E-16, 1.000000000000000000, -0.000000000000000000 ) ) ;
#181 = PLANE ( 'NONE',  #286 ) ;
#182 = AXIS2_PLACEMENT_3D ( 'NONE', #217, #309, #103 ) ;
#183 = SURFACE_STYLE_USAGE ( .BOTH. , #253 ) ;
#184 = ADVANCED_FACE ( 'NONE', ( #52 ), #149, .T. ) ;
#185 = FILL_AREA_STYLE_COLOUR ( '', #209 ) ;
#186 = ADVANCED_FACE ( 'NONE', ( #249 ), #75, .T. ) ;
#187 = ORIENTED_EDGE ( 'NONE', *, *, #13, .F. ) ;
#188 = DIRECTION ( 'NONE',  ( -1.000000000000000000, -1.365923996832133335E-16, 0.000000000000000000 ) ) ;
#189 = EDGE_LOOP ( 'NONE', ( #284, #234 ) ) ;
#190 =( CONVERSION_BASED_UNIT ( 'INCH', #119 ) LENGTH_UNIT ( ) NAMED_UNIT ( #288 ) );
#191 = DIMENSIONAL_EXPONENTS ( 1.000000000000000000, 0.000000000000000000, 0.000000000000000000, 0.000000000000000000, 0.000000000000000000, 0.000000000000000000, 0.000000000000000000 ) ;
#192 =( NAMED_UNIT ( * ) SI_UNIT ( $, .STERADIAN. ) SOLID_ANGLE_UNIT ( ) );
#193 = DIRECTION ( 'NONE',  ( 1.000000000000000000, 0.000000000000000000, 0.000000000000000000 ) ) ;
#194 =( LENGTH_UNIT ( ) NAMED_UNIT ( * ) SI_UNIT ( $, .METRE. ) );
#195 =( NAMED_UNIT ( * ) SI_UNIT ( $, .STERADIAN. ) SOLID_ANGLE_UNIT ( ) );
#196 = AXIS2_PLACEMENT_3D ( 'NONE', #77, #93, #193 ) ;
#197 = DIRECTION ( 'NONE',  ( -0.6560590289905084971, 0.7547095802227710148, 0.000000000000000000 ) ) ;
#198 = ORIENTED_EDGE ( 'NONE', *, *, #74, .T. ) ;
#199 =( LENGTH_UNIT ( ) NAMED_UNIT ( * ) SI_UNIT ( $, .METRE. ) );
#200 = SURFACE_SIDE_STYLE ('',( #6 ) ) ;
#201 = EDGE_CURVE ( 'NONE', #86, #4, #283, .T. ) ;
#202 = AXIS2_PLACEMENT_3D ( 'NONE', #21, #152, #78 ) ;
#203 = CARTESIAN_POINT ( 'NONE',  ( 0.2499999999999998057, 3.000000000000000444, 3.061616997868381785E-17 ) ) ;
#204 = SHAPE_DEFINITION_REPRESENTATION ( #11, #71 ) ;
#205 = PRESENTATION_STYLE_ASSIGNMENT (( #183 ) ) ;
#206 = AXIS2_PLACEMENT_3D ( 'NONE', #133, #24, #274 ) ;
#207 = CARTESIAN_POINT ( 'NONE',  ( 1.924115310670351764E-68, -1.961690755787135746E-35, 0.000000000000000000 ) ) ;
#208 = STYLED_ITEM ( 'NONE', ( #48 ), #33 ) ;
#209 = COLOUR_RGB ( '',1.000000000000000000, 0.000000000000000000, 0.000000000000000000 ) ;
#210 = EDGE_LOOP ( 'NONE', ( #137, #267, #242, #61 ) ) ;
#211 = PRESENTATION_STYLE_ASSIGNMENT (( #241 ) ) ;
#212 = CIRCLE ( 'NONE', #196, 0.2499999999999999722 ) ;
#213 = CONICAL_SURFACE ( 'NONE', #291, 0.04000000000000000083, 0.7155849933176767763 ) ;
#214 = DIRECTION ( 'NONE',  ( -1.206665185214025874E-16, 1.000000000000000000, -0.000000000000000000 ) ) ;
#215 = DIRECTION ( 'NONE',  ( -1.206665185214025874E-16, 1.000000000000000000, 0.000000000000000000 ) ) ;
#216 = DIRECTION ( 'NONE',  ( -1.206665185214025874E-16, 1.000000000000000000, -0.000000000000000000 ) ) ;
#217 = CARTESIAN_POINT ( 'NONE',  ( 3.848230621340703528E-68, -3.923381511574271493E-35, 0.000000000000000000 ) ) ;
#218 =( CONVERSION_BASED_UNIT ( 'INCH', #92 ) LENGTH_UNIT ( ) NAMED_UNIT ( #2 ) );
#219 =( LENGTH_UNIT ( ) NAMED_UNIT ( * ) SI_UNIT ( $, .METRE. ) );
#220 =( CONVERSION_BASED_UNIT ( 'INCH', #91 ) LENGTH_UNIT ( ) NAMED_UNIT ( #172 ) );
#221 = AXIS2_PLACEMENT_3D ( 'NONE', #120, #215, #42 ) ;
#222 = AXIS2_PLACEMENT_3D ( 'NONE', #161, #228, #56 ) ;
#223 = FACE_OUTER_BOUND ( 'NONE', #150, .T. ) ;
#224 = DIRECTION ( 'NONE',  ( -9.808453778935677663E-34, 1.000000000000000000, 0.000000000000000000 ) ) ;
#225 =( NAMED_UNIT ( * ) SI_UNIT ( $, .STERADIAN. ) SOLID_ANGLE_UNIT ( ) );
#226 = CYLINDRICAL_SURFACE ( 'NONE', #297, 0.2499999999999998612 ) ;
#227 = FACE_OUTER_BOUND ( 'NONE', #45, .T. ) ;
#228 = DIRECTION ( 'NONE',  ( 9.808453778935677663E-34, -1.000000000000000000, -0.000000000000000000 ) ) ;
#229 = AXIS2_PLACEMENT_3D ( 'NONE', #153, #214, #307 ) ;
#230 = AXIS2_PLACEMENT_3D ( 'NONE', #177, #224, #231 ) ;
#231 = DIRECTION ( 'NONE',  ( -1.000000000000000000, -9.808453778935677663E-34, 0.000000000000000000 ) ) ;
#232 = DIRECTION ( 'NONE',  ( 1.206665185214025874E-16, -1.000000000000000000, 0.000000000000000000 ) ) ;
#233 = ORIENTED_EDGE ( 'NONE', *, *, #140, .F. ) ;
#234 = ORIENTED_EDGE ( 'NONE', *, *, #82, .F. ) ;
#235 = LENGTH_MEASURE_WITH_UNIT ( LENGTH_MEASURE( 0.02539999999999999897 ), #194 );
#236 = LINE ( 'NONE', #289, #32 ) ;
#237 = PRESENTATION_LAYER_ASSIGNMENT (  '', '', ( #135 ) ) ;
#238 = DIRECTION ( 'NONE',  ( 0.6560590289905084971, 0.7547095802227710148, 8.034405899049468590E-17 ) ) ;
#239 = FACE_OUTER_BOUND ( 'NONE', #68, .T. ) ;
#240 = DIMENSIONAL_EXPONENTS ( 1.000000000000000000, 0.000000000000000000, 0.000000000000000000, 0.000000000000000000, 0.000000000000000000, 0.000000000000000000, 0.000000000000000000 ) ;
#241 = SURFACE_STYLE_USAGE ( .BOTH. , #20 ) ;
#242 = ORIENTED_EDGE ( 'NONE', *, *, #55, .F. ) ;
#243 = PRESENTATION_STYLE_ASSIGNMENT (( #121 ) ) ;
#244 = EDGE_CURVE ( 'NONE', #90, #109, #301, .T. ) ;
#245 = UNCERTAINTY_MEASURE_WITH_UNIT (LENGTH_MEASURE( 1.000000000000000082E-05 ), #276, 'distance_accuracy_value', 'NONE');
#246 = AXIS2_PLACEMENT_3D ( 'NONE', #129, #216, #146 ) ;
#247 = SURFACE_STYLE_USAGE ( .BOTH. , #272 ) ;
#248 = MECHANICAL_DESIGN_GEOMETRIC_PRESENTATION_REPRESENTATION (  '', ( #135 ), #65 ) ;
#249 = FACE_OUTER_BOUND ( 'NONE', #141, .T. ) ;
#250 = CARTESIAN_POINT ( 'NONE',  ( 0.04000000000000000083, 0.000000000000000000, 4.898587196589413537E-18 ) ) ;
#251 = CARTESIAN_POINT ( 'NONE',  ( -0.2499999999999999167, 3.000000000000000444, 0.000000000000000000 ) ) ;
#252 =( NAMED_UNIT ( * ) PLANE_ANGLE_UNIT ( ) SI_UNIT ( $, .RADIAN. ) );
#253 = SURFACE_SIDE_STYLE ('',( #300 ) ) ;
#254 = PRESENTATION_LAYER_ASSIGNMENT (  '', '', ( #208 ) ) ;
#255 = AXIS2_PLACEMENT_3D ( 'NONE', #111, #232, #60 ) ;
#256 = DIRECTION ( 'NONE',  ( -1.206665185214025874E-16, 1.000000000000000000, -0.000000000000000000 ) ) ;
#257 = ORIENTED_EDGE ( 'NONE', *, *, #19, .F. ) ;
#258 = UNCERTAINTY_MEASURE_WITH_UNIT (LENGTH_MEASURE( 1.000000000000000082E-05 ), #190, 'distance_accuracy_value', 'NONE');
#259 = ADVANCED_FACE ( 'NONE', ( #227 ), #160, .F. ) ;
#260 = CIRCLE ( 'NONE', #246, 0.2500000000000000555 ) ;
#261 = CIRCLE ( 'NONE', #182, 0.04000000000000000083 ) ;
#262 = PRODUCT_DEFINITION_CONTEXT ( 'detailed design', #51, 'design' ) ;
#263 = SURFACE_STYLE_FILL_AREA ( #139 ) ;
#264 = EDGE_CURVE ( 'NONE', #90, #164, #84, .T. ) ;
#265 = LENGTH_MEASURE_WITH_UNIT ( LENGTH_MEASURE( 0.02539999999999999897 ), #199 );
#266 = AXIS2_PLACEMENT_3D ( 'NONE', #123, #116, #17 ) ;
#267 = ORIENTED_EDGE ( 'NONE', *, *, #170, .T. ) ;
#268 = PLANE ( 'NONE',  #221 ) ;
#269 = ORIENTED_EDGE ( 'NONE', *, *, #82, .T. ) ;
#270 = ORIENTED_EDGE ( 'NONE', *, *, #170, .F. ) ;
#271 = DIMENSIONAL_EXPONENTS ( 1.000000000000000000, 0.000000000000000000, 0.000000000000000000, 0.000000000000000000, 0.000000000000000000, 0.000000000000000000, 0.000000000000000000 ) ;
#272 = SURFACE_SIDE_STYLE ('',( #308 ) ) ;
#273 = AXIS2_PLACEMENT_3D ( 'NONE', #145, #66, #188 ) ;
#274 = DIRECTION ( 'NONE',  ( 1.000000000000000000, 0.000000000000000000, 0.000000000000000000 ) ) ;
#275 = SURFACE_SIDE_STYLE ('',( #72 ) ) ;
#276 =( CONVERSION_BASED_UNIT ( 'INCH', #130 ) LENGTH_UNIT ( ) NAMED_UNIT ( #240 ) );
#277 = FILL_AREA_STYLE_COLOUR ( '', #157 ) ;
#278 = PRESENTATION_LAYER_ASSIGNMENT (  '', '', ( #94 ) ) ;
#279 = ADVANCED_FACE ( 'NONE', ( #27 ), #181, .T. ) ;
#280 = DIRECTION ( 'NONE',  ( -1.000000000000000000, -1.365923996832133335E-16, 0.000000000000000000 ) ) ;
#281 = APPLICATION_CONTEXT ( 'automotive_design' ) ;
#282 = EDGE_LOOP ( 'NONE', ( #270, #269, #112, #40 ) ) ;
#283 = CIRCLE ( 'NONE', #222, 0.04000000000000000083 ) ;
#284 = ORIENTED_EDGE ( 'NONE', *, *, #264, .F. ) ;
#285 = PRODUCT_DEFINITION ( 'UNKNOWN', '', #39, #262 ) ;
#286 = AXIS2_PLACEMENT_3D ( 'NONE', #207, #83, #43 ) ;
#287 = FILL_AREA_STYLE ('',( #148 ) ) ;
#288 = DIMENSIONAL_EXPONENTS ( 1.000000000000000000, 0.000000000000000000, 0.000000000000000000, 0.000000000000000000, 0.000000000000000000, 0.000000000000000000, 0.000000000000000000 ) ;
#289 = CARTESIAN_POINT ( 'NONE',  ( -0.04000000000000000083, -7.846763023148542985E-35, 0.000000000000000000 ) ) ;
#290 = ORIENTED_EDGE ( 'NONE', *, *, #7, .T. ) ;
#291 = AXIS2_PLACEMENT_3D ( 'NONE', #62, #168, #122 ) ;
#292 =( LENGTH_UNIT ( ) NAMED_UNIT ( * ) SI_UNIT ( $, .METRE. ) );
#293 = CARTESIAN_POINT ( 'NONE',  ( 0.2499999999999999722, 0.2415773655164114020, 3.061616997868383018E-17 ) ) ;
#294 = DIRECTION ( 'NONE',  ( 1.000000000000000000, 0.000000000000000000, 0.000000000000000000 ) ) ;
#295 = PRESENTATION_LAYER_ASSIGNMENT (  '', '', ( #132 ) ) ;
#296 =( NAMED_UNIT ( * ) PLANE_ANGLE_UNIT ( ) SI_UNIT ( $, .RADIAN. ) );
#297 = AXIS2_PLACEMENT_3D ( 'NONE', #154, #131, #8 ) ;
#298 = FACE_OUTER_BOUND ( 'NONE', #282, .T. ) ;
#299 = DIRECTION ( 'NONE',  ( -1.206665185214025874E-16, 1.000000000000000000, -0.000000000000000000 ) ) ;
#300 = SURFACE_STYLE_FILL_AREA ( #106 ) ;
#301 = LINE ( 'NONE', #251, #80 ) ;
#302 =( LENGTH_UNIT ( ) NAMED_UNIT ( * ) SI_UNIT ( $, .METRE. ) );
#303 = ORIENTED_EDGE ( 'NONE', *, *, #201, .F. ) ;
#304 = ORIENTED_EDGE ( 'NONE', *, *, #201, .T. ) ;
#305 = CONICAL_SURFACE ( 'NONE', #266, 0.04000000000000000083, 0.7155849933176767763 ) ;
#306 = DIMENSIONAL_EXPONENTS ( 1.000000000000000000, 0.000000000000000000, 0.000000000000000000, 0.000000000000000000, 0.000000000000000000, 0.000000000000000000, 0.000000000000000000 ) ;
#307 = DIRECTION ( 'NONE',  ( -1.000000000000000000, 0.000000000000000000, 0.000000000000000000 ) ) ;
#308 = SURFACE_STYLE_FILL_AREA ( #41 ) ;
#309 = DIRECTION ( 'NONE',  ( 9.808453778935677663E-34, -1.000000000000000000, -0.000000000000000000 ) ) ;
ENDSEC;
END-ISO-10303-21;
