ISO-10303-21;
HEADER;
FILE_DESCRIPTION (( 'STEP AP214' ),
    '1' );
FILE_NAME ('Micro_BEM-218-04.STEP',
    '2021-09-03T13:06:57',
    ( '' ),
    ( '' ),
    'SwSTEP 2.0',
    'SolidWorks 2020',
    '' );
FILE_SCHEMA (( 'AUTOMOTIVE_DESIGN' ));
ENDSEC;

DATA;
#1 = EDGE_LOOP ( 'NONE', ( #22, #126, #245, #196 ) ) ;
#2 = LINE ( 'NONE', #121, #94 ) ;
#3 = ADVANCED_FACE ( 'NONE', ( #98 ), #209, .T. ) ;
#4 = CARTESIAN_POINT ( 'NONE',  ( 0.1092406500000000502, 0.0000000000000000000, 0.6250000000000000000 ) ) ;
#5 = DIRECTION ( 'NONE',  ( -1.000000000000000000, 0.0000000000000000000, 0.0000000000000000000 ) ) ;
#6 = AXIS2_PLACEMENT_3D ( 'NONE', #314, #164, #165 ) ;
#7 = LENGTH_MEASURE_WITH_UNIT ( LENGTH_MEASURE( 0.02539999999999999897 ), #235 );
#8 = CARTESIAN_POINT ( 'NONE',  ( 0.0000000000000000000, 0.0000000000000000000, 2.500000000000000000 ) ) ;
#9 = APPLICATION_CONTEXT ( 'automotive_design' ) ;
#10 = AXIS2_PLACEMENT_3D ( 'NONE', #283, #109, #181 ) ;
#11 =( NAMED_UNIT ( * ) PLANE_ANGLE_UNIT ( ) SI_UNIT ( $, .RADIAN. ) );
#12 = ADVANCED_FACE ( 'NONE', ( #308 ), #134, .T. ) ;
#13 = DIRECTION ( 'NONE',  ( -1.000000000000000000, 1.224646799147353207E-16, 0.0000000000000000000 ) ) ;
#14 = CIRCLE ( 'NONE', #33, 0.1092406499999999947 ) ;
#15 = CARTESIAN_POINT ( 'NONE',  ( -0.1092406499999999253, 1.434310311263477304E-17, 0.6250000000000000000 ) ) ;
#16 = EDGE_CURVE ( 'NONE', #226, #100, #72, .T. ) ;
#17 = DIRECTION ( 'NONE',  ( 0.0000000000000000000, 0.0000000000000000000, -1.000000000000000000 ) ) ;
#18 = DIRECTION ( 'NONE',  ( 0.1736481776669313581, 0.0000000000000000000, 0.9848077530122077983 ) ) ;
#19 = AXIS2_PLACEMENT_3D ( 'NONE', #91, #262, #85 ) ;
#20 = MECHANICAL_DESIGN_GEOMETRIC_PRESENTATION_REPRESENTATION (  '', ( #272 ), #60 ) ;
#21 =( NAMED_UNIT ( * ) PLANE_ANGLE_UNIT ( ) SI_UNIT ( $, .RADIAN. ) );
#22 = ORIENTED_EDGE ( 'NONE', *, *, #128, .F. ) ;
#23 = EDGE_CURVE ( 'NONE', #69, #298, #212, .T. ) ;
#24 = FACE_OUTER_BOUND ( 'NONE', #176, .T. ) ;
#25 = EDGE_LOOP ( 'NONE', ( #71, #143, #167, #250 ) ) ;
#26 = PRODUCT_DEFINITION_CONTEXT ( 'detailed design', #9, 'design' ) ;
#27 = PRESENTATION_STYLE_ASSIGNMENT (( #311 ) ) ;
#28 = CARTESIAN_POINT ( 'NONE',  ( 1.337812123592763100E-17, 0.0000000000000000000, 0.1092406499999999947 ) ) ;
#29 = VERTEX_POINT ( 'NONE', #4 ) ;
#30 = AXIS2_PLACEMENT_3D ( 'NONE', #232, #230, #156 ) ;
#31 = DIRECTION ( 'NONE',  ( -0.0000000000000000000, -0.0000000000000000000, -1.000000000000000000 ) ) ;
#32 = FILL_AREA_STYLE_COLOUR ( '', #216 ) ;
#33 = AXIS2_PLACEMENT_3D ( 'NONE', #28, #95, #265 ) ;
#34 = DIMENSIONAL_EXPONENTS ( 1.000000000000000000, 0.0000000000000000000, 0.0000000000000000000, 0.0000000000000000000, 0.0000000000000000000, 0.0000000000000000000, 0.0000000000000000000 ) ;
#35 = STYLED_ITEM ( 'NONE', ( #104 ), #93 ) ;
#36 = DIRECTION ( 'NONE',  ( -1.224646799147353207E-16, -0.0000000000000000000, -1.000000000000000000 ) ) ;
#37 = ORIENTED_EDGE ( 'NONE', *, *, #117, .T. ) ;
#38 = FACE_OUTER_BOUND ( 'NONE', #163, .T. ) ;
#39 = CARTESIAN_POINT ( 'NONE',  ( 0.0000000000000000000, 0.0000000000000000000, 0.0000000000000000000 ) ) ;
#40 = COLOUR_RGB ( '',0.7921568627450980005, 0.8196078431372548767, 0.9333333333333333481 ) ;
#41 = FACE_OUTER_BOUND ( 'NONE', #1, .T. ) ;
#42 = DIRECTION ( 'NONE',  ( -1.224646799147353207E-16, -0.0000000000000000000, -1.000000000000000000 ) ) ;
#43 = CARTESIAN_POINT ( 'NONE',  ( 7.654042494670957853E-17, 0.0000000000000000000, 0.6250000000000000000 ) ) ;
#44 = ORIENTED_EDGE ( 'NONE', *, *, #122, .T. ) ;
#45 = DIRECTION ( 'NONE',  ( 1.224646799147353207E-16, 0.0000000000000000000, 1.000000000000000000 ) ) ;
#46 = ORIENTED_EDGE ( 'NONE', *, *, #316, .F. ) ;
#47 = DIRECTION ( 'NONE',  ( -1.000000000000000000, 0.0000000000000000000, 0.0000000000000000000 ) ) ;
#48 = ORIENTED_EDGE ( 'NONE', *, *, #79, .F. ) ;
#49 = DIRECTION ( 'NONE',  ( 0.7071067811865499042, 8.659560562354961208E-17, -0.7071067811865451302 ) ) ;
#50 = PRODUCT_DEFINITION ( 'UNKNOWN', '', #170, #26 ) ;
#51 = VERTEX_POINT ( 'NONE', #107 ) ;
#52 = AXIS2_PLACEMENT_3D ( 'NONE', #55, #277, #5 ) ;
#53 = CYLINDRICAL_SURFACE ( 'NONE', #30, 0.1092406499999999947 ) ;
#54 = CARTESIAN_POINT ( 'NONE',  ( 0.1100000000000001948, 1.347111479062090784E-17, 2.500000000000000000 ) ) ;
#55 = CARTESIAN_POINT ( 'NONE',  ( 7.654042494670957853E-17, 0.0000000000000000000, 0.6250000000000000000 ) ) ;
#56 = DIRECTION ( 'NONE',  ( 0.0000000000000000000, 0.0000000000000000000, 1.000000000000000000 ) ) ;
#57 = EDGE_CURVE ( 'NONE', #131, #120, #285, .T. ) ;
#58 = AXIS2_PLACEMENT_3D ( 'NONE', #8, #325, #80 ) ;
#59 = EDGE_CURVE ( 'NONE', #69, #120, #305, .T. ) ;
#60 =( GEOMETRIC_REPRESENTATION_CONTEXT ( 3 ) GLOBAL_UNCERTAINTY_ASSIGNED_CONTEXT ( ( #102 ) ) GLOBAL_UNIT_ASSIGNED_CONTEXT ( ( #135, #11, #158 ) ) REPRESENTATION_CONTEXT ( 'NONE', 'WORKASPACE' ) );
#61 = EDGE_LOOP ( 'NONE', ( #266, #48, #96, #320 ) ) ;
#62 = FACE_OUTER_BOUND ( 'NONE', #276, .T. ) ;
#63 = DIRECTION ( 'NONE',  ( 1.000000000000000000, 0.0000000000000000000, 0.0000000000000000000 ) ) ;
#64 = DIRECTION ( 'NONE',  ( -0.0000000000000000000, -0.0000000000000000000, -1.000000000000000000 ) ) ;
#65 = DIRECTION ( 'NONE',  ( 1.224646799147353207E-16, 0.0000000000000000000, 1.000000000000000000 ) ) ;
#66 = CIRCLE ( 'NONE', #183, 0.1092406499999999947 ) ;
#67 = CARTESIAN_POINT ( 'NONE',  ( 0.1092406500000000502, 0.0000000000000000000, 0.6250000000000000000 ) ) ;
#68 = ADVANCED_FACE ( 'NONE', ( #208 ), #53, .T. ) ;
#69 = VERTEX_POINT ( 'NONE', #106 ) ;
#70 = DIRECTION ( 'NONE',  ( 0.0000000000000000000, 0.0000000000000000000, -1.000000000000000000 ) ) ;
#71 = ORIENTED_EDGE ( 'NONE', *, *, #128, .T. ) ;
#72 = CIRCLE ( 'NONE', #101, 0.1250000000000000000 ) ;
#73 = DIRECTION ( 'NONE',  ( -0.1736481776669311639, 2.126576849575783008E-17, 0.9848077530122080203 ) ) ;
#74 = ORIENTED_EDGE ( 'NONE', *, *, #316, .T. ) ;
#75 = DIRECTION ( 'NONE',  ( -0.7071067811865499042, 0.0000000000000000000, -0.7071067811865451302 ) ) ;
#76 = ORIENTED_EDGE ( 'NONE', *, *, #166, .F. ) ;
#77 = PRESENTATION_LAYER_ASSIGNMENT (  '', '', ( #35 ) ) ;
#78 = FILL_AREA_STYLE ('',( #257 ) ) ;
#79 = EDGE_CURVE ( 'NONE', #29, #302, #312, .T. ) ;
#80 = DIRECTION ( 'NONE',  ( -1.000000000000000000, 0.0000000000000000000, 0.0000000000000000000 ) ) ;
#81 = EDGE_CURVE ( 'NONE', #298, #131, #306, .T. ) ;
#82 = AXIS2_PLACEMENT_3D ( 'NONE', #150, #42, #47 ) ;
#83 = CARTESIAN_POINT ( 'NONE',  ( 0.0000000000000000000, 0.0000000000000000000, 0.0000000000000000000 ) ) ;
#84 = ORIENTED_EDGE ( 'NONE', *, *, #59, .T. ) ;
#85 = DIRECTION ( 'NONE',  ( 1.000000000000000000, 0.0000000000000000000, -0.0000000000000000000 ) ) ;
#86 = AXIS2_PLACEMENT_3D ( 'NONE', #303, #133, #152 ) ;
#87 =( NAMED_UNIT ( * ) PLANE_ANGLE_UNIT ( ) SI_UNIT ( $, .RADIAN. ) );
#88 = EDGE_CURVE ( 'NONE', #298, #69, #323, .T. ) ;
#89 = DIRECTION ( 'NONE',  ( 1.224646799147353207E-16, 0.0000000000000000000, 1.000000000000000000 ) ) ;
#90 = LINE ( 'NONE', #275, #169 ) ;
#91 = CARTESIAN_POINT ( 'NONE',  ( 0.0000000000000000000, 0.0000000000000000000, 2.500000000000000000 ) ) ;
#92 = DIRECTION ( 'NONE',  ( 1.000000000000000000, 0.0000000000000000000, 0.0000000000000000000 ) ) ;
#93 = MANIFOLD_SOLID_BREP ( 'Fillet1', #233 ) ;
#94 = VECTOR ( 'NONE', #130, 39.37007874015748143 ) ;
#95 = DIRECTION ( 'NONE',  ( 1.224646799147353207E-16, 0.0000000000000000000, 1.000000000000000000 ) ) ;
#96 = ORIENTED_EDGE ( 'NONE', *, *, #217, .T. ) ;
#97 = CARTESIAN_POINT ( 'NONE',  ( 1.337812123592763100E-17, 0.0000000000000000000, 0.1092406499999999947 ) ) ;
#98 = FACE_OUTER_BOUND ( 'NONE', #223, .T. ) ;
#99 = CARTESIAN_POINT ( 'NONE',  ( 0.1092406500000000086, 1.337812123592763100E-17, 0.1092406499999999669 ) ) ;
#100 = VERTEX_POINT ( 'NONE', #240 ) ;
#101 = AXIS2_PLACEMENT_3D ( 'NONE', #231, #205, #254 ) ;
#102 = UNCERTAINTY_MEASURE_WITH_UNIT (LENGTH_MEASURE( 1.000000000000000082E-05 ), #135, 'distance_accuracy_value', 'NONE');
#103 = SHAPE_DEFINITION_REPRESENTATION ( #315, #111 ) ;
#104 = PRESENTATION_STYLE_ASSIGNMENT (( #179 ) ) ;
#105 = ORIENTED_EDGE ( 'NONE', *, *, #225, .F. ) ;
#106 = CARTESIAN_POINT ( 'NONE',  ( 0.1100000000000001948, 1.438959988998141146E-17, 2.500000000000000000 ) ) ;
#107 = CARTESIAN_POINT ( 'NONE',  ( -0.1092406499999999669, 0.0000000000000000000, 0.1092406500000000086 ) ) ;
#108 = AXIS2_PLACEMENT_3D ( 'NONE', #161, #64, #119 ) ;
#109 = DIRECTION ( 'NONE',  ( 0.0000000000000000000, 0.0000000000000000000, -1.000000000000000000 ) ) ;
#110 = PRESENTATION_LAYER_ASSIGNMENT (  '', '', ( #272 ) ) ;
#111 = ADVANCED_BREP_SHAPE_REPRESENTATION ( 'Micro_BEM-218-04', ( #93, #244 ), #154 ) ;
#112 = EDGE_CURVE ( 'NONE', #29, #153, #2, .T. ) ;
#113 = ADVANCED_FACE ( 'NONE', ( #41 ), #258, .T. ) ;
#114 = AXIS2_PLACEMENT_3D ( 'NONE', #97, #247, #193 ) ;
#115 = PRODUCT_CONTEXT ( 'NONE', #186, 'mechanical' ) ;
#116 =( CONVERSION_BASED_UNIT ( 'INCH', #213 ) LENGTH_UNIT ( ) NAMED_UNIT ( #287 ) );
#117 = EDGE_CURVE ( 'NONE', #253, #153, #66, .T. ) ;
#118 = AXIS2_PLACEMENT_3D ( 'NONE', #185, #31, #279 ) ;
#119 = DIRECTION ( 'NONE',  ( -1.000000000000000000, 0.0000000000000000000, 0.0000000000000000000 ) ) ;
#120 = VERTEX_POINT ( 'NONE', #168 ) ;
#121 = CARTESIAN_POINT ( 'NONE',  ( 0.1092406499999999947, 1.337812123592763100E-17, -1.337812123592763100E-17 ) ) ;
#122 = EDGE_CURVE ( 'NONE', #120, #100, #90, .T. ) ;
#123 = FACE_OUTER_BOUND ( 'NONE', #173, .T. ) ;
#124 = CIRCLE ( 'NONE', #162, 0.1092406499999999947 ) ;
#125 = CARTESIAN_POINT ( 'NONE',  ( 2.006718185389144496E-17, 0.0000000000000000000, 0.0000000000000000000 ) ) ;
#126 = ORIENTED_EDGE ( 'NONE', *, *, #234, .T. ) ;
#127 =( NAMED_UNIT ( * ) SI_UNIT ( $, .STERADIAN. ) SOLID_ANGLE_UNIT ( ) );
#128 = EDGE_CURVE ( 'NONE', #302, #29, #175, .T. ) ;
#129 = ORIENTED_EDGE ( 'NONE', *, *, #79, .T. ) ;
#130 = DIRECTION ( 'NONE',  ( -1.224646799147353207E-16, -0.0000000000000000000, -1.000000000000000000 ) ) ;
#131 = VERTEX_POINT ( 'NONE', #144 ) ;
#132 = LENGTH_MEASURE_WITH_UNIT ( LENGTH_MEASURE( 0.02539999999999999897 ), #251 );
#133 = DIRECTION ( 'NONE',  ( 0.0000000000000000000, 0.0000000000000000000, 1.000000000000000000 ) ) ;
#134 = CYLINDRICAL_SURFACE ( 'NONE', #118, 0.1250000000000000000 ) ;
#135 =( CONVERSION_BASED_UNIT ( 'INCH', #7 ) LENGTH_UNIT ( ) NAMED_UNIT ( #34 ) );
#136 = VECTOR ( 'NONE', #177, 39.37007874015748143 ) ;
#137 = CONICAL_SURFACE ( 'NONE', #222, 0.1092406499999999947, 0.1745329251994338637 ) ;
#138 = ADVANCED_FACE ( 'NONE', ( #123 ), #296, .T. ) ;
#139 = DIMENSIONAL_EXPONENTS ( 1.000000000000000000, 0.0000000000000000000, 0.0000000000000000000, 0.0000000000000000000, 0.0000000000000000000, 0.0000000000000000000, 0.0000000000000000000 ) ;
#140 = DIRECTION ( 'NONE',  ( -1.000000000000000000, 0.0000000000000000000, 1.224646799147353207E-16 ) ) ;
#141 = DIRECTION ( 'NONE',  ( -1.224646799147353207E-16, -0.0000000000000000000, -1.000000000000000000 ) ) ;
#142 = DIRECTION ( 'NONE',  ( 1.224646799147353207E-16, 1.000000000000000000, -0.0000000000000000000 ) ) ;
#143 = ORIENTED_EDGE ( 'NONE', *, *, #112, .T. ) ;
#144 = CARTESIAN_POINT ( 'NONE',  ( -0.1250000000000000000, 0.0000000000000000000, 2.485000000000000320 ) ) ;
#145 = DIRECTION ( 'NONE',  ( -1.224646799147353207E-16, -0.0000000000000000000, -1.000000000000000000 ) ) ;
#146 = CARTESIAN_POINT ( 'NONE',  ( -0.1250000000000000000, 0.0000000000000000000, 2.500000000000000000 ) ) ;
#147 = ORIENTED_EDGE ( 'NONE', *, *, #81, .T. ) ;
#148 = DIRECTION ( 'NONE',  ( -1.000000000000000000, 0.0000000000000000000, 1.562975866621229869E-16 ) ) ;
#149 = ORIENTED_EDGE ( 'NONE', *, *, #117, .F. ) ;
#150 = CARTESIAN_POINT ( 'NONE',  ( 7.654042494670957853E-17, 0.0000000000000000000, 0.6250000000000000000 ) ) ;
#151 = ORIENTED_EDGE ( 'NONE', *, *, #182, .T. ) ;
#152 = DIRECTION ( 'NONE',  ( 1.000000000000000000, 0.0000000000000000000, 0.0000000000000000000 ) ) ;
#153 = VERTEX_POINT ( 'NONE', #99 ) ;
#154 =( GEOMETRIC_REPRESENTATION_CONTEXT ( 3 ) GLOBAL_UNCERTAINTY_ASSIGNED_CONTEXT ( ( #227 ) ) GLOBAL_UNIT_ASSIGNED_CONTEXT ( ( #116, #87, #291 ) ) REPRESENTATION_CONTEXT ( 'NONE', 'WORKASPACE' ) );
#155 = DIRECTION ( 'NONE',  ( 1.000000000000000000, 0.0000000000000000000, 0.0000000000000000000 ) ) ;
#156 = DIRECTION ( 'NONE',  ( -1.000000000000000000, 0.0000000000000000000, 1.224646799147353207E-16 ) ) ;
#157 = PRODUCT ( 'Micro_BEM-218-04', 'Micro_BEM-218-04', '', ( #115 ) ) ;
#158 =( NAMED_UNIT ( * ) SI_UNIT ( $, .STERADIAN. ) SOLID_ANGLE_UNIT ( ) );
#159 = CARTESIAN_POINT ( 'NONE',  ( 0.0000000000000000000, 0.0000000000000000000, 2.500000000000000000 ) ) ;
#160 = AXIS2_PLACEMENT_3D ( 'NONE', #237, #142, #13 ) ;
#161 = CARTESIAN_POINT ( 'NONE',  ( 0.0000000000000000000, 0.0000000000000000000, 2.500000000000000000 ) ) ;
#162 = AXIS2_PLACEMENT_3D ( 'NONE', #202, #45, #148 ) ;
#163 = EDGE_LOOP ( 'NONE', ( #229, #44, #300, #105 ) ) ;
#164 = DIRECTION ( 'NONE',  ( 0.0000000000000000000, 1.000000000000000000, 0.0000000000000000000 ) ) ;
#165 = DIRECTION ( 'NONE',  ( 1.000000000000000000, 0.0000000000000000000, 0.0000000000000000000 ) ) ;
#166 = EDGE_CURVE ( 'NONE', #51, #153, #14, .T. ) ;
#167 = ORIENTED_EDGE ( 'NONE', *, *, #274, .T. ) ;
#168 = CARTESIAN_POINT ( 'NONE',  ( 0.1250000000000000000, 1.530808498934191509E-17, 2.485000000000000320 ) ) ;
#169 = VECTOR ( 'NONE', #199, 39.37007874015748143 ) ;
#170 = PRODUCT_DEFINITION_FORMATION_WITH_SPECIFIED_SOURCE ( 'ANY', '', #157, .NOT_KNOWN. ) ;
#171 = CARTESIAN_POINT ( 'NONE',  ( 1.337812123592763100E-17, 0.0000000000000000000, 0.1092406499999999947 ) ) ;
#172 = CARTESIAN_POINT ( 'NONE',  ( 0.0000000000000000000, 0.0000000000000000000, 2.500000000000000000 ) ) ;
#173 = EDGE_LOOP ( 'NONE', ( #149, #74, #178 ) ) ;
#174 = DIRECTION ( 'NONE',  ( -1.000000000000000000, 0.0000000000000000000, 0.0000000000000000000 ) ) ;
#175 = CIRCLE ( 'NONE', #82, 0.1092406499999999947 ) ;
#176 = EDGE_LOOP ( 'NONE', ( #317, #261 ) ) ;
#177 = DIRECTION ( 'NONE',  ( -0.0000000000000000000, -0.0000000000000000000, -1.000000000000000000 ) ) ;
#178 = ORIENTED_EDGE ( 'NONE', *, *, #274, .F. ) ;
#179 = SURFACE_STYLE_USAGE ( .BOTH. , #207 ) ;
#180 = EDGE_LOOP ( 'NONE', ( #218, #151, #270, #322 ) ) ;
#181 = DIRECTION ( 'NONE',  ( 1.000000000000000000, 0.0000000000000000000, 0.0000000000000000000 ) ) ;
#182 = EDGE_CURVE ( 'NONE', #120, #131, #294, .T. ) ;
#183 = AXIS2_PLACEMENT_3D ( 'NONE', #171, #267, #269 ) ;
#184 = SURFACE_STYLE_FILL_AREA ( #78 ) ;
#185 = CARTESIAN_POINT ( 'NONE',  ( 0.0000000000000000000, 0.0000000000000000000, 2.500000000000000000 ) ) ;
#186 = APPLICATION_CONTEXT ( 'automotive_design' ) ;
#187 = MECHANICAL_DESIGN_GEOMETRIC_PRESENTATION_REPRESENTATION (  '', ( #35 ), #203 ) ;
#188 = FACE_OUTER_BOUND ( 'NONE', #25, .T. ) ;
#189 = CIRCLE ( 'NONE', #160, 0.1092406499999999947 ) ;
#190 = AXIS2_PLACEMENT_3D ( 'NONE', #39, #36, #140 ) ;
#191 = ORIENTED_EDGE ( 'NONE', *, *, #182, .F. ) ;
#192 = CYLINDRICAL_SURFACE ( 'NONE', #108, 0.1250000000000000000 ) ;
#193 = DIRECTION ( 'NONE',  ( 1.000000000000000000, 0.0000000000000000000, 0.0000000000000000000 ) ) ;
#194 = CARTESIAN_POINT ( 'NONE',  ( -0.1092406499999999947, 0.0000000000000000000, 1.337812123592763100E-17 ) ) ;
#195 = VECTOR ( 'NONE', #75, 39.37007874015748143 ) ;
#196 = ORIENTED_EDGE ( 'NONE', *, *, #217, .F. ) ;
#197 = CARTESIAN_POINT ( 'NONE',  ( 0.0000000000000000000, 0.0000000000000000000, 2.485000000000000320 ) ) ;
#198 = ORIENTED_EDGE ( 'NONE', *, *, #88, .F. ) ;
#199 = DIRECTION ( 'NONE',  ( -0.0000000000000000000, -0.0000000000000000000, -1.000000000000000000 ) ) ;
#200 = EDGE_CURVE ( 'NONE', #302, #51, #321, .T. ) ;
#201 = EDGE_LOOP ( 'NONE', ( #304, #198, #147, #191 ) ) ;
#202 = CARTESIAN_POINT ( 'NONE',  ( 1.337812123592763100E-17, 0.0000000000000000000, 0.1092406499999999947 ) ) ;
#203 =( GEOMETRIC_REPRESENTATION_CONTEXT ( 3 ) GLOBAL_UNCERTAINTY_ASSIGNED_CONTEXT ( ( #246 ) ) GLOBAL_UNIT_ASSIGNED_CONTEXT ( ( #293, #21, #127 ) ) REPRESENTATION_CONTEXT ( 'NONE', 'WORKASPACE' ) );
#204 = ORIENTED_EDGE ( 'NONE', *, *, #166, .T. ) ;
#205 = DIRECTION ( 'NONE',  ( -1.224646799147353207E-16, -0.0000000000000000000, -1.000000000000000000 ) ) ;
#206 = ORIENTED_EDGE ( 'NONE', *, *, #23, .F. ) ;
#207 = SURFACE_SIDE_STYLE ('',( #184 ) ) ;
#208 = FACE_OUTER_BOUND ( 'NONE', #224, .T. ) ;
#209 = CONICAL_SURFACE ( 'NONE', #58, 0.1100000000000001948, 0.7853981633974517207 ) ;
#210 = DIRECTION ( 'NONE',  ( 0.0000000000000000000, 0.0000000000000000000, 1.000000000000000000 ) ) ;
#211 = SURFACE_SIDE_STYLE ('',( #282 ) ) ;
#212 = CIRCLE ( 'NONE', #86, 0.1100000000000001948 ) ;
#213 = LENGTH_MEASURE_WITH_UNIT ( LENGTH_MEASURE( 0.02539999999999999897 ), #292 );
#214 = CYLINDRICAL_SURFACE ( 'NONE', #190, 0.1092406499999999947 ) ;
#215 = VECTOR ( 'NONE', #145, 39.37007874015748143 ) ;
#216 = COLOUR_RGB ( '',0.7921568627450980005, 0.8196078431372548767, 0.9333333333333333481 ) ;
#217 = EDGE_CURVE ( 'NONE', #29, #100, #241, .T. ) ;
#218 = ORIENTED_EDGE ( 'NONE', *, *, #122, .F. ) ;
#219 = CARTESIAN_POINT ( 'NONE',  ( -0.1100000000000001948, 0.0000000000000000000, 2.500000000000000000 ) ) ;
#220 = LINE ( 'NONE', #146, #136 ) ;
#221 = AXIS2_PLACEMENT_3D ( 'NONE', #197, #17, #92 ) ;
#222 = AXIS2_PLACEMENT_3D ( 'NONE', #238, #89, #63 ) ;
#223 = EDGE_LOOP ( 'NONE', ( #206, #84, #278, #273 ) ) ;
#224 = EDGE_LOOP ( 'NONE', ( #319, #129, #248, #204 ) ) ;
#225 = EDGE_CURVE ( 'NONE', #131, #226, #220, .T. ) ;
#226 = VERTEX_POINT ( 'NONE', #299 ) ;
#227 = UNCERTAINTY_MEASURE_WITH_UNIT (LENGTH_MEASURE( 1.000000000000000082E-05 ), #116, 'distance_accuracy_value', 'NONE');
#228 = PRODUCT_RELATED_PRODUCT_CATEGORY ( 'part', '', ( #157 ) ) ;
#229 = ORIENTED_EDGE ( 'NONE', *, *, #57, .T. ) ;
#230 = DIRECTION ( 'NONE',  ( -1.224646799147353207E-16, -0.0000000000000000000, -1.000000000000000000 ) ) ;
#231 = CARTESIAN_POINT ( 'NONE',  ( 8.748579329396911086E-17, 0.0000000000000000000, 0.7143757151439918962 ) ) ;
#232 = CARTESIAN_POINT ( 'NONE',  ( 0.0000000000000000000, 0.0000000000000000000, 0.0000000000000000000 ) ) ;
#233 = CLOSED_SHELL ( 'NONE', ( #138, #290, #113, #3, #284, #12, #281, #268, #310, #68, #295 ) ) ;
#234 = EDGE_CURVE ( 'NONE', #302, #226, #249, .T. ) ;
#235 =( LENGTH_UNIT ( ) NAMED_UNIT ( * ) SI_UNIT ( $, .METRE. ) );
#236 = AXIS2_PLACEMENT_3D ( 'NONE', #159, #210, #155 ) ;
#237 = CARTESIAN_POINT ( 'NONE',  ( 1.337812123592763100E-17, 0.0000000000000000000, 0.1092406499999999947 ) ) ;
#238 = CARTESIAN_POINT ( 'NONE',  ( 7.654042494670957853E-17, 0.0000000000000000000, 0.6250000000000000000 ) ) ;
#239 = CONICAL_SURFACE ( 'NONE', #307, 0.1100000000000001948, 0.7853981633974517207 ) ;
#240 = CARTESIAN_POINT ( 'NONE',  ( 0.1250000000000000833, 1.530808498934192433E-17, 0.7143757151439918962 ) ) ;
#241 = LINE ( 'NONE', #67, #260 ) ;
#242 = CARTESIAN_POINT ( 'NONE',  ( -0.1092406499999999253, 1.337812123592763100E-17, 0.6250000000000000000 ) ) ;
#243 = CIRCLE ( 'NONE', #289, 0.1250000000000000000 ) ;
#244 = AXIS2_PLACEMENT_3D ( 'NONE', #83, #56, #324 ) ;
#245 = ORIENTED_EDGE ( 'NONE', *, *, #16, .T. ) ;
#246 = UNCERTAINTY_MEASURE_WITH_UNIT (LENGTH_MEASURE( 1.000000000000000082E-05 ), #293, 'distance_accuracy_value', 'NONE');
#247 = DIRECTION ( 'NONE',  ( 0.0000000000000000000, 1.000000000000000000, 0.0000000000000000000 ) ) ;
#248 = ORIENTED_EDGE ( 'NONE', *, *, #200, .T. ) ;
#249 = LINE ( 'NONE', #242, #280 ) ;
#250 = ORIENTED_EDGE ( 'NONE', *, *, #200, .F. ) ;
#251 =( LENGTH_UNIT ( ) NAMED_UNIT ( * ) SI_UNIT ( $, .METRE. ) );
#252 = VECTOR ( 'NONE', #49, 39.37007874015748143 ) ;
#253 = VERTEX_POINT ( 'NONE', #125 ) ;
#254 = DIRECTION ( 'NONE',  ( 1.000000000000000000, 0.0000000000000000000, 0.0000000000000000000 ) ) ;
#255 = CARTESIAN_POINT ( 'NONE',  ( -0.1100000000000001948, 0.0000000000000000000, 2.500000000000000000 ) ) ;
#256 = APPLICATION_PROTOCOL_DEFINITION ( 'draft international standard', 'automotive_design', 1998, #186 ) ;
#257 = FILL_AREA_STYLE_COLOUR ( '', #40 ) ;
#258 = CONICAL_SURFACE ( 'NONE', #264, 0.1092406499999999947, 0.1745329251994338637 ) ;
#259 = CARTESIAN_POINT ( 'NONE',  ( 8.748579329396911086E-17, 0.0000000000000000000, 0.7143757151439918962 ) ) ;
#260 = VECTOR ( 'NONE', #18, 39.37007874015748143 ) ;
#261 = ORIENTED_EDGE ( 'NONE', *, *, #23, .T. ) ;
#262 = DIRECTION ( 'NONE',  ( 0.0000000000000000000, 0.0000000000000000000, 1.000000000000000000 ) ) ;
#263 = DIRECTION ( 'NONE',  ( 1.000000000000000000, 0.0000000000000000000, 0.0000000000000000000 ) ) ;
#264 = AXIS2_PLACEMENT_3D ( 'NONE', #43, #65, #297 ) ;
#265 = DIRECTION ( 'NONE',  ( -1.000000000000000000, 0.0000000000000000000, 1.562975866621229869E-16 ) ) ;
#266 = ORIENTED_EDGE ( 'NONE', *, *, #234, .F. ) ;
#267 = DIRECTION ( 'NONE',  ( 0.0000000000000000000, -1.000000000000000000, 0.0000000000000000000 ) ) ;
#268 = ADVANCED_FACE ( 'NONE', ( #271 ), #239, .T. ) ;
#269 = DIRECTION ( 'NONE',  ( 0.0000000000000000000, 0.0000000000000000000, -1.000000000000000000 ) ) ;
#270 = ORIENTED_EDGE ( 'NONE', *, *, #225, .T. ) ;
#271 = FACE_OUTER_BOUND ( 'NONE', #201, .T. ) ;
#272 = STYLED_ITEM ( 'NONE', ( #27 ), #111 ) ;
#273 = ORIENTED_EDGE ( 'NONE', *, *, #81, .F. ) ;
#274 = EDGE_CURVE ( 'NONE', #153, #51, #124, .T. ) ;
#275 = CARTESIAN_POINT ( 'NONE',  ( 0.1250000000000000000, 1.530808498934191509E-17, 2.500000000000000000 ) ) ;
#276 = EDGE_LOOP ( 'NONE', ( #46, #37, #76 ) ) ;
#277 = DIRECTION ( 'NONE',  ( -1.224646799147353207E-16, -0.0000000000000000000, -1.000000000000000000 ) ) ;
#278 = ORIENTED_EDGE ( 'NONE', *, *, #57, .F. ) ;
#279 = DIRECTION ( 'NONE',  ( -1.000000000000000000, 0.0000000000000000000, 0.0000000000000000000 ) ) ;
#280 = VECTOR ( 'NONE', #73, 39.37007874015747433 ) ;
#281 = ADVANCED_FACE ( 'NONE', ( #24 ), #301, .T. ) ;
#282 = SURFACE_STYLE_FILL_AREA ( #309 ) ;
#283 = CARTESIAN_POINT ( 'NONE',  ( 0.0000000000000000000, 0.0000000000000000000, 2.485000000000000320 ) ) ;
#284 = ADVANCED_FACE ( 'NONE', ( #38 ), #192, .T. ) ;
#285 = CIRCLE ( 'NONE', #10, 0.1250000000000000000 ) ;
#286 = EDGE_CURVE ( 'NONE', #100, #226, #243, .T. ) ;
#287 = DIMENSIONAL_EXPONENTS ( 1.000000000000000000, 0.0000000000000000000, 0.0000000000000000000, 0.0000000000000000000, 0.0000000000000000000, 0.0000000000000000000, 0.0000000000000000000 ) ;
#288 = SPHERICAL_SURFACE ( 'NONE', #6, 0.1092406499999999947 ) ;
#289 = AXIS2_PLACEMENT_3D ( 'NONE', #259, #141, #263 ) ;
#290 = ADVANCED_FACE ( 'NONE', ( #188 ), #214, .T. ) ;
#291 =( NAMED_UNIT ( * ) SI_UNIT ( $, .STERADIAN. ) SOLID_ANGLE_UNIT ( ) );
#292 =( LENGTH_UNIT ( ) NAMED_UNIT ( * ) SI_UNIT ( $, .METRE. ) );
#293 =( CONVERSION_BASED_UNIT ( 'INCH', #132 ) LENGTH_UNIT ( ) NAMED_UNIT ( #139 ) );
#294 = CIRCLE ( 'NONE', #221, 0.1250000000000000000 ) ;
#295 = ADVANCED_FACE ( 'NONE', ( #62 ), #288, .T. ) ;
#296 = SPHERICAL_SURFACE ( 'NONE', #114, 0.1092406499999999947 ) ;
#297 = DIRECTION ( 'NONE',  ( 1.000000000000000000, 0.0000000000000000000, 0.0000000000000000000 ) ) ;
#298 = VERTEX_POINT ( 'NONE', #219 ) ;
#299 = CARTESIAN_POINT ( 'NONE',  ( -0.1249999999999999167, 0.0000000000000000000, 0.7143757151439918962 ) ) ;
#300 = ORIENTED_EDGE ( 'NONE', *, *, #16, .F. ) ;
#301 = PLANE ( 'NONE',  #19 ) ;
#302 = VERTEX_POINT ( 'NONE', #15 ) ;
#303 = CARTESIAN_POINT ( 'NONE',  ( 0.0000000000000000000, 0.0000000000000000000, 2.500000000000000000 ) ) ;
#304 = ORIENTED_EDGE ( 'NONE', *, *, #59, .F. ) ;
#305 = LINE ( 'NONE', #54, #252 ) ;
#306 = LINE ( 'NONE', #255, #195 ) ;
#307 = AXIS2_PLACEMENT_3D ( 'NONE', #172, #70, #174 ) ;
#308 = FACE_OUTER_BOUND ( 'NONE', #180, .T. ) ;
#309 = FILL_AREA_STYLE ('',( #32 ) ) ;
#310 = ADVANCED_FACE ( 'NONE', ( #318 ), #137, .T. ) ;
#311 = SURFACE_STYLE_USAGE ( .BOTH. , #211 ) ;
#312 = CIRCLE ( 'NONE', #52, 0.1092406499999999947 ) ;
#313 = APPLICATION_PROTOCOL_DEFINITION ( 'draft international standard', 'automotive_design', 1998, #9 ) ;
#314 = CARTESIAN_POINT ( 'NONE',  ( 1.337812123592763100E-17, 0.0000000000000000000, 0.1092406499999999947 ) ) ;
#315 = PRODUCT_DEFINITION_SHAPE ( 'NONE', 'NONE',  #50 ) ;
#316 = EDGE_CURVE ( 'NONE', #253, #51, #189, .T. ) ;
#317 = ORIENTED_EDGE ( 'NONE', *, *, #88, .T. ) ;
#318 = FACE_OUTER_BOUND ( 'NONE', #61, .T. ) ;
#319 = ORIENTED_EDGE ( 'NONE', *, *, #112, .F. ) ;
#320 = ORIENTED_EDGE ( 'NONE', *, *, #286, .T. ) ;
#321 = LINE ( 'NONE', #194, #215 ) ;
#322 = ORIENTED_EDGE ( 'NONE', *, *, #286, .F. ) ;
#323 = CIRCLE ( 'NONE', #236, 0.1100000000000001948 ) ;
#324 = DIRECTION ( 'NONE',  ( 1.000000000000000000, 0.0000000000000000000, 0.0000000000000000000 ) ) ;
#325 = DIRECTION ( 'NONE',  ( 0.0000000000000000000, 0.0000000000000000000, -1.000000000000000000 ) ) ;
ENDSEC;
END-ISO-10303-21;
