ISO-10303-21;
HEADER;
FILE_DESCRIPTION (( 'STEP AP214' ),
    '1' );
FILE_NAME ('00392.STEP',
    '2023-06-22T14:07:33',
    ( '' ),
    ( '' ),
    'SwSTEP 2.0',
    'SolidWorks 2023',
    '' );
FILE_SCHEMA (( 'AUTOMOTIVE_DESIGN' ));
ENDSEC;

DATA;
#1 = PRESENTATION_LAYER_ASSIGNMENT (  '', '', ( #57 ) ) ;
#2 = MECHANICAL_DESIGN_GEOMETRIC_PRESENTATION_REPRESENTATION (  '', ( #232 ), #185 ) ;
#3 =( CONVERSION_BASED_UNIT ( 'INCH', #186 ) LENGTH_UNIT ( ) NAMED_UNIT ( #249 ) );
#4 =( LENGTH_UNIT ( ) NAMED_UNIT ( * ) SI_UNIT ( $, .METRE. ) );
#5 = DIRECTION ( 'NONE',  ( -0.000000000000000000, -1.000000000000000000, -0.000000000000000000 ) ) ;
#6 = PRESENTATION_STYLE_ASSIGNMENT (( #222 ) ) ;
#7 = DIRECTION ( 'NONE',  ( -0.000000000000000000, -1.000000000000000000, -0.000000000000000000 ) ) ;
#8 =( NAMED_UNIT ( * ) PLANE_ANGLE_UNIT ( ) SI_UNIT ( $, .RADIAN. ) );
#9 = CARTESIAN_POINT ( 'NONE',  ( 0.000000000000000000, 0.000000000000000000, 0.000000000000000000 ) ) ;
#10 = DIMENSIONAL_EXPONENTS ( 1.000000000000000000, 0.000000000000000000, 0.000000000000000000, 0.000000000000000000, 0.000000000000000000, 0.000000000000000000, 0.000000000000000000 ) ;
#11 = DIRECTION ( 'NONE',  ( -3.061616997868383018E-17, 1.000000000000000000, -0.000000000000000000 ) ) ;
#12 = STYLED_ITEM ( 'NONE', ( #211 ), #251 ) ;
#13 = AXIS2_PLACEMENT_3D ( 'NONE', #96, #140, #210 ) ;
#14 = EDGE_LOOP ( 'NONE', ( #104, #37 ) ) ;
#15 = ORIENTED_EDGE ( 'NONE', *, *, #191, .F. ) ;
#16 = CYLINDRICAL_SURFACE ( 'NONE', #242, 0.1875000000000000278 ) ;
#17 = AXIS2_PLACEMENT_3D ( 'NONE', #306, #43, #252 ) ;
#18 = EDGE_CURVE ( 'NONE', #126, #71, #130, .T. ) ;
#19 = LENGTH_MEASURE_WITH_UNIT ( LENGTH_MEASURE( 0.02539999999999999897 ), #255 );
#20 = APPLICATION_CONTEXT ( 'automotive_design' ) ;
#21 = EDGE_CURVE ( 'NONE', #126, #194, #24, .T. ) ;
#22 =( LENGTH_UNIT ( ) NAMED_UNIT ( * ) SI_UNIT ( $, .METRE. ) );
#23 = EDGE_CURVE ( 'NONE', #247, #274, #99, .T. ) ;
#24 = CIRCLE ( 'NONE', #301, 0.1875000000000000278 ) ;
#25 = FILL_AREA_STYLE_COLOUR ( '', #92 ) ;
#26 = CLOSED_SHELL ( 'NONE', ( #195, #292, #208, #251 ) ) ;
#27 =( GEOMETRIC_REPRESENTATION_CONTEXT ( 3 ) GLOBAL_UNCERTAINTY_ASSIGNED_CONTEXT ( ( #188 ) ) GLOBAL_UNIT_ASSIGNED_CONTEXT ( ( #68, #44, #159 ) ) REPRESENTATION_CONTEXT ( 'NONE', 'WORKASPACE' ) );
#28 = CIRCLE ( 'NONE', #58, 0.1875000000000000278 ) ;
#29 =( NAMED_UNIT ( * ) SI_UNIT ( $, .STERADIAN. ) SOLID_ANGLE_UNIT ( ) );
#30 = APPLICATION_PROTOCOL_DEFINITION ( 'draft international standard', 'automotive_design', 1998, #131 ) ;
#31 = DIRECTION ( 'NONE',  ( -0.000000000000000000, -1.000000000000000000, -0.000000000000000000 ) ) ;
#32 = UNCERTAINTY_MEASURE_WITH_UNIT (LENGTH_MEASURE( 1.000000000000000082E-05 ), #270, 'distance_accuracy_value', 'NONE');
#33 = FACE_OUTER_BOUND ( 'NONE', #219, .T. ) ;
#34 = ADVANCED_FACE ( 'NONE', ( #101 ), #199, .T. ) ;
#35 = DIRECTION ( 'NONE',  ( 0.000000000000000000, 0.000000000000000000, -1.000000000000000000 ) ) ;
#36 = COLOUR_RGB ( '',0.7921568627450980005, 0.8196078431372548767, 0.9333333333333333481 ) ;
#37 = ORIENTED_EDGE ( 'NONE', *, *, #40, .F. ) ;
#38 = LENGTH_MEASURE_WITH_UNIT ( LENGTH_MEASURE( 0.02539999999999999897 ), #4 );
#39 = ORIENTED_EDGE ( 'NONE', *, *, #275, .T. ) ;
#40 = EDGE_CURVE ( 'NONE', #175, #79, #250, .T. ) ;
#41 = DIRECTION ( 'NONE',  ( -3.061616997868383018E-17, 1.000000000000000000, -0.000000000000000000 ) ) ;
#42 = ORIENTED_EDGE ( 'NONE', *, *, #40, .T. ) ;
#43 = DIRECTION ( 'NONE',  ( 3.061616997868383018E-17, -1.000000000000000000, 0.000000000000000000 ) ) ;
#44 =( NAMED_UNIT ( * ) PLANE_ANGLE_UNIT ( ) SI_UNIT ( $, .RADIAN. ) );
#45 =( GEOMETRIC_REPRESENTATION_CONTEXT ( 3 ) GLOBAL_UNCERTAINTY_ASSIGNED_CONTEXT ( ( #52 ) ) GLOBAL_UNIT_ASSIGNED_CONTEXT ( ( #262, #141, #238 ) ) REPRESENTATION_CONTEXT ( 'NONE', 'WORKASPACE' ) );
#46 = DIRECTION ( 'NONE',  ( -0.000000000000000000, -1.000000000000000000, -0.000000000000000000 ) ) ;
#47 = PRODUCT_RELATED_PRODUCT_CATEGORY ( 'part', '', ( #165 ) ) ;
#48 = LENGTH_MEASURE_WITH_UNIT ( LENGTH_MEASURE( 0.02539999999999999897 ), #214 );
#49 = AXIS2_PLACEMENT_3D ( 'NONE', #60, #82, #192 ) ;
#50 = PRESENTATION_STYLE_ASSIGNMENT (( #53 ) ) ;
#51 = UNCERTAINTY_MEASURE_WITH_UNIT (LENGTH_MEASURE( 1.000000000000000082E-05 ), #290, 'distance_accuracy_value', 'NONE');
#52 = UNCERTAINTY_MEASURE_WITH_UNIT (LENGTH_MEASURE( 1.000000000000000082E-05 ), #262, 'distance_accuracy_value', 'NONE');
#53 = SURFACE_STYLE_USAGE ( .BOTH. , #309 ) ;
#54 = FILL_AREA_STYLE_COLOUR ( '', #36 ) ;
#55 = EDGE_LOOP ( 'NONE', ( #241, #42, #170, #243 ) ) ;
#56 = ORIENTED_EDGE ( 'NONE', *, *, #18, .T. ) ;
#57 = STYLED_ITEM ( 'NONE', ( #207 ), #208 ) ;
#58 = AXIS2_PLACEMENT_3D ( 'NONE', #220, #31, #124 ) ;
#59 = DIRECTION ( 'NONE',  ( -1.000000000000000000, 0.000000000000000000, 0.000000000000000000 ) ) ;
#60 = CARTESIAN_POINT ( 'NONE',  ( 8.787654976534324059E-35, 2.000000000000000000, 0.000000000000000000 ) ) ;
#61 = ORIENTED_EDGE ( 'NONE', *, *, #151, .T. ) ;
#62 = ORIENTED_EDGE ( 'NONE', *, *, #18, .F. ) ;
#63 = EDGE_CURVE ( 'NONE', #175, #274, #168, .T. ) ;
#64 = CARTESIAN_POINT ( 'NONE',  ( 2.296212748401287726E-17, 2.000000000000000000, 0.1875000000000000278 ) ) ;
#65 = FACE_OUTER_BOUND ( 'NONE', #14, .T. ) ;
#66 = FILL_AREA_STYLE_COLOUR ( '', #180 ) ;
#67 = AXIS2_PLACEMENT_3D ( 'NONE', #231, #228, #109 ) ;
#68 =( CONVERSION_BASED_UNIT ( 'INCH', #200 ) LENGTH_UNIT ( ) NAMED_UNIT ( #111 ) );
#69 = PRESENTATION_STYLE_ASSIGNMENT (( #177 ) ) ;
#70 = LENGTH_MEASURE_WITH_UNIT ( LENGTH_MEASURE( 0.02539999999999999897 ), #22 );
#71 = VERTEX_POINT ( 'NONE', #150 ) ;
#72 = DIRECTION ( 'NONE',  ( 0.000000000000000000, 0.000000000000000000, -1.000000000000000000 ) ) ;
#73 = FILL_AREA_STYLE ('',( #25 ) ) ;
#74 = EDGE_CURVE ( 'NONE', #152, #71, #95, .T. ) ;
#75 = MECHANICAL_DESIGN_GEOMETRIC_PRESENTATION_REPRESENTATION (  '', ( #12 ), #284 ) ;
#76 = APPLICATION_PROTOCOL_DEFINITION ( 'draft international standard', 'automotive_design', 1998, #20 ) ;
#77 = DIRECTION ( 'NONE',  ( -3.061616997868383018E-17, 1.000000000000000000, -0.000000000000000000 ) ) ;
#78 = DIRECTION ( 'NONE',  ( -1.000000000000000000, 0.000000000000000000, 0.000000000000000000 ) ) ;
#79 = VERTEX_POINT ( 'NONE', #132 ) ;
#80 = PLANE ( 'NONE',  #261 ) ;
#81 = CARTESIAN_POINT ( 'NONE',  ( -6.123233995736766036E-17, 4.000000000000000000, 0.000000000000000000 ) ) ;
#82 = DIRECTION ( 'NONE',  ( -3.061616997868383018E-17, 1.000000000000000000, 0.000000000000000000 ) ) ;
#83 = DIRECTION ( 'NONE',  ( -0.000000000000000000, -1.000000000000000000, -0.000000000000000000 ) ) ;
#84 = EDGE_LOOP ( 'NONE', ( #163, #39, #56, #224 ) ) ;
#85 = SURFACE_STYLE_USAGE ( .BOTH. , #137 ) ;
#86 = PRESENTATION_LAYER_ASSIGNMENT (  '', '', ( #166 ) ) ;
#87 = FILL_AREA_STYLE ('',( #66 ) ) ;
#88 = DIMENSIONAL_EXPONENTS ( 1.000000000000000000, 0.000000000000000000, 0.000000000000000000, 0.000000000000000000, 0.000000000000000000, 0.000000000000000000, 0.000000000000000000 ) ;
#89 = DIRECTION ( 'NONE',  ( 0.000000000000000000, -0.000000000000000000, 1.000000000000000000 ) ) ;
#90 = FILL_AREA_STYLE ('',( #114 ) ) ;
#91 = FACE_OUTER_BOUND ( 'NONE', #276, .T. ) ;
#92 = COLOUR_RGB ( '',1.000000000000000000, 0.000000000000000000, 0.000000000000000000 ) ;
#93 = PRODUCT_DEFINITION_SHAPE ( 'NONE', 'NONE',  #277 ) ;
#94 =( NAMED_UNIT ( * ) PLANE_ANGLE_UNIT ( ) SI_UNIT ( $, .RADIAN. ) );
#95 = CIRCLE ( 'NONE', #229, 0.1875000000000000278 ) ;
#96 = CARTESIAN_POINT ( 'NONE',  ( 0.000000000000000000, 0.000000000000000000, 0.000000000000000000 ) ) ;
#97 =( NAMED_UNIT ( * ) PLANE_ANGLE_UNIT ( ) SI_UNIT ( $, .RADIAN. ) );
#98 = EDGE_CURVE ( 'NONE', #79, #175, #236, .T. ) ;
#99 = CIRCLE ( 'NONE', #110, 0.1875000000000000833 ) ;
#100 =( GEOMETRIC_REPRESENTATION_CONTEXT ( 3 ) GLOBAL_UNCERTAINTY_ASSIGNED_CONTEXT ( ( #234 ) ) GLOBAL_UNIT_ASSIGNED_CONTEXT ( ( #156, #269, #108 ) ) REPRESENTATION_CONTEXT ( 'NONE', 'WORKASPACE' ) );
#101 = FACE_OUTER_BOUND ( 'NONE', #266, .T. ) ;
#102 =( LENGTH_UNIT ( ) NAMED_UNIT ( * ) SI_UNIT ( $, .METRE. ) );
#103 = ORIENTED_EDGE ( 'NONE', *, *, #23, .F. ) ;
#104 = ORIENTED_EDGE ( 'NONE', *, *, #98, .F. ) ;
#105 = PRESENTATION_LAYER_ASSIGNMENT (  '', '', ( #197 ) ) ;
#106 = PRESENTATION_LAYER_ASSIGNMENT (  '', '', ( #232 ) ) ;
#107 = ORIENTED_EDGE ( 'NONE', *, *, #202, .T. ) ;
#108 =( NAMED_UNIT ( * ) SI_UNIT ( $, .STERADIAN. ) SOLID_ANGLE_UNIT ( ) );
#109 = DIRECTION ( 'NONE',  ( -1.000000000000000000, 0.000000000000000000, 0.000000000000000000 ) ) ;
#110 = AXIS2_PLACEMENT_3D ( 'NONE', #193, #41, #297 ) ;
#111 = DIMENSIONAL_EXPONENTS ( 1.000000000000000000, 0.000000000000000000, 0.000000000000000000, 0.000000000000000000, 0.000000000000000000, 0.000000000000000000, 0.000000000000000000 ) ;
#112 =( GEOMETRIC_REPRESENTATION_CONTEXT ( 3 ) GLOBAL_UNCERTAINTY_ASSIGNED_CONTEXT ( ( #32 ) ) GLOBAL_UNIT_ASSIGNED_CONTEXT ( ( #270, #8, #173 ) ) REPRESENTATION_CONTEXT ( 'NONE', 'WORKASPACE' ) );
#113 = CARTESIAN_POINT ( 'NONE',  ( -6.123233995736766036E-17, 4.000000000000000000, 0.000000000000000000 ) ) ;
#114 = FILL_AREA_STYLE_COLOUR ( '', #217 ) ;
#115 = VECTOR ( 'NONE', #291, 39.37007874015748143 ) ;
#116 = AXIS2_PLACEMENT_3D ( 'NONE', #120, #187, #260 ) ;
#117 =( NAMED_UNIT ( * ) SI_UNIT ( $, .STERADIAN. ) SOLID_ANGLE_UNIT ( ) );
#118 = SURFACE_SIDE_STYLE ('',( #263 ) ) ;
#119 = PLANE ( 'NONE',  #286 ) ;
#120 = CARTESIAN_POINT ( 'NONE',  ( 0.000000000000000000, 0.000000000000000000, 0.000000000000000000 ) ) ;
#121 = AXIS2_PLACEMENT_3D ( 'NONE', #273, #77, #59 ) ;
#122 = EDGE_CURVE ( 'NONE', #79, #247, #160, .T. ) ;
#123 = FACE_OUTER_BOUND ( 'NONE', #221, .T. ) ;
#124 = DIRECTION ( 'NONE',  ( 0.000000000000000000, 0.000000000000000000, -1.000000000000000000 ) ) ;
#125 = FILL_AREA_STYLE ('',( #54 ) ) ;
#126 = VERTEX_POINT ( 'NONE', #279 ) ;
#127 = AXIS2_PLACEMENT_3D ( 'NONE', #135, #181, #155 ) ;
#128 = CYLINDRICAL_SURFACE ( 'NONE', #304, 0.1875000000000000555 ) ;
#129 = ORIENTED_EDGE ( 'NONE', *, *, #191, .T. ) ;
#130 = LINE ( 'NONE', #268, #189 ) ;
#131 = APPLICATION_CONTEXT ( 'automotive_design' ) ;
#132 = CARTESIAN_POINT ( 'NONE',  ( -0.1875000000000000278, 2.000000000000000000, 0.000000000000000000 ) ) ;
#133 = MECHANICAL_DESIGN_GEOMETRIC_PRESENTATION_REPRESENTATION (  '', ( #197 ), #308 ) ;
#134 = ORIENTED_EDGE ( 'NONE', *, *, #74, .T. ) ;
#135 = CARTESIAN_POINT ( 'NONE',  ( 0.000000000000000000, 0.000000000000000000, 0.000000000000000000 ) ) ;
#136 = LINE ( 'NONE', #258, #158 ) ;
#137 = SURFACE_SIDE_STYLE ('',( #178 ) ) ;
#138 = SURFACE_STYLE_FILL_AREA ( #87 ) ;
#139 = PRESENTATION_LAYER_ASSIGNMENT (  '', '', ( #12 ) ) ;
#140 = DIRECTION ( 'NONE',  ( 0.000000000000000000, 0.000000000000000000, 1.000000000000000000 ) ) ;
#141 =( NAMED_UNIT ( * ) PLANE_ANGLE_UNIT ( ) SI_UNIT ( $, .RADIAN. ) );
#142 =( CONVERSION_BASED_UNIT ( 'INCH', #48 ) LENGTH_UNIT ( ) NAMED_UNIT ( #10 ) );
#143 =( NAMED_UNIT ( * ) PLANE_ANGLE_UNIT ( ) SI_UNIT ( $, .RADIAN. ) );
#144 = SURFACE_SIDE_STYLE ('',( #147 ) ) ;
#145 = ORIENTED_EDGE ( 'NONE', *, *, #21, .F. ) ;
#146 = AXIS2_PLACEMENT_3D ( 'NONE', #113, #230, #205 ) ;
#147 = SURFACE_STYLE_FILL_AREA ( #125 ) ;
#148 = ORIENTED_EDGE ( 'NONE', *, *, #275, .F. ) ;
#149 = PRESENTATION_STYLE_ASSIGNMENT (( #240 ) ) ;
#150 = CARTESIAN_POINT ( 'NONE',  ( 0.000000000000000000, 0.000000000000000000, -0.1875000000000000278 ) ) ;
#151 = EDGE_CURVE ( 'NONE', #194, #152, #136, .T. ) ;
#152 = VERTEX_POINT ( 'NONE', #259 ) ;
#153 = MECHANICAL_DESIGN_GEOMETRIC_PRESENTATION_REPRESENTATION (  '', ( #166 ), #27 ) ;
#154 = PLANE ( 'NONE',  #17 ) ;
#155 = DIRECTION ( 'NONE',  ( 0.000000000000000000, 0.000000000000000000, -1.000000000000000000 ) ) ;
#156 =( CONVERSION_BASED_UNIT ( 'INCH', #19 ) LENGTH_UNIT ( ) NAMED_UNIT ( #226 ) );
#157 = CYLINDRICAL_SURFACE ( 'NONE', #116, 0.1875000000000000278 ) ;
#158 = VECTOR ( 'NONE', #302, 39.37007874015748143 ) ;
#159 =( NAMED_UNIT ( * ) SI_UNIT ( $, .STERADIAN. ) SOLID_ANGLE_UNIT ( ) );
#160 = LINE ( 'NONE', #179, #296 ) ;
#161 = CARTESIAN_POINT ( 'NONE',  ( -0.1875000000000001388, 4.000000000000000000, 0.000000000000000000 ) ) ;
#162 = UNCERTAINTY_MEASURE_WITH_UNIT (LENGTH_MEASURE( 1.000000000000000082E-05 ), #3, 'distance_accuracy_value', 'NONE');
#163 = ORIENTED_EDGE ( 'NONE', *, *, #151, .F. ) ;
#164 = PRODUCT_CONTEXT ( 'NONE', #20, 'mechanical' ) ;
#165 = PRODUCT ( '00392', '00392', '', ( #164 ) ) ;
#166 = STYLED_ITEM ( 'NONE', ( #69 ), #195 ) ;
#167 = UNCERTAINTY_MEASURE_WITH_UNIT (LENGTH_MEASURE( 1.000000000000000082E-05 ), #142, 'distance_accuracy_value', 'NONE');
#168 = LINE ( 'NONE', #223, #115 ) ;
#169 = FILL_AREA_STYLE_COLOUR ( '', #237 ) ;
#170 = ORIENTED_EDGE ( 'NONE', *, *, #122, .T. ) ;
#171 = LENGTH_MEASURE_WITH_UNIT ( LENGTH_MEASURE( 0.02539999999999999897 ), #102 );
#172 = DIRECTION ( 'NONE',  ( -3.061616997868383018E-17, 1.000000000000000000, -0.000000000000000000 ) ) ;
#173 =( NAMED_UNIT ( * ) SI_UNIT ( $, .STERADIAN. ) SOLID_ANGLE_UNIT ( ) );
#174 = ORIENTED_EDGE ( 'NONE', *, *, #21, .T. ) ;
#175 = VERTEX_POINT ( 'NONE', #176 ) ;
#176 = CARTESIAN_POINT ( 'NONE',  ( 0.1875000000000000278, 2.000000000000000000, 2.296212748401288342E-17 ) ) ;
#177 = SURFACE_STYLE_USAGE ( .BOTH. , #278 ) ;
#178 = SURFACE_STYLE_FILL_AREA ( #90 ) ;
#179 = CARTESIAN_POINT ( 'NONE',  ( -0.1875000000000001110, 4.000000000000000000, 0.000000000000000000 ) ) ;
#180 = COLOUR_RGB ( '',1.000000000000000000, 0.000000000000000000, 0.000000000000000000 ) ;
#181 = DIRECTION ( 'NONE',  ( -0.000000000000000000, -1.000000000000000000, -0.000000000000000000 ) ) ;
#182 = FILL_AREA_STYLE ('',( #235 ) ) ;
#183 = SURFACE_STYLE_FILL_AREA ( #182 ) ;
#184 = CIRCLE ( 'NONE', #127, 0.1875000000000000278 ) ;
#185 =( GEOMETRIC_REPRESENTATION_CONTEXT ( 3 ) GLOBAL_UNCERTAINTY_ASSIGNED_CONTEXT ( ( #51 ) ) GLOBAL_UNIT_ASSIGNED_CONTEXT ( ( #290, #143, #295 ) ) REPRESENTATION_CONTEXT ( 'NONE', 'WORKASPACE' ) );
#186 = LENGTH_MEASURE_WITH_UNIT ( LENGTH_MEASURE( 0.02539999999999999897 ), #209 );
#187 = DIRECTION ( 'NONE',  ( -0.000000000000000000, -1.000000000000000000, -0.000000000000000000 ) ) ;
#188 = UNCERTAINTY_MEASURE_WITH_UNIT (LENGTH_MEASURE( 1.000000000000000082E-05 ), #68, 'distance_accuracy_value', 'NONE');
#189 = VECTOR ( 'NONE', #7, 39.37007874015748143 ) ;
#190 = ORIENTED_EDGE ( 'NONE', *, *, #98, .T. ) ;
#191 = EDGE_CURVE ( 'NONE', #71, #152, #184, .T. ) ;
#192 = DIRECTION ( 'NONE',  ( -1.000000000000000000, -3.061616997868383018E-17, 0.000000000000000000 ) ) ;
#193 = CARTESIAN_POINT ( 'NONE',  ( -6.123233995736766036E-17, 4.000000000000000000, 0.000000000000000000 ) ) ;
#194 = VERTEX_POINT ( 'NONE', #64 ) ;
#195 = ADVANCED_FACE ( 'NONE', ( #307 ), #16, .T. ) ;
#196 = ORIENTED_EDGE ( 'NONE', *, *, #122, .F. ) ;
#197 = STYLED_ITEM ( 'NONE', ( #50 ), #248 ) ;
#198 = PRESENTATION_LAYER_ASSIGNMENT (  '', '', ( #218 ) ) ;
#199 = CYLINDRICAL_SURFACE ( 'NONE', #225, 0.1875000000000000555 ) ;
#200 = LENGTH_MEASURE_WITH_UNIT ( LENGTH_MEASURE( 0.02539999999999999897 ), #253 );
#201 = FACE_OUTER_BOUND ( 'NONE', #84, .T. ) ;
#202 = EDGE_CURVE ( 'NONE', #274, #247, #283, .T. ) ;
#203 = PRODUCT_DEFINITION_FORMATION_WITH_SPECIFIED_SOURCE ( 'ANY', '', #165, .NOT_KNOWN. ) ;
#204 = CARTESIAN_POINT ( 'NONE',  ( 0.000000000000000000, 2.000000000000000000, 0.000000000000000000 ) ) ;
#205 = DIRECTION ( 'NONE',  ( -1.000000000000000000, 0.000000000000000000, 0.000000000000000000 ) ) ;
#206 = ADVANCED_FACE ( 'NONE', ( #91 ), #154, .F. ) ;
#207 = PRESENTATION_STYLE_ASSIGNMENT (( #85 ) ) ;
#208 = ADVANCED_FACE ( 'NONE', ( #201 ), #157, .T. ) ;
#209 =( LENGTH_UNIT ( ) NAMED_UNIT ( * ) SI_UNIT ( $, .METRE. ) );
#210 = DIRECTION ( 'NONE',  ( 1.000000000000000000, 0.000000000000000000, 0.000000000000000000 ) ) ;
#211 = PRESENTATION_STYLE_ASSIGNMENT (( #282 ) ) ;
#212 = SHAPE_DEFINITION_REPRESENTATION ( #93, #215 ) ;
#213 = MECHANICAL_DESIGN_GEOMETRIC_PRESENTATION_REPRESENTATION (  '', ( #218 ), #112 ) ;
#214 =( LENGTH_UNIT ( ) NAMED_UNIT ( * ) SI_UNIT ( $, .METRE. ) );
#215 = ADVANCED_BREP_SHAPE_REPRESENTATION ( '00392', ( #248, #254, #13 ), #100 ) ;
#216 = SURFACE_STYLE_FILL_AREA ( #244 ) ;
#217 = COLOUR_RGB ( '',1.000000000000000000, 0.000000000000000000, 0.000000000000000000 ) ;
#218 = STYLED_ITEM ( 'NONE', ( #6 ), #292 ) ;
#219 = EDGE_LOOP ( 'NONE', ( #145, #148 ) ) ;
#220 = CARTESIAN_POINT ( 'NONE',  ( 0.000000000000000000, 2.000000000000000000, 0.000000000000000000 ) ) ;
#221 = EDGE_LOOP ( 'NONE', ( #129, #134 ) ) ;
#222 = SURFACE_STYLE_USAGE ( .BOTH. , #267 ) ;
#223 = CARTESIAN_POINT ( 'NONE',  ( 0.1874999999999999722, 4.000000000000000000, 2.296212748401288034E-17 ) ) ;
#224 = ORIENTED_EDGE ( 'NONE', *, *, #74, .F. ) ;
#225 = AXIS2_PLACEMENT_3D ( 'NONE', #81, #172, #289 ) ;
#226 = DIMENSIONAL_EXPONENTS ( 1.000000000000000000, 0.000000000000000000, 0.000000000000000000, 0.000000000000000000, 0.000000000000000000, 0.000000000000000000, 0.000000000000000000 ) ;
#227 = ORIENTED_EDGE ( 'NONE', *, *, #63, .T. ) ;
#228 = DIRECTION ( 'NONE',  ( -3.061616997868383018E-17, 1.000000000000000000, -0.000000000000000000 ) ) ;
#229 = AXIS2_PLACEMENT_3D ( 'NONE', #9, #83, #246 ) ;
#230 = DIRECTION ( 'NONE',  ( -3.061616997868383018E-17, 1.000000000000000000, -0.000000000000000000 ) ) ;
#231 = CARTESIAN_POINT ( 'NONE',  ( 0.000000000000000000, 2.000000000000000000, 0.000000000000000000 ) ) ;
#232 = STYLED_ITEM ( 'NONE', ( #149 ), #254 ) ;
#233 = CARTESIAN_POINT ( 'NONE',  ( 0.000000000000000000, 0.000000000000000000, 0.000000000000000000 ) ) ;
#234 = UNCERTAINTY_MEASURE_WITH_UNIT (LENGTH_MEASURE( 1.000000000000000082E-05 ), #156, 'distance_accuracy_value', 'NONE');
#235 = FILL_AREA_STYLE_COLOUR ( '', #257 ) ;
#236 = CIRCLE ( 'NONE', #67, 0.1875000000000000278 ) ;
#237 = COLOUR_RGB ( '',1.000000000000000000, 0.000000000000000000, 0.000000000000000000 ) ;
#238 =( NAMED_UNIT ( * ) SI_UNIT ( $, .STERADIAN. ) SOLID_ANGLE_UNIT ( ) );
#239 = PLANE ( 'NONE',  #49 ) ;
#240 = SURFACE_STYLE_USAGE ( .BOTH. , #144 ) ;
#241 = ORIENTED_EDGE ( 'NONE', *, *, #63, .F. ) ;
#242 = AXIS2_PLACEMENT_3D ( 'NONE', #300, #46, #281 ) ;
#243 = ORIENTED_EDGE ( 'NONE', *, *, #202, .F. ) ;
#244 = FILL_AREA_STYLE ('',( #169 ) ) ;
#245 = EDGE_LOOP ( 'NONE', ( #174, #61, #15, #62 ) ) ;
#246 = DIRECTION ( 'NONE',  ( 0.000000000000000000, 0.000000000000000000, -1.000000000000000000 ) ) ;
#247 = VERTEX_POINT ( 'NONE', #161 ) ;
#248 = MANIFOLD_SOLID_BREP ( 'Revolve - Cutting Edge', #26 ) ;
#249 = DIMENSIONAL_EXPONENTS ( 1.000000000000000000, 0.000000000000000000, 0.000000000000000000, 0.000000000000000000, 0.000000000000000000, 0.000000000000000000, 0.000000000000000000 ) ;
#250 = CIRCLE ( 'NONE', #121, 0.1875000000000000278 ) ;
#251 = ADVANCED_FACE ( 'NONE', ( #123 ), #119, .T. ) ;
#252 = DIRECTION ( 'NONE',  ( 1.000000000000000000, 3.061616997868383018E-17, 0.000000000000000000 ) ) ;
#253 =( LENGTH_UNIT ( ) NAMED_UNIT ( * ) SI_UNIT ( $, .METRE. ) );
#254 = MANIFOLD_SOLID_BREP ( 'Revolve - Tool Body (Straight Shanked)', #271 ) ;
#255 =( LENGTH_UNIT ( ) NAMED_UNIT ( * ) SI_UNIT ( $, .METRE. ) );
#256 = ADVANCED_FACE ( 'NONE', ( #65 ), #239, .F. ) ;
#257 = COLOUR_RGB ( '',0.7921568627450980005, 0.8196078431372548767, 0.9333333333333333481 ) ;
#258 = CARTESIAN_POINT ( 'NONE',  ( 2.296212748401287726E-17, 0.000000000000000000, 0.1875000000000000278 ) ) ;
#259 = CARTESIAN_POINT ( 'NONE',  ( 2.296212748401287726E-17, 0.000000000000000000, 0.1875000000000000278 ) ) ;
#260 = DIRECTION ( 'NONE',  ( 0.000000000000000000, 0.000000000000000000, -1.000000000000000000 ) ) ;
#261 = AXIS2_PLACEMENT_3D ( 'NONE', #204, #305, #89 ) ;
#262 =( CONVERSION_BASED_UNIT ( 'INCH', #70 ) LENGTH_UNIT ( ) NAMED_UNIT ( #298 ) );
#263 = SURFACE_STYLE_FILL_AREA ( #73 ) ;
#264 = MECHANICAL_DESIGN_GEOMETRIC_PRESENTATION_REPRESENTATION (  '', ( #57 ), #45 ) ;
#265 = CARTESIAN_POINT ( 'NONE',  ( -6.123233995736766036E-17, 4.000000000000000000, 0.000000000000000000 ) ) ;
#266 = EDGE_LOOP ( 'NONE', ( #190, #227, #103, #196 ) ) ;
#267 = SURFACE_SIDE_STYLE ('',( #216 ) ) ;
#268 = CARTESIAN_POINT ( 'NONE',  ( 0.000000000000000000, 0.000000000000000000, -0.1875000000000000278 ) ) ;
#269 =( NAMED_UNIT ( * ) PLANE_ANGLE_UNIT ( ) SI_UNIT ( $, .RADIAN. ) );
#270 =( CONVERSION_BASED_UNIT ( 'INCH', #171 ) LENGTH_UNIT ( ) NAMED_UNIT ( #303 ) );
#271 = CLOSED_SHELL ( 'NONE', ( #34, #256, #272, #206 ) ) ;
#272 = ADVANCED_FACE ( 'NONE', ( #293 ), #128, .T. ) ;
#273 = CARTESIAN_POINT ( 'NONE',  ( 0.000000000000000000, 2.000000000000000000, 0.000000000000000000 ) ) ;
#274 = VERTEX_POINT ( 'NONE', #287 ) ;
#275 = EDGE_CURVE ( 'NONE', #194, #126, #28, .T. ) ;
#276 = EDGE_LOOP ( 'NONE', ( #299, #107 ) ) ;
#277 = PRODUCT_DEFINITION ( 'UNKNOWN', '', #203, #288 ) ;
#278 = SURFACE_SIDE_STYLE ('',( #138 ) ) ;
#279 = CARTESIAN_POINT ( 'NONE',  ( 0.000000000000000000, 2.000000000000000000, -0.1875000000000000278 ) ) ;
#280 = DIRECTION ( 'NONE',  ( -3.061616997868383018E-17, 1.000000000000000000, -0.000000000000000000 ) ) ;
#281 = DIRECTION ( 'NONE',  ( 0.000000000000000000, 0.000000000000000000, -1.000000000000000000 ) ) ;
#282 = SURFACE_STYLE_USAGE ( .BOTH. , #118 ) ;
#283 = CIRCLE ( 'NONE', #146, 0.1875000000000000833 ) ;
#284 =( GEOMETRIC_REPRESENTATION_CONTEXT ( 3 ) GLOBAL_UNCERTAINTY_ASSIGNED_CONTEXT ( ( #162 ) ) GLOBAL_UNIT_ASSIGNED_CONTEXT ( ( #3, #97, #117 ) ) REPRESENTATION_CONTEXT ( 'NONE', 'WORKASPACE' ) );
#285 = DIRECTION ( 'NONE',  ( 0.000000000000000000, -1.000000000000000000, -0.000000000000000000 ) ) ;
#286 = AXIS2_PLACEMENT_3D ( 'NONE', #233, #285, #72 ) ;
#287 = CARTESIAN_POINT ( 'NONE',  ( 0.1875000000000000278, 4.000000000000000000, 2.296212748401288342E-17 ) ) ;
#288 = PRODUCT_DEFINITION_CONTEXT ( 'detailed design', #131, 'design' ) ;
#289 = DIRECTION ( 'NONE',  ( -1.000000000000000000, 0.000000000000000000, 0.000000000000000000 ) ) ;
#290 =( CONVERSION_BASED_UNIT ( 'INCH', #38 ) LENGTH_UNIT ( ) NAMED_UNIT ( #88 ) );
#291 = DIRECTION ( 'NONE',  ( -3.061616997868383018E-17, 1.000000000000000000, -0.000000000000000000 ) ) ;
#292 = ADVANCED_FACE ( 'NONE', ( #33 ), #80, .T. ) ;
#293 = FACE_OUTER_BOUND ( 'NONE', #55, .T. ) ;
#294 = CARTESIAN_POINT ( 'NONE',  ( 0.000000000000000000, 2.000000000000000000, 0.000000000000000000 ) ) ;
#295 =( NAMED_UNIT ( * ) SI_UNIT ( $, .STERADIAN. ) SOLID_ANGLE_UNIT ( ) );
#296 = VECTOR ( 'NONE', #280, 39.37007874015748143 ) ;
#297 = DIRECTION ( 'NONE',  ( -1.000000000000000000, 0.000000000000000000, 0.000000000000000000 ) ) ;
#298 = DIMENSIONAL_EXPONENTS ( 1.000000000000000000, 0.000000000000000000, 0.000000000000000000, 0.000000000000000000, 0.000000000000000000, 0.000000000000000000, 0.000000000000000000 ) ;
#299 = ORIENTED_EDGE ( 'NONE', *, *, #23, .T. ) ;
#300 = CARTESIAN_POINT ( 'NONE',  ( 0.000000000000000000, 0.000000000000000000, 0.000000000000000000 ) ) ;
#301 = AXIS2_PLACEMENT_3D ( 'NONE', #294, #5, #35 ) ;
#302 = DIRECTION ( 'NONE',  ( -0.000000000000000000, -1.000000000000000000, -0.000000000000000000 ) ) ;
#303 = DIMENSIONAL_EXPONENTS ( 1.000000000000000000, 0.000000000000000000, 0.000000000000000000, 0.000000000000000000, 0.000000000000000000, 0.000000000000000000, 0.000000000000000000 ) ;
#304 = AXIS2_PLACEMENT_3D ( 'NONE', #265, #11, #78 ) ;
#305 = DIRECTION ( 'NONE',  ( 0.000000000000000000, 1.000000000000000000, 0.000000000000000000 ) ) ;
#306 = CARTESIAN_POINT ( 'NONE',  ( 0.1875000000000000278, 4.000000000000000000, 0.000000000000000000 ) ) ;
#307 = FACE_OUTER_BOUND ( 'NONE', #245, .T. ) ;
#308 =( GEOMETRIC_REPRESENTATION_CONTEXT ( 3 ) GLOBAL_UNCERTAINTY_ASSIGNED_CONTEXT ( ( #167 ) ) GLOBAL_UNIT_ASSIGNED_CONTEXT ( ( #142, #94, #29 ) ) REPRESENTATION_CONTEXT ( 'NONE', 'WORKASPACE' ) );
#309 = SURFACE_SIDE_STYLE ('',( #183 ) ) ;
ENDSEC;
END-ISO-10303-21;
