ISO-10303-21;
HEADER;
FILE_DESCRIPTION (( 'STEP AP214' ),
    '1' );
FILE_NAME ('30737.STEP',
    '2023-06-22T19:07:19',
    ( '' ),
    ( '' ),
    'SwSTEP 2.0',
    'SolidWorks 2023',
    '' );
FILE_SCHEMA (( 'AUTOMOTIVE_DESIGN' ));
ENDSEC;

DATA;
#1 = DIRECTION ( 'NONE',  ( -1.000000000000000000, -1.546922272607182960E-16, 0.000000000000000000 ) ) ;
#2 = DIRECTION ( 'NONE',  ( 0.000000000000000000, 0.000000000000000000, -1.000000000000000000 ) ) ;
#3 =( LENGTH_UNIT ( ) NAMED_UNIT ( * ) SI_UNIT ( $, .METRE. ) );
#4 = CARTESIAN_POINT ( 'NONE',  ( 0.000000000000000000, 0.000000000000000000, 0.000000000000000000 ) ) ;
#5 = VECTOR ( 'NONE', #157, 39.37007874015748143 ) ;
#6 = SURFACE_STYLE_FILL_AREA ( #220 ) ;
#7 = PRESENTATION_STYLE_ASSIGNMENT (( #267 ) ) ;
#8 =( NAMED_UNIT ( * ) SI_UNIT ( $, .STERADIAN. ) SOLID_ANGLE_UNIT ( ) );
#9 = SURFACE_STYLE_USAGE ( .BOTH. , #193 ) ;
#10 = STYLED_ITEM ( 'NONE', ( #7 ), #150 ) ;
#11 = STYLED_ITEM ( 'NONE', ( #198 ), #195 ) ;
#12 = CARTESIAN_POINT ( 'NONE',  ( 0.000000000000000000, 0.000000000000000000, 0.000000000000000000 ) ) ;
#13 = DIRECTION ( 'NONE',  ( -0.000000000000000000, -1.000000000000000000, -0.000000000000000000 ) ) ;
#14 = ADVANCED_FACE ( 'NONE', ( #32 ), #261, .T. ) ;
#15 = ORIENTED_EDGE ( 'NONE', *, *, #93, .F. ) ;
#16 =( GEOMETRIC_REPRESENTATION_CONTEXT ( 3 ) GLOBAL_UNCERTAINTY_ASSIGNED_CONTEXT ( ( #217 ) ) GLOBAL_UNIT_ASSIGNED_CONTEXT ( ( #289, #35, #245 ) ) REPRESENTATION_CONTEXT ( 'NONE', 'WORKASPACE' ) );
#17 =( LENGTH_UNIT ( ) NAMED_UNIT ( * ) SI_UNIT ( $, .METRE. ) );
#18 = UNCERTAINTY_MEASURE_WITH_UNIT (LENGTH_MEASURE( 1.000000000000000082E-05 ), #295, 'distance_accuracy_value', 'NONE');
#19 = VERTEX_POINT ( 'NONE', #214 ) ;
#20 = PRODUCT_DEFINITION_SHAPE ( 'NONE', 'NONE',  #76 ) ;
#21 = ADVANCED_FACE ( 'NONE', ( #47 ), #186, .F. ) ;
#22 = DIRECTION ( 'NONE',  ( -0.000000000000000000, -1.000000000000000000, -0.000000000000000000 ) ) ;
#23 = DIMENSIONAL_EXPONENTS ( 1.000000000000000000, 0.000000000000000000, 0.000000000000000000, 0.000000000000000000, 0.000000000000000000, 0.000000000000000000, 0.000000000000000000 ) ;
#24 = DIRECTION ( 'NONE',  ( -1.000000000000000000, 0.000000000000000000, 0.000000000000000000 ) ) ;
#25 = PRESENTATION_STYLE_ASSIGNMENT (( #51 ) ) ;
#26 = DIRECTION ( 'NONE',  ( -1.546922272607182960E-16, 1.000000000000000000, -0.000000000000000000 ) ) ;
#27 = LINE ( 'NONE', #64, #5 ) ;
#28 = EDGE_LOOP ( 'NONE', ( #15, #185, #73, #79 ) ) ;
#29 = CLOSED_SHELL ( 'NONE', ( #14, #285, #43, #21 ) ) ;
#30 = DIRECTION ( 'NONE',  ( -1.000000000000000000, 0.000000000000000000, 0.000000000000000000 ) ) ;
#31 = COLOUR_RGB ( '',1.000000000000000000, 0.000000000000000000, 0.000000000000000000 ) ;
#32 = FACE_OUTER_BOUND ( 'NONE', #66, .T. ) ;
#33 = UNCERTAINTY_MEASURE_WITH_UNIT (LENGTH_MEASURE( 1.000000000000000082E-05 ), #127, 'distance_accuracy_value', 'NONE');
#34 =( NAMED_UNIT ( * ) SI_UNIT ( $, .STERADIAN. ) SOLID_ANGLE_UNIT ( ) );
#35 =( NAMED_UNIT ( * ) PLANE_ANGLE_UNIT ( ) SI_UNIT ( $, .RADIAN. ) );
#36 = FILL_AREA_STYLE_COLOUR ( '', #247 ) ;
#37 = PRESENTATION_LAYER_ASSIGNMENT (  '', '', ( #161 ) ) ;
#38 = APPLICATION_CONTEXT ( 'automotive_design' ) ;
#39 = PRODUCT_CONTEXT ( 'NONE', #38, 'mechanical' ) ;
#40 = CARTESIAN_POINT ( 'NONE',  ( 0.000000000000000000, 2.625000000000000000, 0.000000000000000000 ) ) ;
#41 = FILL_AREA_STYLE ('',( #175 ) ) ;
#42 = PRESENTATION_LAYER_ASSIGNMENT (  '', '', ( #10 ) ) ;
#43 = ADVANCED_FACE ( 'NONE', ( #133 ), #116, .T. ) ;
#44 = EDGE_CURVE ( 'NONE', #162, #92, #234, .T. ) ;
#45 = STYLED_ITEM ( 'NONE', ( #46 ), #189 ) ;
#46 = PRESENTATION_STYLE_ASSIGNMENT (( #228 ) ) ;
#47 = FACE_OUTER_BOUND ( 'NONE', #140, .T. ) ;
#48 = DIRECTION ( 'NONE',  ( 1.546922272607182960E-16, -1.000000000000000000, 0.000000000000000000 ) ) ;
#49 = SURFACE_SIDE_STYLE ('',( #207 ) ) ;
#50 = ORIENTED_EDGE ( 'NONE', *, *, #85, .T. ) ;
#51 = SURFACE_STYLE_USAGE ( .BOTH. , #49 ) ;
#52 = DIRECTION ( 'NONE',  ( -1.546922272607182960E-16, 1.000000000000000000, -0.000000000000000000 ) ) ;
#53 = AXIS2_PLACEMENT_3D ( 'NONE', #108, #259, #89 ) ;
#54 = LENGTH_MEASURE_WITH_UNIT ( LENGTH_MEASURE( 0.02539999999999999897 ), #3 );
#55 = DIRECTION ( 'NONE',  ( -1.000000000000000000, 0.000000000000000000, 0.000000000000000000 ) ) ;
#56 =( LENGTH_UNIT ( ) NAMED_UNIT ( * ) SI_UNIT ( $, .METRE. ) );
#57 = CARTESIAN_POINT ( 'NONE',  ( -0.5000000000000006661, 5.000000000000000000, 0.000000000000000000 ) ) ;
#58 = CIRCLE ( 'NONE', #109, 0.5000000000000000000 ) ;
#59 = EDGE_CURVE ( 'NONE', #307, #103, #142, .T. ) ;
#60 =( CONVERSION_BASED_UNIT ( 'INCH', #190 ) LENGTH_UNIT ( ) NAMED_UNIT ( #23 ) );
#61 = PRODUCT ( '30737', '30737', '', ( #39 ) ) ;
#62 =( NAMED_UNIT ( * ) SI_UNIT ( $, .STERADIAN. ) SOLID_ANGLE_UNIT ( ) );
#63 = AXIS2_PLACEMENT_3D ( 'NONE', #164, #48, #210 ) ;
#64 = CARTESIAN_POINT ( 'NONE',  ( 0.000000000000000000, 0.000000000000000000, -0.5000000000000000000 ) ) ;
#65 = DIMENSIONAL_EXPONENTS ( 1.000000000000000000, 0.000000000000000000, 0.000000000000000000, 0.000000000000000000, 0.000000000000000000, 0.000000000000000000, 0.000000000000000000 ) ;
#66 = EDGE_LOOP ( 'NONE', ( #125, #232, #280, #200 ) ) ;
#67 = EDGE_CURVE ( 'NONE', #224, #19, #305, .T. ) ;
#68 = AXIS2_PLACEMENT_3D ( 'NONE', #4, #96, #148 ) ;
#69 = DIRECTION ( 'NONE',  ( -1.546922272607182960E-16, 1.000000000000000000, -0.000000000000000000 ) ) ;
#70 = ORIENTED_EDGE ( 'NONE', *, *, #253, .F. ) ;
#71 =( NAMED_UNIT ( * ) SI_UNIT ( $, .STERADIAN. ) SOLID_ANGLE_UNIT ( ) );
#72 = DIRECTION ( 'NONE',  ( -1.546922272607182960E-16, 1.000000000000000000, -0.000000000000000000 ) ) ;
#73 = ORIENTED_EDGE ( 'NONE', *, *, #273, .T. ) ;
#74 = VECTOR ( 'NONE', #22, 39.37007874015748143 ) ;
#75 = COLOUR_RGB ( '',1.000000000000000000, 0.000000000000000000, 0.000000000000000000 ) ;
#76 = PRODUCT_DEFINITION ( 'UNKNOWN', '', #202, #244 ) ;
#77 = VECTOR ( 'NONE', #86, 39.37007874015748143 ) ;
#78 = DIRECTION ( 'NONE',  ( -0.000000000000000000, -1.000000000000000000, -0.000000000000000000 ) ) ;
#79 = ORIENTED_EDGE ( 'NONE', *, *, #268, .F. ) ;
#80 = PLANE ( 'NONE',  #222 ) ;
#81 = SURFACE_STYLE_USAGE ( .BOTH. , #265 ) ;
#82 = UNCERTAINTY_MEASURE_WITH_UNIT (LENGTH_MEASURE( 1.000000000000000082E-05 ), #88, 'distance_accuracy_value', 'NONE');
#83 =( LENGTH_UNIT ( ) NAMED_UNIT ( * ) SI_UNIT ( $, .METRE. ) );
#84 = AXIS2_PLACEMENT_3D ( 'NONE', #209, #258, #110 ) ;
#85 = EDGE_CURVE ( 'NONE', #19, #277, #262, .T. ) ;
#86 = DIRECTION ( 'NONE',  ( -1.546922272607182960E-16, 1.000000000000000000, -0.000000000000000000 ) ) ;
#87 = EDGE_LOOP ( 'NONE', ( #111, #298 ) ) ;
#88 =( CONVERSION_BASED_UNIT ( 'INCH', #112 ) LENGTH_UNIT ( ) NAMED_UNIT ( #306 ) );
#89 = DIRECTION ( 'NONE',  ( 0.000000000000000000, 0.000000000000000000, -1.000000000000000000 ) ) ;
#90 = PRESENTATION_LAYER_ASSIGNMENT (  '', '', ( #292 ) ) ;
#91 = FACE_OUTER_BOUND ( 'NONE', #87, .T. ) ;
#92 = VERTEX_POINT ( 'NONE', #205 ) ;
#93 = EDGE_CURVE ( 'NONE', #103, #92, #255, .T. ) ;
#94 = DIRECTION ( 'NONE',  ( -1.000000000000000000, 0.000000000000000000, 0.000000000000000000 ) ) ;
#95 = SURFACE_SIDE_STYLE ('',( #170 ) ) ;
#96 = DIRECTION ( 'NONE',  ( -0.000000000000000000, -1.000000000000000000, -0.000000000000000000 ) ) ;
#97 = AXIS2_PLACEMENT_3D ( 'NONE', #136, #309, #94 ) ;
#98 = PRESENTATION_STYLE_ASSIGNMENT (( #9 ) ) ;
#99 = AXIS2_PLACEMENT_3D ( 'NONE', #304, #183, #2 ) ;
#100 = FILL_AREA_STYLE ('',( #223 ) ) ;
#101 = LENGTH_MEASURE_WITH_UNIT ( LENGTH_MEASURE( 0.02539999999999999897 ), #246 );
#102 = SURFACE_STYLE_USAGE ( .BOTH. , #299 ) ;
#103 = VERTEX_POINT ( 'NONE', #182 ) ;
#104 = MECHANICAL_DESIGN_GEOMETRIC_PRESENTATION_REPRESENTATION (  '', ( #204 ), #16 ) ;
#105 = EDGE_CURVE ( 'NONE', #103, #307, #58, .T. ) ;
#106 = FACE_OUTER_BOUND ( 'NONE', #212, .T. ) ;
#107 = CARTESIAN_POINT ( 'NONE',  ( 6.123233995736766036E-17, 2.625000000000000000, 0.5000000000000000000 ) ) ;
#108 = CARTESIAN_POINT ( 'NONE',  ( 0.000000000000000000, 0.000000000000000000, 0.000000000000000000 ) ) ;
#109 = AXIS2_PLACEMENT_3D ( 'NONE', #158, #229, #24 ) ;
#110 = DIRECTION ( 'NONE',  ( 0.000000000000000000, 0.000000000000000000, -1.000000000000000000 ) ) ;
#111 = ORIENTED_EDGE ( 'NONE', *, *, #59, .F. ) ;
#112 = LENGTH_MEASURE_WITH_UNIT ( LENGTH_MEASURE( 0.02539999999999999897 ), #184 );
#113 = DIRECTION ( 'NONE',  ( -1.000000000000000000, 0.000000000000000000, 0.000000000000000000 ) ) ;
#114 = CARTESIAN_POINT ( 'NONE',  ( -3.673940397442059375E-16, 5.000000000000000000, 0.000000000000000000 ) ) ;
#115 = ORIENTED_EDGE ( 'NONE', *, *, #268, .T. ) ;
#116 = CYLINDRICAL_SURFACE ( 'NONE', #97, 0.5000000000000001110 ) ;
#117 = DIRECTION ( 'NONE',  ( -1.546922272607182960E-16, 1.000000000000000000, 0.000000000000000000 ) ) ;
#118 = DIRECTION ( 'NONE',  ( 0.000000000000000000, 0.000000000000000000, -1.000000000000000000 ) ) ;
#119 = EDGE_CURVE ( 'NONE', #277, #19, #235, .T. ) ;
#120 =( LENGTH_UNIT ( ) NAMED_UNIT ( * ) SI_UNIT ( $, .METRE. ) );
#121 =( NAMED_UNIT ( * ) PLANE_ANGLE_UNIT ( ) SI_UNIT ( $, .RADIAN. ) );
#122 = FILL_AREA_STYLE ('',( #288 ) ) ;
#123 = CARTESIAN_POINT ( 'NONE',  ( 0.000000000000000000, 0.000000000000000000, 0.000000000000000000 ) ) ;
#124 = PRESENTATION_LAYER_ASSIGNMENT (  '', '', ( #204 ) ) ;
#125 = ORIENTED_EDGE ( 'NONE', *, *, #59, .T. ) ;
#126 = ORIENTED_EDGE ( 'NONE', *, *, #243, .F. ) ;
#127 =( CONVERSION_BASED_UNIT ( 'INCH', #173 ) LENGTH_UNIT ( ) NAMED_UNIT ( #134 ) );
#128 = EDGE_CURVE ( 'NONE', #176, #224, #279, .T. ) ;
#129 = UNCERTAINTY_MEASURE_WITH_UNIT (LENGTH_MEASURE( 1.000000000000000082E-05 ), #60, 'distance_accuracy_value', 'NONE');
#130 = MECHANICAL_DESIGN_GEOMETRIC_PRESENTATION_REPRESENTATION (  '', ( #292 ), #152 ) ;
#131 = SURFACE_STYLE_FILL_AREA ( #41 ) ;
#132 = CARTESIAN_POINT ( 'NONE',  ( -0.5000000000000004441, 5.000000000000000000, 0.000000000000000000 ) ) ;
#133 = FACE_OUTER_BOUND ( 'NONE', #28, .T. ) ;
#134 = DIMENSIONAL_EXPONENTS ( 1.000000000000000000, 0.000000000000000000, 0.000000000000000000, 0.000000000000000000, 0.000000000000000000, 0.000000000000000000, 0.000000000000000000 ) ;
#135 = CIRCLE ( 'NONE', #84, 0.5000000000000000000 ) ;
#136 = CARTESIAN_POINT ( 'NONE',  ( -3.673940397442059375E-16, 5.000000000000000000, 0.000000000000000000 ) ) ;
#137 = DIRECTION ( 'NONE',  ( 0.000000000000000000, 1.000000000000000000, 0.000000000000000000 ) ) ;
#138 = ORIENTED_EDGE ( 'NONE', *, *, #253, .T. ) ;
#139 = DIRECTION ( 'NONE',  ( -1.546922272607182960E-16, 1.000000000000000000, -0.000000000000000000 ) ) ;
#140 = EDGE_LOOP ( 'NONE', ( #160, #115 ) ) ;
#141 = PRODUCT_RELATED_PRODUCT_CATEGORY ( 'part', '', ( #61 ) ) ;
#142 = CIRCLE ( 'NONE', #203, 0.5000000000000000000 ) ;
#143 = COLOUR_RGB ( '',1.000000000000000000, 0.000000000000000000, 0.000000000000000000 ) ;
#144 = CARTESIAN_POINT ( 'NONE',  ( 6.123233995736766036E-17, 0.000000000000000000, 0.5000000000000000000 ) ) ;
#145 = ADVANCED_FACE ( 'NONE', ( #216 ), #293, .T. ) ;
#146 = CARTESIAN_POINT ( 'NONE',  ( -0.5000000000000000000, 2.625000000000000000, 0.000000000000000000 ) ) ;
#147 =( NAMED_UNIT ( * ) SI_UNIT ( $, .STERADIAN. ) SOLID_ANGLE_UNIT ( ) );
#148 = DIRECTION ( 'NONE',  ( 0.000000000000000000, 0.000000000000000000, -1.000000000000000000 ) ) ;
#149 = UNCERTAINTY_MEASURE_WITH_UNIT (LENGTH_MEASURE( 1.000000000000000082E-05 ), #249, 'distance_accuracy_value', 'NONE');
#150 = ADVANCED_FACE ( 'NONE', ( #168 ), #218, .T. ) ;
#151 = FACE_OUTER_BOUND ( 'NONE', #208, .T. ) ;
#152 =( GEOMETRIC_REPRESENTATION_CONTEXT ( 3 ) GLOBAL_UNCERTAINTY_ASSIGNED_CONTEXT ( ( #149 ) ) GLOBAL_UNIT_ASSIGNED_CONTEXT ( ( #249, #180, #62 ) ) REPRESENTATION_CONTEXT ( 'NONE', 'WORKASPACE' ) );
#153 = SURFACE_STYLE_FILL_AREA ( #100 ) ;
#154 = PRESENTATION_STYLE_ASSIGNMENT (( #81 ) ) ;
#155 = EDGE_LOOP ( 'NONE', ( #282, #271, #138, #251 ) ) ;
#156 =( NAMED_UNIT ( * ) SI_UNIT ( $, .STERADIAN. ) SOLID_ANGLE_UNIT ( ) );
#157 = DIRECTION ( 'NONE',  ( -0.000000000000000000, -1.000000000000000000, -0.000000000000000000 ) ) ;
#158 = CARTESIAN_POINT ( 'NONE',  ( 0.000000000000000000, 2.625000000000000000, 0.000000000000000000 ) ) ;
#159 =( GEOMETRIC_REPRESENTATION_CONTEXT ( 3 ) GLOBAL_UNCERTAINTY_ASSIGNED_CONTEXT ( ( #82 ) ) GLOBAL_UNIT_ASSIGNED_CONTEXT ( ( #88, #211, #8 ) ) REPRESENTATION_CONTEXT ( 'NONE', 'WORKASPACE' ) );
#160 = ORIENTED_EDGE ( 'NONE', *, *, #44, .T. ) ;
#161 = STYLED_ITEM ( 'NONE', ( #25 ), #274 ) ;
#162 = VERTEX_POINT ( 'NONE', #57 ) ;
#163 = FILL_AREA_STYLE ('',( #281 ) ) ;
#164 = CARTESIAN_POINT ( 'NONE',  ( 0.5000000000000000000, 5.000000000000000000, 0.000000000000000000 ) ) ;
#165 = ORIENTED_EDGE ( 'NONE', *, *, #128, .T. ) ;
#166 = AXIS2_PLACEMENT_3D ( 'NONE', #40, #78, #192 ) ;
#167 = CARTESIAN_POINT ( 'NONE',  ( 0.000000000000000000, 0.000000000000000000, -0.5000000000000000000 ) ) ;
#168 = FACE_OUTER_BOUND ( 'NONE', #155, .T. ) ;
#169 = PRESENTATION_LAYER_ASSIGNMENT (  '', '', ( #45 ) ) ;
#170 = SURFACE_STYLE_FILL_AREA ( #291 ) ;
#171 = MANIFOLD_SOLID_BREP ( 'Revolve - Cutting Edge', #270 ) ;
#172 = CARTESIAN_POINT ( 'NONE',  ( 0.000000000000000000, 0.000000000000000000, 0.000000000000000000 ) ) ;
#173 = LENGTH_MEASURE_WITH_UNIT ( LENGTH_MEASURE( 0.02539999999999999897 ), #17 );
#174 = CIRCLE ( 'NONE', #219, 0.5000000000000003331 ) ;
#175 = FILL_AREA_STYLE_COLOUR ( '', #31 ) ;
#176 = VERTEX_POINT ( 'NONE', #250 ) ;
#177 =( NAMED_UNIT ( * ) PLANE_ANGLE_UNIT ( ) SI_UNIT ( $, .RADIAN. ) );
#178 = ORIENTED_EDGE ( 'NONE', *, *, #128, .F. ) ;
#179 = ADVANCED_BREP_SHAPE_REPRESENTATION ( '30737', ( #171, #274, #248 ), #269 ) ;
#180 =( NAMED_UNIT ( * ) PLANE_ANGLE_UNIT ( ) SI_UNIT ( $, .RADIAN. ) );
#181 =( GEOMETRIC_REPRESENTATION_CONTEXT ( 3 ) GLOBAL_UNCERTAINTY_ASSIGNED_CONTEXT ( ( #18 ) ) GLOBAL_UNIT_ASSIGNED_CONTEXT ( ( #295, #177, #71 ) ) REPRESENTATION_CONTEXT ( 'NONE', 'WORKASPACE' ) );
#182 = CARTESIAN_POINT ( 'NONE',  ( 0.5000000000000000000, 2.625000000000000000, 6.123233995736768501E-17 ) ) ;
#183 = DIRECTION ( 'NONE',  ( -0.000000000000000000, -1.000000000000000000, -0.000000000000000000 ) ) ;
#184 =( LENGTH_UNIT ( ) NAMED_UNIT ( * ) SI_UNIT ( $, .METRE. ) );
#185 = ORIENTED_EDGE ( 'NONE', *, *, #105, .T. ) ;
#186 = PLANE ( 'NONE',  #63 ) ;
#187 = EDGE_LOOP ( 'NONE', ( #227, #50 ) ) ;
#188 = PLANE ( 'NONE',  #206 ) ;
#189 = ADVANCED_FACE ( 'NONE', ( #151 ), #240, .T. ) ;
#190 = LENGTH_MEASURE_WITH_UNIT ( LENGTH_MEASURE( 0.02539999999999999897 ), #120 );
#191 = PRESENTATION_LAYER_ASSIGNMENT (  '', '', ( #11 ) ) ;
#192 = DIRECTION ( 'NONE',  ( 0.000000000000000000, 0.000000000000000000, -1.000000000000000000 ) ) ;
#193 = SURFACE_SIDE_STYLE ('',( #221 ) ) ;
#194 = LENGTH_MEASURE_WITH_UNIT ( LENGTH_MEASURE( 0.02539999999999999897 ), #56 );
#195 = ADVANCED_FACE ( 'NONE', ( #106 ), #80, .T. ) ;
#196 = AXIS2_PLACEMENT_3D ( 'NONE', #230, #72, #257 ) ;
#197 =( GEOMETRIC_REPRESENTATION_CONTEXT ( 3 ) GLOBAL_UNCERTAINTY_ASSIGNED_CONTEXT ( ( #33 ) ) GLOBAL_UNIT_ASSIGNED_CONTEXT ( ( #127, #225, #156 ) ) REPRESENTATION_CONTEXT ( 'NONE', 'WORKASPACE' ) );
#198 = PRESENTATION_STYLE_ASSIGNMENT (( #102 ) ) ;
#199 = MECHANICAL_DESIGN_GEOMETRIC_PRESENTATION_REPRESENTATION (  '', ( #11 ), #181 ) ;
#200 = ORIENTED_EDGE ( 'NONE', *, *, #273, .F. ) ;
#201 = DIRECTION ( 'NONE',  ( 0.000000000000000000, 0.000000000000000000, -1.000000000000000000 ) ) ;
#202 = PRODUCT_DEFINITION_FORMATION_WITH_SPECIFIED_SOURCE ( 'ANY', '', #61, .NOT_KNOWN. ) ;
#203 = AXIS2_PLACEMENT_3D ( 'NONE', #260, #52, #55 ) ;
#204 = STYLED_ITEM ( 'NONE', ( #98 ), #145 ) ;
#205 = CARTESIAN_POINT ( 'NONE',  ( 0.5000000000000000000, 5.000000000000000000, 6.123233995736768501E-17 ) ) ;
#206 = AXIS2_PLACEMENT_3D ( 'NONE', #239, #117, #1 ) ;
#207 = SURFACE_STYLE_FILL_AREA ( #163 ) ;
#208 = EDGE_LOOP ( 'NONE', ( #165, #278, #233, #70 ) ) ;
#209 = CARTESIAN_POINT ( 'NONE',  ( 0.000000000000000000, 2.625000000000000000, 0.000000000000000000 ) ) ;
#210 = DIRECTION ( 'NONE',  ( 1.000000000000000000, 1.546922272607182960E-16, 0.000000000000000000 ) ) ;
#211 =( NAMED_UNIT ( * ) PLANE_ANGLE_UNIT ( ) SI_UNIT ( $, .RADIAN. ) );
#212 = EDGE_LOOP ( 'NONE', ( #178, #126 ) ) ;
#213 = MECHANICAL_DESIGN_GEOMETRIC_PRESENTATION_REPRESENTATION (  '', ( #45 ), #197 ) ;
#214 = CARTESIAN_POINT ( 'NONE',  ( 6.123233995736766036E-17, 0.000000000000000000, 0.5000000000000000000 ) ) ;
#215 = APPLICATION_PROTOCOL_DEFINITION ( 'draft international standard', 'automotive_design', 1998, #272 ) ;
#216 = FACE_OUTER_BOUND ( 'NONE', #187, .T. ) ;
#217 = UNCERTAINTY_MEASURE_WITH_UNIT (LENGTH_MEASURE( 1.000000000000000082E-05 ), #289, 'distance_accuracy_value', 'NONE');
#218 = CYLINDRICAL_SURFACE ( 'NONE', #68, 0.5000000000000000000 ) ;
#219 = AXIS2_PLACEMENT_3D ( 'NONE', #114, #69, #30 ) ;
#220 = FILL_AREA_STYLE ('',( #36 ) ) ;
#221 = SURFACE_STYLE_FILL_AREA ( #122 ) ;
#222 = AXIS2_PLACEMENT_3D ( 'NONE', #303, #137, #308 ) ;
#223 = FILL_AREA_STYLE_COLOUR ( '', #143 ) ;
#224 = VERTEX_POINT ( 'NONE', #107 ) ;
#225 =( NAMED_UNIT ( * ) PLANE_ANGLE_UNIT ( ) SI_UNIT ( $, .RADIAN. ) );
#226 = AXIS2_PLACEMENT_3D ( 'NONE', #172, #263, #118 ) ;
#227 = ORIENTED_EDGE ( 'NONE', *, *, #119, .T. ) ;
#228 = SURFACE_STYLE_USAGE ( .BOTH. , #294 ) ;
#229 = DIRECTION ( 'NONE',  ( -1.546922272607182960E-16, 1.000000000000000000, -0.000000000000000000 ) ) ;
#230 = CARTESIAN_POINT ( 'NONE',  ( -3.673940397442059375E-16, 5.000000000000000000, 0.000000000000000000 ) ) ;
#231 = DIMENSIONAL_EXPONENTS ( 1.000000000000000000, 0.000000000000000000, 0.000000000000000000, 0.000000000000000000, 0.000000000000000000, 0.000000000000000000, 0.000000000000000000 ) ;
#232 = ORIENTED_EDGE ( 'NONE', *, *, #93, .T. ) ;
#233 = ORIENTED_EDGE ( 'NONE', *, *, #119, .F. ) ;
#234 = CIRCLE ( 'NONE', #275, 0.5000000000000003331 ) ;
#235 = CIRCLE ( 'NONE', #99, 0.5000000000000000000 ) ;
#236 = FILL_AREA_STYLE_COLOUR ( '', #297 ) ;
#237 = DIMENSIONAL_EXPONENTS ( 1.000000000000000000, 0.000000000000000000, 0.000000000000000000, 0.000000000000000000, 0.000000000000000000, 0.000000000000000000, 0.000000000000000000 ) ;
#238 = DIRECTION ( 'NONE',  ( 0.000000000000000000, 0.000000000000000000, 1.000000000000000000 ) ) ;
#239 = CARTESIAN_POINT ( 'NONE',  ( 5.982421293720428680E-33, 2.625000000000000000, 0.000000000000000000 ) ) ;
#240 = CYLINDRICAL_SURFACE ( 'NONE', #276, 0.5000000000000000000 ) ;
#241 = COLOUR_RGB ( '',0.7921568627450980005, 0.8196078431372548767, 0.9333333333333333481 ) ;
#242 =( CONVERSION_BASED_UNIT ( 'INCH', #54 ) LENGTH_UNIT ( ) NAMED_UNIT ( #231 ) );
#243 = EDGE_CURVE ( 'NONE', #224, #176, #135, .T. ) ;
#244 = PRODUCT_DEFINITION_CONTEXT ( 'detailed design', #272, 'design' ) ;
#245 =( NAMED_UNIT ( * ) SI_UNIT ( $, .STERADIAN. ) SOLID_ANGLE_UNIT ( ) );
#246 =( LENGTH_UNIT ( ) NAMED_UNIT ( * ) SI_UNIT ( $, .METRE. ) );
#247 = COLOUR_RGB ( '',0.7921568627450980005, 0.8196078431372548767, 0.9333333333333333481 ) ;
#248 = AXIS2_PLACEMENT_3D ( 'NONE', #123, #238, #290 ) ;
#249 =( CONVERSION_BASED_UNIT ( 'INCH', #252 ) LENGTH_UNIT ( ) NAMED_UNIT ( #65 ) );
#250 = CARTESIAN_POINT ( 'NONE',  ( 0.000000000000000000, 2.625000000000000000, -0.5000000000000000000 ) ) ;
#251 = ORIENTED_EDGE ( 'NONE', *, *, #85, .F. ) ;
#252 = LENGTH_MEASURE_WITH_UNIT ( LENGTH_MEASURE( 0.02539999999999999897 ), #83 );
#253 = EDGE_CURVE ( 'NONE', #176, #277, #27, .T. ) ;
#254 = LINE ( 'NONE', #132, #256 ) ;
#255 = LINE ( 'NONE', #301, #77 ) ;
#256 = VECTOR ( 'NONE', #139, 39.37007874015748143 ) ;
#257 = DIRECTION ( 'NONE',  ( -1.000000000000000000, 0.000000000000000000, 0.000000000000000000 ) ) ;
#258 = DIRECTION ( 'NONE',  ( -0.000000000000000000, -1.000000000000000000, -0.000000000000000000 ) ) ;
#259 = DIRECTION ( 'NONE',  ( -0.000000000000000000, -1.000000000000000000, -0.000000000000000000 ) ) ;
#260 = CARTESIAN_POINT ( 'NONE',  ( 0.000000000000000000, 2.625000000000000000, 0.000000000000000000 ) ) ;
#261 = CYLINDRICAL_SURFACE ( 'NONE', #196, 0.5000000000000001110 ) ;
#262 = CIRCLE ( 'NONE', #53, 0.5000000000000000000 ) ;
#263 = DIRECTION ( 'NONE',  ( 0.000000000000000000, -1.000000000000000000, -0.000000000000000000 ) ) ;
#264 = APPLICATION_PROTOCOL_DEFINITION ( 'draft international standard', 'automotive_design', 1998, #38 ) ;
#265 = SURFACE_SIDE_STYLE ('',( #6 ) ) ;
#266 = MECHANICAL_DESIGN_GEOMETRIC_PRESENTATION_REPRESENTATION (  '', ( #10 ), #287 ) ;
#267 = SURFACE_STYLE_USAGE ( .BOTH. , #95 ) ;
#268 = EDGE_CURVE ( 'NONE', #92, #162, #174, .T. ) ;
#269 =( GEOMETRIC_REPRESENTATION_CONTEXT ( 3 ) GLOBAL_UNCERTAINTY_ASSIGNED_CONTEXT ( ( #300 ) ) GLOBAL_UNIT_ASSIGNED_CONTEXT ( ( #242, #121, #34 ) ) REPRESENTATION_CONTEXT ( 'NONE', 'WORKASPACE' ) );
#270 = CLOSED_SHELL ( 'NONE', ( #189, #195, #150, #145 ) ) ;
#271 = ORIENTED_EDGE ( 'NONE', *, *, #243, .T. ) ;
#272 = APPLICATION_CONTEXT ( 'automotive_design' ) ;
#273 = EDGE_CURVE ( 'NONE', #307, #162, #254, .T. ) ;
#274 = MANIFOLD_SOLID_BREP ( 'Revolve - Tool Body (Straight Shanked)', #29 ) ;
#275 = AXIS2_PLACEMENT_3D ( 'NONE', #283, #26, #113 ) ;
#276 = AXIS2_PLACEMENT_3D ( 'NONE', #12, #13, #201 ) ;
#277 = VERTEX_POINT ( 'NONE', #167 ) ;
#278 = ORIENTED_EDGE ( 'NONE', *, *, #67, .T. ) ;
#279 = CIRCLE ( 'NONE', #166, 0.5000000000000000000 ) ;
#280 = ORIENTED_EDGE ( 'NONE', *, *, #44, .F. ) ;
#281 = FILL_AREA_STYLE_COLOUR ( '', #241 ) ;
#282 = ORIENTED_EDGE ( 'NONE', *, *, #67, .F. ) ;
#283 = CARTESIAN_POINT ( 'NONE',  ( -3.673940397442059375E-16, 5.000000000000000000, 0.000000000000000000 ) ) ;
#284 = SHAPE_DEFINITION_REPRESENTATION ( #20, #179 ) ;
#285 = ADVANCED_FACE ( 'NONE', ( #91 ), #188, .F. ) ;
#286 =( NAMED_UNIT ( * ) PLANE_ANGLE_UNIT ( ) SI_UNIT ( $, .RADIAN. ) );
#287 =( GEOMETRIC_REPRESENTATION_CONTEXT ( 3 ) GLOBAL_UNCERTAINTY_ASSIGNED_CONTEXT ( ( #129 ) ) GLOBAL_UNIT_ASSIGNED_CONTEXT ( ( #60, #286, #147 ) ) REPRESENTATION_CONTEXT ( 'NONE', 'WORKASPACE' ) );
#288 = FILL_AREA_STYLE_COLOUR ( '', #75 ) ;
#289 =( CONVERSION_BASED_UNIT ( 'INCH', #194 ) LENGTH_UNIT ( ) NAMED_UNIT ( #302 ) );
#290 = DIRECTION ( 'NONE',  ( 1.000000000000000000, 0.000000000000000000, 0.000000000000000000 ) ) ;
#291 = FILL_AREA_STYLE ('',( #236 ) ) ;
#292 = STYLED_ITEM ( 'NONE', ( #154 ), #171 ) ;
#293 = PLANE ( 'NONE',  #226 ) ;
#294 = SURFACE_SIDE_STYLE ('',( #131 ) ) ;
#295 =( CONVERSION_BASED_UNIT ( 'INCH', #101 ) LENGTH_UNIT ( ) NAMED_UNIT ( #237 ) );
#296 = MECHANICAL_DESIGN_GEOMETRIC_PRESENTATION_REPRESENTATION (  '', ( #161 ), #159 ) ;
#297 = COLOUR_RGB ( '',1.000000000000000000, 0.000000000000000000, 0.000000000000000000 ) ;
#298 = ORIENTED_EDGE ( 'NONE', *, *, #105, .F. ) ;
#299 = SURFACE_SIDE_STYLE ('',( #153 ) ) ;
#300 = UNCERTAINTY_MEASURE_WITH_UNIT (LENGTH_MEASURE( 1.000000000000000082E-05 ), #242, 'distance_accuracy_value', 'NONE');
#301 = CARTESIAN_POINT ( 'NONE',  ( 0.4999999999999997780, 5.000000000000000000, 6.123233995736767268E-17 ) ) ;
#302 = DIMENSIONAL_EXPONENTS ( 1.000000000000000000, 0.000000000000000000, 0.000000000000000000, 0.000000000000000000, 0.000000000000000000, 0.000000000000000000, 0.000000000000000000 ) ;
#303 = CARTESIAN_POINT ( 'NONE',  ( 0.000000000000000000, 2.625000000000000000, 0.000000000000000000 ) ) ;
#304 = CARTESIAN_POINT ( 'NONE',  ( 0.000000000000000000, 0.000000000000000000, 0.000000000000000000 ) ) ;
#305 = LINE ( 'NONE', #144, #74 ) ;
#306 = DIMENSIONAL_EXPONENTS ( 1.000000000000000000, 0.000000000000000000, 0.000000000000000000, 0.000000000000000000, 0.000000000000000000, 0.000000000000000000, 0.000000000000000000 ) ;
#307 = VERTEX_POINT ( 'NONE', #146 ) ;
#308 = DIRECTION ( 'NONE',  ( 0.000000000000000000, -0.000000000000000000, 1.000000000000000000 ) ) ;
#309 = DIRECTION ( 'NONE',  ( -1.546922272607182960E-16, 1.000000000000000000, -0.000000000000000000 ) ) ;
ENDSEC;
END-ISO-10303-21;
