ISO-10303-21;
HEADER;
FILE_DESCRIPTION (( 'STEP AP214' ),
    '1' );
FILE_NAME ('Micro_SFAM-100050.STEP',
    '2021-09-02T04:24:31',
    ( '' ),
    ( '' ),
    'SwSTEP 2.0',
    'SolidWorks 2020',
    '' );
FILE_SCHEMA (( 'AUTOMOTIVE_DESIGN' ));
ENDSEC;

DATA;
#1 = DIRECTION ( 'NONE',  ( -1.224646799147353207E-16, -0.0000000000000000000, -1.000000000000000000 ) ) ;
#2 = FILL_AREA_STYLE_COLOUR ( '', #45 ) ;
#3 = ORIENTED_EDGE ( 'NONE', *, *, #274, .F. ) ;
#4 = ORIENTED_EDGE ( 'NONE', *, *, #22, .F. ) ;
#5 = VERTEX_POINT ( 'NONE', #243 ) ;
#6 = EDGE_LOOP ( 'NONE', ( #188, #259, #235, #77 ) ) ;
#7 = CARTESIAN_POINT ( 'NONE',  ( 0.0000000000000000000, 0.0000000000000000000, 0.0000000000000000000 ) ) ;
#8 = EDGE_CURVE ( 'NONE', #167, #144, #98, .T. ) ;
#9 = DIRECTION ( 'NONE',  ( -1.224646799147353207E-16, -0.0000000000000000000, -1.000000000000000000 ) ) ;
#10 = FACE_OUTER_BOUND ( 'NONE', #215, .T. ) ;
#11 = UNCERTAINTY_MEASURE_WITH_UNIT (LENGTH_MEASURE( 1.000000000000000082E-05 ), #123, 'distance_accuracy_value', 'NONE');
#12 = EDGE_CURVE ( 'NONE', #171, #34, #211, .T. ) ;
#13 = CARTESIAN_POINT ( 'NONE',  ( 0.1966536495000002216, 0.0000000000000000000, 1.377952999999999983 ) ) ;
#14 = CARTESIAN_POINT ( 'NONE',  ( 0.1968504999999999838, 2.410723347355560646E-17, 3.528306999999998528 ) ) ;
#15 = VECTOR ( 'NONE', #231, 39.37007874015748854 ) ;
#16 = LINE ( 'NONE', #88, #20 ) ;
#17 = DIRECTION ( 'NONE',  ( -1.224646799147353207E-16, -0.0000000000000000000, -1.000000000000000000 ) ) ;
#18 = FACE_OUTER_BOUND ( 'NONE', #79, .T. ) ;
#19 = DIRECTION ( 'NONE',  ( -0.0000000000000000000, -0.0000000000000000000, -1.000000000000000000 ) ) ;
#20 = VECTOR ( 'NONE', #130, 39.37007874015748143 ) ;
#21 = CARTESIAN_POINT ( 'NONE',  ( -0.1968504999999998173, 0.0000000000000000000, 1.379069394661832204 ) ) ;
#22 = EDGE_CURVE ( 'NONE', #255, #28, #242, .T. ) ;
#23 = CONICAL_SURFACE ( 'NONE', #141, 0.1966536495000000273, 0.1745329251994339748 ) ;
#24 = CARTESIAN_POINT ( 'NONE',  ( -0.1966536494999998608, 2.408312624008205478E-17, 1.377952999999999983 ) ) ;
#25 = ORIENTED_EDGE ( 'NONE', *, *, #12, .F. ) ;
#26 = ADVANCED_FACE ( 'NONE', ( #106 ), #241, .T. ) ;
#27 = DIRECTION ( 'NONE',  ( 0.0000000000000000000, 0.0000000000000000000, 1.000000000000000000 ) ) ;
#28 = VERTEX_POINT ( 'NONE', #102 ) ;
#29 = ORIENTED_EDGE ( 'NONE', *, *, #73, .T. ) ;
#30 = AXIS2_PLACEMENT_3D ( 'NONE', #247, #37, #193 ) ;
#31 = PRESENTATION_LAYER_ASSIGNMENT (  '', '', ( #103 ) ) ;
#32 = APPLICATION_PROTOCOL_DEFINITION ( 'draft international standard', 'automotive_design', 1998, #139 ) ;
#33 = VERTEX_POINT ( 'NONE', #108 ) ;
#34 = VERTEX_POINT ( 'NONE', #13 ) ;
#35 = CARTESIAN_POINT ( 'NONE',  ( -0.1818504999999983329, 0.0000000000000000000, 3.543306999999999984 ) ) ;
#36 = AXIS2_PLACEMENT_3D ( 'NONE', #174, #154, #192 ) ;
#37 = DIRECTION ( 'NONE',  ( -1.224646799147353207E-16, -0.0000000000000000000, -1.000000000000000000 ) ) ;
#38 = DIRECTION ( 'NONE',  ( -1.224646799147353207E-16, -0.0000000000000000000, -1.000000000000000000 ) ) ;
#39 = DIRECTION ( 'NONE',  ( 0.0000000000000000000, 0.0000000000000000000, -1.000000000000000000 ) ) ;
#40 = APPLICATION_CONTEXT ( 'automotive_design' ) ;
#41 = CONICAL_SURFACE ( 'NONE', #90, 0.1818504999999983329, 0.7853981633974586041 ) ;
#42 = CARTESIAN_POINT ( 'NONE',  ( 0.1968504999999999838, 2.410723347355560646E-17, 3.543306999999999984 ) ) ;
#43 = FILL_AREA_STYLE ('',( #268 ) ) ;
#44 = CARTESIAN_POINT ( 'NONE',  ( 0.1966536495000002216, 0.0000000000000000000, 1.377952999999999983 ) ) ;
#45 = COLOUR_RGB ( '',0.7921568627450980005, 0.8196078431372548767, 0.9333333333333333481 ) ;
#46 = PRESENTATION_STYLE_ASSIGNMENT (( #157 ) ) ;
#47 = CLOSED_SHELL ( 'NONE', ( #26, #236, #105, #213, #78, #278, #189, #290, #54, #271 ) ) ;
#48 = AXIS2_PLACEMENT_3D ( 'NONE', #195, #292, #260 ) ;
#49 = ORIENTED_EDGE ( 'NONE', *, *, #22, .T. ) ;
#50 = EDGE_LOOP ( 'NONE', ( #25, #240, #165, #3 ) ) ;
#51 =( CONVERSION_BASED_UNIT ( 'INCH', #280 ) LENGTH_UNIT ( ) NAMED_UNIT ( #104 ) );
#52 = ORIENTED_EDGE ( 'NONE', *, *, #129, .T. ) ;
#53 = PRODUCT ( 'Micro_SFAM-100050', 'Micro_SFAM-100050', '', ( #126 ) ) ;
#54 = ADVANCED_FACE ( 'NONE', ( #10 ), #287, .T. ) ;
#55 = ORIENTED_EDGE ( 'NONE', *, *, #87, .F. ) ;
#56 = CIRCLE ( 'NONE', #239, 0.1968504999999999838 ) ;
#57 = ORIENTED_EDGE ( 'NONE', *, *, #160, .F. ) ;
#58 = CARTESIAN_POINT ( 'NONE',  ( -0.1966536494999998608, 2.409517985681882908E-17, 1.377952999999999983 ) ) ;
#59 = CARTESIAN_POINT ( 'NONE',  ( 0.0000000000000000000, 0.0000000000000000000, 3.543306999999999984 ) ) ;
#60 = CIRCLE ( 'NONE', #223, 0.1966536494999999996 ) ;
#61 = DIRECTION ( 'NONE',  ( 0.0000000000000000000, 0.0000000000000000000, -1.000000000000000000 ) ) ;
#62 = DIRECTION ( 'NONE',  ( 1.000000000000000000, 0.0000000000000000000, 0.0000000000000000000 ) ) ;
#63 = DIRECTION ( 'NONE',  ( -1.000000000000000000, 0.0000000000000000000, 0.0000000000000000000 ) ) ;
#64 = VECTOR ( 'NONE', #148, 39.37007874015748143 ) ;
#65 = AXIS2_PLACEMENT_3D ( 'NONE', #7, #27, #256 ) ;
#66 = SURFACE_STYLE_FILL_AREA ( #43 ) ;
#67 = FACE_OUTER_BOUND ( 'NONE', #276, .T. ) ;
#68 = PRODUCT_DEFINITION ( 'UNKNOWN', '', #143, #94 ) ;
#69 = LINE ( 'NONE', #113, #15 ) ;
#70 = CARTESIAN_POINT ( 'NONE',  ( 1.688872919974690912E-16, 0.0000000000000000000, 1.379069394661832204 ) ) ;
#71 = STYLED_ITEM ( 'NONE', ( #46 ), #294 ) ;
#72 = DIRECTION ( 'NONE',  ( -1.000000000000000000, 0.0000000000000000000, 0.0000000000000000000 ) ) ;
#73 = EDGE_CURVE ( 'NONE', #171, #74, #244, .T. ) ;
#74 = VERTEX_POINT ( 'NONE', #155 ) ;
#75 = LENGTH_MEASURE_WITH_UNIT ( LENGTH_MEASURE( 0.02539999999999999897 ), #95 );
#76 = COLOUR_RGB ( '',0.7921568627450980005, 0.8196078431372548767, 0.9333333333333333481 ) ;
#77 = ORIENTED_EDGE ( 'NONE', *, *, #73, .F. ) ;
#78 = ADVANCED_FACE ( 'NONE', ( #246 ), #107, .T. ) ;
#79 = EDGE_LOOP ( 'NONE', ( #119, #283 ) ) ;
#80 = ORIENTED_EDGE ( 'NONE', *, *, #132, .T. ) ;
#81 = AXIS2_PLACEMENT_3D ( 'NONE', #197, #178, #63 ) ;
#82 = CARTESIAN_POINT ( 'NONE',  ( 0.0000000000000000000, 0.0000000000000000000, 3.528306999999998528 ) ) ;
#83 = DIRECTION ( 'NONE',  ( 1.000000000000000000, 0.0000000000000000000, 0.0000000000000000000 ) ) ;
#84 = CARTESIAN_POINT ( 'NONE',  ( 0.0000000000000000000, 0.0000000000000000000, 3.543306999999999984 ) ) ;
#85 = AXIS2_PLACEMENT_3D ( 'NONE', #262, #156, #86 ) ;
#86 = DIRECTION ( 'NONE',  ( 1.000000000000000000, 0.0000000000000000000, 0.0000000000000000000 ) ) ;
#87 = EDGE_CURVE ( 'NONE', #144, #167, #201, .T. ) ;
#88 = CARTESIAN_POINT ( 'NONE',  ( -0.1968504999999999838, 0.0000000000000000000, 3.543306999999999984 ) ) ;
#89 = DIRECTION ( 'NONE',  ( 1.224646799147353207E-16, 0.0000000000000000000, 1.000000000000000000 ) ) ;
#90 = AXIS2_PLACEMENT_3D ( 'NONE', #84, #266, #176 ) ;
#91 =( GEOMETRIC_REPRESENTATION_CONTEXT ( 3 ) GLOBAL_UNCERTAINTY_ASSIGNED_CONTEXT ( ( #11 ) ) GLOBAL_UNIT_ASSIGNED_CONTEXT ( ( #123, #168, #100 ) ) REPRESENTATION_CONTEXT ( 'NONE', 'WORKASPACE' ) );
#92 = DIRECTION ( 'NONE',  ( 0.1736481776669314692, 0.0000000000000000000, 0.9848077530122077983 ) ) ;
#93 =( LENGTH_UNIT ( ) NAMED_UNIT ( * ) SI_UNIT ( $, .METRE. ) );
#94 = PRODUCT_DEFINITION_CONTEXT ( 'detailed design', #40, 'design' ) ;
#95 =( LENGTH_UNIT ( ) NAMED_UNIT ( * ) SI_UNIT ( $, .METRE. ) );
#96 = ORIENTED_EDGE ( 'NONE', *, *, #175, .T. ) ;
#97 = PRESENTATION_STYLE_ASSIGNMENT (( #282 ) ) ;
#98 = CIRCLE ( 'NONE', #267, 0.1968504999999999838 ) ;
#99 = CONICAL_SURFACE ( 'NONE', #81, 0.1818504999999983329, 0.7853981633974586041 ) ;
#100 =( NAMED_UNIT ( * ) SI_UNIT ( $, .STERADIAN. ) SOLID_ANGLE_UNIT ( ) );
#101 = ORIENTED_EDGE ( 'NONE', *, *, #132, .F. ) ;
#102 = CARTESIAN_POINT ( 'NONE',  ( 0.1818504999999983329, 2.318874837419498881E-17, 3.543306999999999984 ) ) ;
#103 = STYLED_ITEM ( 'NONE', ( #97 ), #227 ) ;
#104 = DIMENSIONAL_EXPONENTS ( 1.000000000000000000, 0.0000000000000000000, 0.0000000000000000000, 0.0000000000000000000, 0.0000000000000000000, 0.0000000000000000000, 0.0000000000000000000 ) ;
#105 = ADVANCED_FACE ( 'NONE', ( #133 ), #41, .T. ) ;
#106 = FACE_OUTER_BOUND ( 'NONE', #6, .T. ) ;
#107 = CYLINDRICAL_SURFACE ( 'NONE', #206, 0.1968504999999999838 ) ;
#108 = CARTESIAN_POINT ( 'NONE',  ( 0.1966536494999999996, 2.408312624008205170E-17, 3.791200677927629740E-33 ) ) ;
#109 = AXIS2_PLACEMENT_3D ( 'NONE', #112, #226, #159 ) ;
#110 = FACE_OUTER_BOUND ( 'NONE', #281, .T. ) ;
#111 = FACE_OUTER_BOUND ( 'NONE', #127, .T. ) ;
#112 = CARTESIAN_POINT ( 'NONE',  ( 1.687505730825492758E-16, 0.0000000000000000000, 1.377952999999999983 ) ) ;
#113 = CARTESIAN_POINT ( 'NONE',  ( 0.1818504999999983329, 2.227026327483437117E-17, 3.543306999999999984 ) ) ;
#114 = CARTESIAN_POINT ( 'NONE',  ( 2.949332346337811403E-33, 0.0000000000000000000, 2.408312624008205170E-17 ) ) ;
#115 =( NAMED_UNIT ( * ) SI_UNIT ( $, .STERADIAN. ) SOLID_ANGLE_UNIT ( ) );
#116 = LINE ( 'NONE', #24, #64 ) ;
#117 = CONICAL_SURFACE ( 'NONE', #109, 0.1966536495000000273, 0.1745329251994339748 ) ;
#118 =( NAMED_UNIT ( * ) PLANE_ANGLE_UNIT ( ) SI_UNIT ( $, .RADIAN. ) );
#119 = ORIENTED_EDGE ( 'NONE', *, *, #153, .T. ) ;
#120 = EDGE_CURVE ( 'NONE', #28, #255, #269, .T. ) ;
#121 = SURFACE_SIDE_STYLE ('',( #166 ) ) ;
#122 = ORIENTED_EDGE ( 'NONE', *, *, #8, .T. ) ;
#123 =( CONVERSION_BASED_UNIT ( 'INCH', #75 ) LENGTH_UNIT ( ) NAMED_UNIT ( #265 ) );
#124 = VECTOR ( 'NONE', #205, 39.37007874015748143 ) ;
#125 = ORIENTED_EDGE ( 'NONE', *, *, #228, .F. ) ;
#126 = PRODUCT_CONTEXT ( 'NONE', #139, 'mechanical' ) ;
#127 = EDGE_LOOP ( 'NONE', ( #49, #145 ) ) ;
#128 = DIRECTION ( 'NONE',  ( -1.000000000000000000, 0.0000000000000000000, 0.0000000000000000000 ) ) ;
#129 = EDGE_CURVE ( 'NONE', #5, #207, #253, .T. ) ;
#130 = DIRECTION ( 'NONE',  ( -0.0000000000000000000, -0.0000000000000000000, -1.000000000000000000 ) ) ;
#131 = CARTESIAN_POINT ( 'NONE',  ( 0.0000000000000000000, 0.0000000000000000000, 3.543306999999999984 ) ) ;
#132 = EDGE_CURVE ( 'NONE', #255, #167, #221, .T. ) ;
#133 = FACE_OUTER_BOUND ( 'NONE', #284, .T. ) ;
#134 = DIRECTION ( 'NONE',  ( -1.000000000000000000, 0.0000000000000000000, 1.224646799147353207E-16 ) ) ;
#135 =( GEOMETRIC_REPRESENTATION_CONTEXT ( 3 ) GLOBAL_UNCERTAINTY_ASSIGNED_CONTEXT ( ( #204 ) ) GLOBAL_UNIT_ASSIGNED_CONTEXT ( ( #138, #140, #115 ) ) REPRESENTATION_CONTEXT ( 'NONE', 'WORKASPACE' ) );
#136 = CYLINDRICAL_SURFACE ( 'NONE', #164, 0.1968504999999999838 ) ;
#137 = DIRECTION ( 'NONE',  ( 1.000000000000000000, 0.0000000000000000000, -0.0000000000000000000 ) ) ;
#138 =( CONVERSION_BASED_UNIT ( 'INCH', #181 ) LENGTH_UNIT ( ) NAMED_UNIT ( #220 ) );
#139 = APPLICATION_CONTEXT ( 'automotive_design' ) ;
#140 =( NAMED_UNIT ( * ) PLANE_ANGLE_UNIT ( ) SI_UNIT ( $, .RADIAN. ) );
#141 = AXIS2_PLACEMENT_3D ( 'NONE', #248, #89, #179 ) ;
#142 = VECTOR ( 'NONE', #177, 39.37007874015748854 ) ;
#143 = PRODUCT_DEFINITION_FORMATION_WITH_SPECIFIED_SOURCE ( 'ANY', '', #53, .NOT_KNOWN. ) ;
#144 = VERTEX_POINT ( 'NONE', #14 ) ;
#145 = ORIENTED_EDGE ( 'NONE', *, *, #120, .T. ) ;
#146 =( LENGTH_UNIT ( ) NAMED_UNIT ( * ) SI_UNIT ( $, .METRE. ) );
#147 = ORIENTED_EDGE ( 'NONE', *, *, #203, .F. ) ;
#148 = DIRECTION ( 'NONE',  ( -0.1736481776669312471, 2.126576849575783933E-17, 0.9848077530122077983 ) ) ;
#149 = ORIENTED_EDGE ( 'NONE', *, *, #263, .F. ) ;
#150 = DIRECTION ( 'NONE',  ( 0.0000000000000000000, 0.0000000000000000000, 1.000000000000000000 ) ) ;
#151 = DIRECTION ( 'NONE',  ( 1.000000000000000000, 0.0000000000000000000, 0.0000000000000000000 ) ) ;
#152 = CIRCLE ( 'NONE', #48, 0.1966536495000000273 ) ;
#153 = EDGE_CURVE ( 'NONE', #74, #33, #250, .T. ) ;
#154 = DIRECTION ( 'NONE',  ( -1.224646799147353207E-16, -0.0000000000000000000, -1.000000000000000000 ) ) ;
#155 = CARTESIAN_POINT ( 'NONE',  ( -0.1966536494999999996, 0.0000000000000000000, 4.816625248016410340E-17 ) ) ;
#156 = DIRECTION ( 'NONE',  ( -1.224646799147353207E-16, -0.0000000000000000000, -1.000000000000000000 ) ) ;
#157 = SURFACE_STYLE_USAGE ( .BOTH. , #299 ) ;
#158 = CARTESIAN_POINT ( 'NONE',  ( 0.0000000000000000000, 0.0000000000000000000, 0.0000000000000000000 ) ) ;
#159 = DIRECTION ( 'NONE',  ( 1.000000000000000000, 0.0000000000000000000, 0.0000000000000000000 ) ) ;
#160 = EDGE_CURVE ( 'NONE', #34, #171, #152, .T. ) ;
#161 = DIRECTION ( 'NONE',  ( -0.0000000000000000000, -0.0000000000000000000, -1.000000000000000000 ) ) ;
#162 = CARTESIAN_POINT ( 'NONE',  ( 0.1966536495000000273, 2.408312624008205478E-17, -2.408312624008205478E-17 ) ) ;
#163 = ORIENTED_EDGE ( 'NONE', *, *, #160, .T. ) ;
#164 = AXIS2_PLACEMENT_3D ( 'NONE', #272, #19, #72 ) ;
#165 = ORIENTED_EDGE ( 'NONE', *, *, #245, .T. ) ;
#166 = SURFACE_STYLE_FILL_AREA ( #190 ) ;
#167 = VERTEX_POINT ( 'NONE', #222 ) ;
#168 =( NAMED_UNIT ( * ) PLANE_ANGLE_UNIT ( ) SI_UNIT ( $, .RADIAN. ) );
#169 = ORIENTED_EDGE ( 'NONE', *, *, #224, .F. ) ;
#170 = AXIS2_PLACEMENT_3D ( 'NONE', #59, #150, #83 ) ;
#171 = VERTEX_POINT ( 'NONE', #58 ) ;
#172 = DIRECTION ( 'NONE',  ( -1.000000000000000000, 0.0000000000000000000, 0.0000000000000000000 ) ) ;
#173 = UNCERTAINTY_MEASURE_WITH_UNIT (LENGTH_MEASURE( 1.000000000000000082E-05 ), #51, 'distance_accuracy_value', 'NONE');
#174 = CARTESIAN_POINT ( 'NONE',  ( 0.0000000000000000000, 0.0000000000000000000, 0.0000000000000000000 ) ) ;
#175 = EDGE_CURVE ( 'NONE', #167, #207, #16, .T. ) ;
#176 = DIRECTION ( 'NONE',  ( -1.000000000000000000, 0.0000000000000000000, 0.0000000000000000000 ) ) ;
#177 = DIRECTION ( 'NONE',  ( -0.7071067811865547892, 0.0000000000000000000, -0.7071067811865402453 ) ) ;
#178 = DIRECTION ( 'NONE',  ( 0.0000000000000000000, 0.0000000000000000000, -1.000000000000000000 ) ) ;
#179 = DIRECTION ( 'NONE',  ( 1.000000000000000000, 0.0000000000000000000, 0.0000000000000000000 ) ) ;
#180 = LINE ( 'NONE', #42, #291 ) ;
#181 = LENGTH_MEASURE_WITH_UNIT ( LENGTH_MEASURE( 0.02539999999999999897 ), #93 );
#182 = DIRECTION ( 'NONE',  ( 0.0000000000000000000, 0.0000000000000000000, 1.000000000000000000 ) ) ;
#183 = AXIS2_PLACEMENT_3D ( 'NONE', #131, #286, #194 ) ;
#184 = LINE ( 'NONE', #44, #196 ) ;
#185 = ORIENTED_EDGE ( 'NONE', *, *, #245, .F. ) ;
#186 = ORIENTED_EDGE ( 'NONE', *, *, #296, .F. ) ;
#187 = AXIS2_PLACEMENT_3D ( 'NONE', #216, #264, #134 ) ;
#188 = ORIENTED_EDGE ( 'NONE', *, *, #12, .T. ) ;
#189 = ADVANCED_FACE ( 'NONE', ( #110 ), #99, .T. ) ;
#190 = FILL_AREA_STYLE ('',( #2 ) ) ;
#191 = ORIENTED_EDGE ( 'NONE', *, *, #129, .F. ) ;
#192 = DIRECTION ( 'NONE',  ( -1.000000000000000000, 0.0000000000000000000, 1.224646799147353207E-16 ) ) ;
#193 = DIRECTION ( 'NONE',  ( -1.000000000000000000, 0.0000000000000000000, 1.224646799147353207E-16 ) ) ;
#194 = DIRECTION ( 'NONE',  ( 1.000000000000000000, 0.0000000000000000000, 0.0000000000000000000 ) ) ;
#195 = CARTESIAN_POINT ( 'NONE',  ( 1.687505730825492758E-16, 0.0000000000000000000, 1.377952999999999983 ) ) ;
#196 = VECTOR ( 'NONE', #92, 39.37007874015748143 ) ;
#197 = CARTESIAN_POINT ( 'NONE',  ( 0.0000000000000000000, 0.0000000000000000000, 3.543306999999999984 ) ) ;
#198 = PRODUCT_RELATED_PRODUCT_CATEGORY ( 'part', '', ( #53 ) ) ;
#199 = DIRECTION ( 'NONE',  ( -1.000000000000000000, 0.0000000000000000000, 1.224646799147353207E-16 ) ) ;
#200 = DIRECTION ( 'NONE',  ( 1.000000000000000000, 0.0000000000000000000, 0.0000000000000000000 ) ) ;
#201 = CIRCLE ( 'NONE', #279, 0.1968504999999999838 ) ;
#202 = FACE_OUTER_BOUND ( 'NONE', #50, .T. ) ;
#203 = EDGE_CURVE ( 'NONE', #34, #33, #229, .T. ) ;
#204 = UNCERTAINTY_MEASURE_WITH_UNIT (LENGTH_MEASURE( 1.000000000000000082E-05 ), #138, 'distance_accuracy_value', 'NONE');
#205 = DIRECTION ( 'NONE',  ( -1.224646799147353207E-16, -0.0000000000000000000, -1.000000000000000000 ) ) ;
#206 = AXIS2_PLACEMENT_3D ( 'NONE', #289, #261, #128 ) ;
#207 = VERTEX_POINT ( 'NONE', #21 ) ;
#208 = ORIENTED_EDGE ( 'NONE', *, *, #87, .T. ) ;
#209 = APPLICATION_PROTOCOL_DEFINITION ( 'draft international standard', 'automotive_design', 1998, #40 ) ;
#210 = ORIENTED_EDGE ( 'NONE', *, *, #274, .T. ) ;
#211 = CIRCLE ( 'NONE', #298, 0.1966536495000000273 ) ;
#212 = ORIENTED_EDGE ( 'NONE', *, *, #8, .F. ) ;
#213 = ADVANCED_FACE ( 'NONE', ( #232 ), #136, .T. ) ;
#214 = SHAPE_DEFINITION_REPRESENTATION ( #288, #227 ) ;
#215 = EDGE_LOOP ( 'NONE', ( #147, #163, #29, #125 ) ) ;
#216 = CARTESIAN_POINT ( 'NONE',  ( 2.949332346337811403E-33, 0.0000000000000000000, 2.408312624008205170E-17 ) ) ;
#217 =( GEOMETRIC_REPRESENTATION_CONTEXT ( 3 ) GLOBAL_UNCERTAINTY_ASSIGNED_CONTEXT ( ( #173 ) ) GLOBAL_UNIT_ASSIGNED_CONTEXT ( ( #51, #118, #237 ) ) REPRESENTATION_CONTEXT ( 'NONE', 'WORKASPACE' ) );
#218 = CARTESIAN_POINT ( 'NONE',  ( -0.1966536495000000273, 0.0000000000000000000, 2.408312624008205478E-17 ) ) ;
#219 = CARTESIAN_POINT ( 'NONE',  ( 1.687505730825492758E-16, 0.0000000000000000000, 1.377952999999999983 ) ) ;
#220 = DIMENSIONAL_EXPONENTS ( 1.000000000000000000, 0.0000000000000000000, 0.0000000000000000000, 0.0000000000000000000, 0.0000000000000000000, 0.0000000000000000000, 0.0000000000000000000 ) ;
#221 = LINE ( 'NONE', #35, #142 ) ;
#222 = CARTESIAN_POINT ( 'NONE',  ( -0.1968504999999999838, 0.0000000000000000000, 3.528306999999998528 ) ) ;
#223 = AXIS2_PLACEMENT_3D ( 'NONE', #114, #17, #199 ) ;
#224 = EDGE_CURVE ( 'NONE', #28, #144, #69, .T. ) ;
#225 = PLANE ( 'NONE',  #258 ) ;
#226 = DIRECTION ( 'NONE',  ( 1.224646799147353207E-16, 0.0000000000000000000, 1.000000000000000000 ) ) ;
#227 = ADVANCED_BREP_SHAPE_REPRESENTATION ( 'Micro_SFAM-100050', ( #294, #65 ), #217 ) ;
#228 = EDGE_CURVE ( 'NONE', #33, #74, #60, .T. ) ;
#229 = LINE ( 'NONE', #162, #124 ) ;
#230 = MECHANICAL_DESIGN_GEOMETRIC_PRESENTATION_REPRESENTATION (  '', ( #71 ), #135 ) ;
#231 = DIRECTION ( 'NONE',  ( 0.7071067811865547892, 8.659560562355021605E-17, -0.7071067811865402453 ) ) ;
#232 = FACE_OUTER_BOUND ( 'NONE', #252, .T. ) ;
#233 = AXIS2_PLACEMENT_3D ( 'NONE', #270, #182, #275 ) ;
#234 = EDGE_LOOP ( 'NONE', ( #149, #208, #96, #191 ) ) ;
#235 = ORIENTED_EDGE ( 'NONE', *, *, #153, .F. ) ;
#236 = ADVANCED_FACE ( 'NONE', ( #202 ), #117, .T. ) ;
#237 =( NAMED_UNIT ( * ) SI_UNIT ( $, .STERADIAN. ) SOLID_ANGLE_UNIT ( ) );
#238 = ORIENTED_EDGE ( 'NONE', *, *, #263, .T. ) ;
#239 = AXIS2_PLACEMENT_3D ( 'NONE', #70, #1, #200 ) ;
#240 = ORIENTED_EDGE ( 'NONE', *, *, #296, .T. ) ;
#241 = CYLINDRICAL_SURFACE ( 'NONE', #30, 0.1966536495000000273 ) ;
#242 = CIRCLE ( 'NONE', #170, 0.1818504999999983329 ) ;
#243 = CARTESIAN_POINT ( 'NONE',  ( 0.1968505000000001781, 2.410723347355562803E-17, 1.379069394661832204 ) ) ;
#244 = LINE ( 'NONE', #218, #273 ) ;
#245 = EDGE_CURVE ( 'NONE', #207, #5, #56, .T. ) ;
#246 = FACE_OUTER_BOUND ( 'NONE', #234, .T. ) ;
#247 = CARTESIAN_POINT ( 'NONE',  ( 0.0000000000000000000, 0.0000000000000000000, 0.0000000000000000000 ) ) ;
#248 = CARTESIAN_POINT ( 'NONE',  ( 1.687505730825492758E-16, 0.0000000000000000000, 1.377952999999999983 ) ) ;
#249 = CARTESIAN_POINT ( 'NONE',  ( -0.1818504999999983329, 0.0000000000000000000, 3.543306999999999984 ) ) ;
#250 = CIRCLE ( 'NONE', #187, 0.1966536494999999996 ) ;
#251 = MECHANICAL_DESIGN_GEOMETRIC_PRESENTATION_REPRESENTATION (  '', ( #103 ), #91 ) ;
#252 = EDGE_LOOP ( 'NONE', ( #122, #238, #185, #254 ) ) ;
#253 = CIRCLE ( 'NONE', #85, 0.1968504999999999838 ) ;
#254 = ORIENTED_EDGE ( 'NONE', *, *, #175, .F. ) ;
#255 = VERTEX_POINT ( 'NONE', #249 ) ;
#256 = DIRECTION ( 'NONE',  ( 1.000000000000000000, 0.0000000000000000000, 0.0000000000000000000 ) ) ;
#257 = ORIENTED_EDGE ( 'NONE', *, *, #224, .T. ) ;
#258 = AXIS2_PLACEMENT_3D ( 'NONE', #158, #297, #137 ) ;
#259 = ORIENTED_EDGE ( 'NONE', *, *, #203, .T. ) ;
#260 = DIRECTION ( 'NONE',  ( -1.000000000000000000, 0.0000000000000000000, 0.0000000000000000000 ) ) ;
#261 = DIRECTION ( 'NONE',  ( -0.0000000000000000000, -0.0000000000000000000, -1.000000000000000000 ) ) ;
#262 = CARTESIAN_POINT ( 'NONE',  ( 1.688872919974690912E-16, 0.0000000000000000000, 1.379069394661832204 ) ) ;
#263 = EDGE_CURVE ( 'NONE', #144, #5, #180, .T. ) ;
#264 = DIRECTION ( 'NONE',  ( -1.224646799147353207E-16, -0.0000000000000000000, -1.000000000000000000 ) ) ;
#265 = DIMENSIONAL_EXPONENTS ( 1.000000000000000000, 0.0000000000000000000, 0.0000000000000000000, 0.0000000000000000000, 0.0000000000000000000, 0.0000000000000000000, 0.0000000000000000000 ) ;
#266 = DIRECTION ( 'NONE',  ( 0.0000000000000000000, 0.0000000000000000000, -1.000000000000000000 ) ) ;
#267 = AXIS2_PLACEMENT_3D ( 'NONE', #82, #61, #62 ) ;
#268 = FILL_AREA_STYLE_COLOUR ( '', #76 ) ;
#269 = CIRCLE ( 'NONE', #183, 0.1818504999999983329 ) ;
#270 = CARTESIAN_POINT ( 'NONE',  ( 0.0000000000000000000, 0.0000000000000000000, 3.543306999999999984 ) ) ;
#271 = ADVANCED_FACE ( 'NONE', ( #18 ), #225, .F. ) ;
#272 = CARTESIAN_POINT ( 'NONE',  ( 0.0000000000000000000, 0.0000000000000000000, 3.543306999999999984 ) ) ;
#273 = VECTOR ( 'NONE', #38, 39.37007874015748143 ) ;
#274 = EDGE_CURVE ( 'NONE', #34, #5, #184, .T. ) ;
#275 = DIRECTION ( 'NONE',  ( 1.000000000000000000, 0.0000000000000000000, -0.0000000000000000000 ) ) ;
#276 = EDGE_LOOP ( 'NONE', ( #186, #57, #210, #52 ) ) ;
#277 = ORIENTED_EDGE ( 'NONE', *, *, #120, .F. ) ;
#278 = ADVANCED_FACE ( 'NONE', ( #111 ), #295, .T. ) ;
#279 = AXIS2_PLACEMENT_3D ( 'NONE', #293, #39, #151 ) ;
#280 = LENGTH_MEASURE_WITH_UNIT ( LENGTH_MEASURE( 0.02539999999999999897 ), #146 );
#281 = EDGE_LOOP ( 'NONE', ( #169, #4, #80, #55 ) ) ;
#282 = SURFACE_STYLE_USAGE ( .BOTH. , #121 ) ;
#283 = ORIENTED_EDGE ( 'NONE', *, *, #228, .T. ) ;
#284 = EDGE_LOOP ( 'NONE', ( #277, #257, #212, #101 ) ) ;
#285 = PRESENTATION_LAYER_ASSIGNMENT (  '', '', ( #71 ) ) ;
#286 = DIRECTION ( 'NONE',  ( 0.0000000000000000000, 0.0000000000000000000, 1.000000000000000000 ) ) ;
#287 = CYLINDRICAL_SURFACE ( 'NONE', #36, 0.1966536495000000273 ) ;
#288 = PRODUCT_DEFINITION_SHAPE ( 'NONE', 'NONE',  #68 ) ;
#289 = CARTESIAN_POINT ( 'NONE',  ( 0.0000000000000000000, 0.0000000000000000000, 3.543306999999999984 ) ) ;
#290 = ADVANCED_FACE ( 'NONE', ( #67 ), #23, .T. ) ;
#291 = VECTOR ( 'NONE', #161, 39.37007874015748143 ) ;
#292 = DIRECTION ( 'NONE',  ( -1.224646799147353207E-16, -0.0000000000000000000, -1.000000000000000000 ) ) ;
#293 = CARTESIAN_POINT ( 'NONE',  ( 0.0000000000000000000, 0.0000000000000000000, 3.528306999999998528 ) ) ;
#294 = MANIFOLD_SOLID_BREP ( 'Cut-Revolve1', #47 ) ;
#295 = PLANE ( 'NONE',  #233 ) ;
#296 = EDGE_CURVE ( 'NONE', #171, #207, #116, .T. ) ;
#297 = DIRECTION ( 'NONE',  ( 0.0000000000000000000, 0.0000000000000000000, 1.000000000000000000 ) ) ;
#298 = AXIS2_PLACEMENT_3D ( 'NONE', #219, #9, #172 ) ;
#299 = SURFACE_SIDE_STYLE ('',( #66 ) ) ;
ENDSEC;
END-ISO-10303-21;
