ISO-10303-21;
HEADER;
FILE_DESCRIPTION (( 'STEP AP214' ),
    '1' );
FILE_NAME ('48061.STEP',
    '2023-06-22T21:06:28',
    ( '' ),
    ( '' ),
    'SwSTEP 2.0',
    'SolidWorks 2023',
    '' );
FILE_SCHEMA (( 'AUTOMOTIVE_DESIGN' ));
ENDSEC;

DATA;
#1 = PRODUCT_CONTEXT ( 'NONE', #124, 'mechanical' ) ;
#2 = LENGTH_MEASURE_WITH_UNIT ( LENGTH_MEASURE( 0.02539999999999999897 ), #259 );
#3 = PRESENTATION_LAYER_ASSIGNMENT (  '', '', ( #18 ) ) ;
#4 = CARTESIAN_POINT ( 'NONE',  ( 0.09374999999999998612, 3.000000000000000444, 0.000000000000000000 ) ) ;
#5 = EDGE_LOOP ( 'NONE', ( #264, #173 ) ) ;
#6 = PRODUCT ( '48061', '48061', '', ( #1 ) ) ;
#7 = FILL_AREA_STYLE_COLOUR ( '', #172 ) ;
#8 = CARTESIAN_POINT ( 'NONE',  ( 0.000000000000000000, 0.000000000000000000, -0.09375000000000001388 ) ) ;
#9 = VERTEX_POINT ( 'NONE', #151 ) ;
#10 = AXIS2_PLACEMENT_3D ( 'NONE', #236, #21, #183 ) ;
#11 = DIRECTION ( 'NONE',  ( -0.000000000000000000, -1.000000000000000000, -0.000000000000000000 ) ) ;
#12 = COLOUR_RGB ( '',1.000000000000000000, 0.000000000000000000, 0.000000000000000000 ) ;
#13 = ORIENTED_EDGE ( 'NONE', *, *, #171, .T. ) ;
#14 = DIRECTION ( 'NONE',  ( -1.000000000000000000, 0.000000000000000000, 0.000000000000000000 ) ) ;
#15 = DIMENSIONAL_EXPONENTS ( 1.000000000000000000, 0.000000000000000000, 0.000000000000000000, 0.000000000000000000, 0.000000000000000000, 0.000000000000000000, 0.000000000000000000 ) ;
#16 = SURFACE_STYLE_FILL_AREA ( #222 ) ;
#17 = COLOUR_RGB ( '',0.7921568627450980005, 0.8196078431372548767, 0.9333333333333333481 ) ;
#18 = STYLED_ITEM ( 'NONE', ( #49 ), #153 ) ;
#19 = PRESENTATION_STYLE_ASSIGNMENT (( #275 ) ) ;
#20 = PRESENTATION_STYLE_ASSIGNMENT (( #109 ) ) ;
#21 = DIRECTION ( 'NONE',  ( -0.000000000000000000, -1.000000000000000000, -0.000000000000000000 ) ) ;
#22 = CARTESIAN_POINT ( 'NONE',  ( -0.09375000000000012490, 3.000000000000000444, 0.000000000000000000 ) ) ;
#23 =( GEOMETRIC_REPRESENTATION_CONTEXT ( 3 ) GLOBAL_UNCERTAINTY_ASSIGNED_CONTEXT ( ( #286 ) ) GLOBAL_UNIT_ASSIGNED_CONTEXT ( ( #118, #70, #47 ) ) REPRESENTATION_CONTEXT ( 'NONE', 'WORKASPACE' ) );
#24 = SURFACE_STYLE_USAGE ( .BOTH. , #63 ) ;
#25 = MECHANICAL_DESIGN_GEOMETRIC_PRESENTATION_REPRESENTATION (  '', ( #156 ), #187 ) ;
#26 = EDGE_LOOP ( 'NONE', ( #266, #193 ) ) ;
#27 = FACE_OUTER_BOUND ( 'NONE', #166, .T. ) ;
#28 = DIRECTION ( 'NONE',  ( -1.000000000000000000, 0.000000000000000000, 0.000000000000000000 ) ) ;
#29 = UNCERTAINTY_MEASURE_WITH_UNIT (LENGTH_MEASURE( 1.000000000000000082E-05 ), #181, 'distance_accuracy_value', 'NONE');
#30 = ADVANCED_FACE ( 'NONE', ( #128 ), #38, .T. ) ;
#31 = SURFACE_STYLE_FILL_AREA ( #96 ) ;
#32 = PLANE ( 'NONE',  #282 ) ;
#33 = EDGE_CURVE ( 'NONE', #9, #169, #249, .T. ) ;
#34 = CARTESIAN_POINT ( 'NONE',  ( 7.582401355855259480E-33, 1.000000000000000000, 0.000000000000000000 ) ) ;
#35 =( GEOMETRIC_REPRESENTATION_CONTEXT ( 3 ) GLOBAL_UNCERTAINTY_ASSIGNED_CONTEXT ( ( #116 ) ) GLOBAL_UNIT_ASSIGNED_CONTEXT ( ( #257, #304, #180 ) ) REPRESENTATION_CONTEXT ( 'NONE', 'WORKASPACE' ) );
#36 = ORIENTED_EDGE ( 'NONE', *, *, #283, .T. ) ;
#37 = VERTEX_POINT ( 'NONE', #83 ) ;
#38 = CYLINDRICAL_SURFACE ( 'NONE', #277, 0.09375000000000002776 ) ;
#39 = CIRCLE ( 'NONE', #305, 0.09375000000000005551 ) ;
#40 =( NAMED_UNIT ( * ) PLANE_ANGLE_UNIT ( ) SI_UNIT ( $, .RADIAN. ) );
#41 = DIRECTION ( 'NONE',  ( 0.000000000000000000, -1.000000000000000000, -0.000000000000000000 ) ) ;
#42 = CARTESIAN_POINT ( 'NONE',  ( 0.000000000000000000, 1.000000000000000000, -0.09374999999999998612 ) ) ;
#43 = STYLED_ITEM ( 'NONE', ( #301 ), #233 ) ;
#44 = ORIENTED_EDGE ( 'NONE', *, *, #111, .F. ) ;
#45 = EDGE_CURVE ( 'NONE', #37, #270, #221, .T. ) ;
#46 =( NAMED_UNIT ( * ) SI_UNIT ( $, .STERADIAN. ) SOLID_ANGLE_UNIT ( ) );
#47 =( NAMED_UNIT ( * ) SI_UNIT ( $, .STERADIAN. ) SOLID_ANGLE_UNIT ( ) );
#48 = PRODUCT_DEFINITION ( 'UNKNOWN', '', #136, #232 ) ;
#49 = PRESENTATION_STYLE_ASSIGNMENT (( #117 ) ) ;
#50 = VERTEX_POINT ( 'NONE', #298 ) ;
#51 = DIRECTION ( 'NONE',  ( 0.000000000000000000, 0.000000000000000000, -1.000000000000000000 ) ) ;
#52 = CLOSED_SHELL ( 'NONE', ( #213, #67, #153, #233 ) ) ;
#53 = CIRCLE ( 'NONE', #284, 0.09375000000000001388 ) ;
#54 = LINE ( 'NONE', #214, #61 ) ;
#55 = FACE_OUTER_BOUND ( 'NONE', #26, .T. ) ;
#56 = CARTESIAN_POINT ( 'NONE',  ( 4.393827488267170048E-35, 1.000000000000000000, 0.000000000000000000 ) ) ;
#57 = EDGE_CURVE ( 'NONE', #37, #132, #85, .T. ) ;
#58 = UNCERTAINTY_MEASURE_WITH_UNIT (LENGTH_MEASURE( 1.000000000000000082E-05 ), #175, 'distance_accuracy_value', 'NONE');
#59 = EDGE_LOOP ( 'NONE', ( #44, #235 ) ) ;
#60 = EDGE_LOOP ( 'NONE', ( #212, #95, #119, #296 ) ) ;
#61 = VECTOR ( 'NONE', #11, 39.37007874015748143 ) ;
#62 = SURFACE_STYLE_FILL_AREA ( #256 ) ;
#63 = SURFACE_SIDE_STYLE ('',( #62 ) ) ;
#64 = FILL_AREA_STYLE ('',( #137 ) ) ;
#65 = AXIS2_PLACEMENT_3D ( 'NONE', #274, #247, #129 ) ;
#66 = DIRECTION ( 'NONE',  ( -3.061616997868386099E-17, 1.000000000000000000, -0.000000000000000000 ) ) ;
#67 = ADVANCED_FACE ( 'NONE', ( #273 ), #32, .T. ) ;
#68 = AXIS2_PLACEMENT_3D ( 'NONE', #170, #244, #123 ) ;
#69 = ORIENTED_EDGE ( 'NONE', *, *, #141, .T. ) ;
#70 =( NAMED_UNIT ( * ) PLANE_ANGLE_UNIT ( ) SI_UNIT ( $, .RADIAN. ) );
#71 = ORIENTED_EDGE ( 'NONE', *, *, #33, .F. ) ;
#72 =( NAMED_UNIT ( * ) PLANE_ANGLE_UNIT ( ) SI_UNIT ( $, .RADIAN. ) );
#73 = CYLINDRICAL_SURFACE ( 'NONE', #68, 0.09374999999999998612 ) ;
#74 = ORIENTED_EDGE ( 'NONE', *, *, #224, .F. ) ;
#75 =( GEOMETRIC_REPRESENTATION_CONTEXT ( 3 ) GLOBAL_UNCERTAINTY_ASSIGNED_CONTEXT ( ( #29 ) ) GLOBAL_UNIT_ASSIGNED_CONTEXT ( ( #181, #159, #225 ) ) REPRESENTATION_CONTEXT ( 'NONE', 'WORKASPACE' ) );
#76 = DIRECTION ( 'NONE',  ( -0.000000000000000000, -1.000000000000000000, -0.000000000000000000 ) ) ;
#77 = EDGE_LOOP ( 'NONE', ( #89, #36, #147, #177 ) ) ;
#78 = PLANE ( 'NONE',  #308 ) ;
#79 = EDGE_LOOP ( 'NONE', ( #102, #69, #260, #204 ) ) ;
#80 = MECHANICAL_DESIGN_GEOMETRIC_PRESENTATION_REPRESENTATION (  '', ( #139 ), #268 ) ;
#81 = MECHANICAL_DESIGN_GEOMETRIC_PRESENTATION_REPRESENTATION (  '', ( #217 ), #35 ) ;
#82 = DIRECTION ( 'NONE',  ( -1.000000000000000000, 0.000000000000000000, 0.000000000000000000 ) ) ;
#83 = CARTESIAN_POINT ( 'NONE',  ( -0.09374999999999998612, 1.000000000000000000, 0.000000000000000000 ) ) ;
#84 = DIRECTION ( 'NONE',  ( -1.000000000000000000, 0.000000000000000000, 0.000000000000000000 ) ) ;
#85 = CIRCLE ( 'NONE', #245, 0.09374999999999998612 ) ;
#86 = DIRECTION ( 'NONE',  ( -0.000000000000000000, -1.000000000000000000, -0.000000000000000000 ) ) ;
#87 = DIMENSIONAL_EXPONENTS ( 1.000000000000000000, 0.000000000000000000, 0.000000000000000000, 0.000000000000000000, 0.000000000000000000, 0.000000000000000000, 0.000000000000000000 ) ;
#88 = PRESENTATION_LAYER_ASSIGNMENT (  '', '', ( #43 ) ) ;
#89 = ORIENTED_EDGE ( 'NONE', *, *, #111, .T. ) ;
#90 = CARTESIAN_POINT ( 'NONE',  ( -6.123233995736772199E-17, 3.000000000000000444, 0.000000000000000000 ) ) ;
#91 = AXIS2_PLACEMENT_3D ( 'NONE', #237, #188, #113 ) ;
#92 = SHAPE_DEFINITION_REPRESENTATION ( #143, #106 ) ;
#93 = VERTEX_POINT ( 'NONE', #198 ) ;
#94 = FACE_OUTER_BOUND ( 'NONE', #77, .T. ) ;
#95 = ORIENTED_EDGE ( 'NONE', *, *, #224, .T. ) ;
#96 = FILL_AREA_STYLE ('',( #7 ) ) ;
#97 = ADVANCED_FACE ( 'NONE', ( #295 ), #78, .F. ) ;
#98 =( LENGTH_UNIT ( ) NAMED_UNIT ( * ) SI_UNIT ( $, .METRE. ) );
#99 = AXIS2_PLACEMENT_3D ( 'NONE', #228, #41, #154 ) ;
#100 = DIRECTION ( 'NONE',  ( -3.061616997868386099E-17, 1.000000000000000000, -0.000000000000000000 ) ) ;
#101 = DIRECTION ( 'NONE',  ( 0.000000000000000000, 1.000000000000000000, 0.000000000000000000 ) ) ;
#102 = ORIENTED_EDGE ( 'NONE', *, *, #57, .T. ) ;
#103 = COLOUR_RGB ( '',1.000000000000000000, 0.000000000000000000, 0.000000000000000000 ) ;
#104 =( LENGTH_UNIT ( ) NAMED_UNIT ( * ) SI_UNIT ( $, .METRE. ) );
#105 = FILL_AREA_STYLE_COLOUR ( '', #103 ) ;
#106 = ADVANCED_BREP_SHAPE_REPRESENTATION ( '48061', ( #150, #255, #91 ), #23 ) ;
#107 = DIMENSIONAL_EXPONENTS ( 1.000000000000000000, 0.000000000000000000, 0.000000000000000000, 0.000000000000000000, 0.000000000000000000, 0.000000000000000000, 0.000000000000000000 ) ;
#108 = SURFACE_SIDE_STYLE ('',( #210 ) ) ;
#109 = SURFACE_STYLE_USAGE ( .BOTH. , #157 ) ;
#110 = DIMENSIONAL_EXPONENTS ( 1.000000000000000000, 0.000000000000000000, 0.000000000000000000, 0.000000000000000000, 0.000000000000000000, 0.000000000000000000, 0.000000000000000000 ) ;
#111 = EDGE_CURVE ( 'NONE', #144, #93, #161, .T. ) ;
#112 =( NAMED_UNIT ( * ) PLANE_ANGLE_UNIT ( ) SI_UNIT ( $, .RADIAN. ) );
#113 = DIRECTION ( 'NONE',  ( 1.000000000000000000, 0.000000000000000000, 0.000000000000000000 ) ) ;
#114 = APPLICATION_CONTEXT ( 'automotive_design' ) ;
#115 = CIRCLE ( 'NONE', #131, 0.09374999999999998612 ) ;
#116 = UNCERTAINTY_MEASURE_WITH_UNIT (LENGTH_MEASURE( 1.000000000000000082E-05 ), #257, 'distance_accuracy_value', 'NONE');
#117 = SURFACE_STYLE_USAGE ( .BOTH. , #108 ) ;
#118 =( CONVERSION_BASED_UNIT ( 'INCH', #2 ) LENGTH_UNIT ( ) NAMED_UNIT ( #15 ) );
#119 = ORIENTED_EDGE ( 'NONE', *, *, #45, .T. ) ;
#120 =( CONVERSION_BASED_UNIT ( 'INCH', #272 ) LENGTH_UNIT ( ) NAMED_UNIT ( #110 ) );
#121 = PLANE ( 'NONE',  #223 ) ;
#122 = ADVANCED_FACE ( 'NONE', ( #280 ), #281, .T. ) ;
#123 = DIRECTION ( 'NONE',  ( 0.000000000000000000, 0.000000000000000000, -1.000000000000000000 ) ) ;
#124 = APPLICATION_CONTEXT ( 'automotive_design' ) ;
#125 = CARTESIAN_POINT ( 'NONE',  ( 0.000000000000000000, 1.000000000000000000, 0.000000000000000000 ) ) ;
#126 =( GEOMETRIC_REPRESENTATION_CONTEXT ( 3 ) GLOBAL_UNCERTAINTY_ASSIGNED_CONTEXT ( ( #168 ) ) GLOBAL_UNIT_ASSIGNED_CONTEXT ( ( #160, #158, #231 ) ) REPRESENTATION_CONTEXT ( 'NONE', 'WORKASPACE' ) );
#127 = DIRECTION ( 'NONE',  ( -1.000000000000000000, 0.000000000000000000, 0.000000000000000000 ) ) ;
#128 = FACE_OUTER_BOUND ( 'NONE', #79, .T. ) ;
#129 = DIRECTION ( 'NONE',  ( 0.000000000000000000, 0.000000000000000000, -1.000000000000000000 ) ) ;
#130 = CARTESIAN_POINT ( 'NONE',  ( -6.123233995736772199E-17, 3.000000000000000444, 0.000000000000000000 ) ) ;
#131 = AXIS2_PLACEMENT_3D ( 'NONE', #288, #76, #240 ) ;
#132 = VERTEX_POINT ( 'NONE', #142 ) ;
#133 =( LENGTH_UNIT ( ) NAMED_UNIT ( * ) SI_UNIT ( $, .METRE. ) );
#134 = DIMENSIONAL_EXPONENTS ( 1.000000000000000000, 0.000000000000000000, 0.000000000000000000, 0.000000000000000000, 0.000000000000000000, 0.000000000000000000, 0.000000000000000000 ) ;
#135 = CARTESIAN_POINT ( 'NONE',  ( 0.000000000000000000, 0.000000000000000000, 0.000000000000000000 ) ) ;
#136 = PRODUCT_DEFINITION_FORMATION_WITH_SPECIFIED_SOURCE ( 'ANY', '', #6, .NOT_KNOWN. ) ;
#137 = FILL_AREA_STYLE_COLOUR ( '', #140 ) ;
#138 = EDGE_CURVE ( 'NONE', #270, #50, #39, .T. ) ;
#139 = STYLED_ITEM ( 'NONE', ( #19 ), #67 ) ;
#140 = COLOUR_RGB ( '',0.7921568627450980005, 0.8196078431372548767, 0.9333333333333333481 ) ;
#141 = EDGE_CURVE ( 'NONE', #132, #50, #190, .T. ) ;
#142 = CARTESIAN_POINT ( 'NONE',  ( 0.09374999999999998612, 1.000000000000000000, 1.148106374200644171E-17 ) ) ;
#143 = PRODUCT_DEFINITION_SHAPE ( 'NONE', 'NONE',  #48 ) ;
#144 = VERTEX_POINT ( 'NONE', #42 ) ;
#145 = CARTESIAN_POINT ( 'NONE',  ( -6.123233995736772199E-17, 3.000000000000000444, 0.000000000000000000 ) ) ;
#146 = VECTOR ( 'NONE', #307, 39.37007874015748143 ) ;
#147 = ORIENTED_EDGE ( 'NONE', *, *, #191, .F. ) ;
#148 = FILL_AREA_STYLE ('',( #219 ) ) ;
#149 = DIRECTION ( 'NONE',  ( -3.061616997868386099E-17, 1.000000000000000000, 0.000000000000000000 ) ) ;
#150 = MANIFOLD_SOLID_BREP ( 'Revolve - Cutting Edge', #52 ) ;
#151 = CARTESIAN_POINT ( 'NONE',  ( 1.148106374200643555E-17, 0.000000000000000000, 0.09375000000000001388 ) ) ;
#152 = CARTESIAN_POINT ( 'NONE',  ( 7.582401355855259480E-33, 1.000000000000000000, 0.000000000000000000 ) ) ;
#153 = ADVANCED_FACE ( 'NONE', ( #27 ), #306, .T. ) ;
#154 = DIRECTION ( 'NONE',  ( 0.000000000000000000, 0.000000000000000000, -1.000000000000000000 ) ) ;
#155 = PRESENTATION_LAYER_ASSIGNMENT (  '', '', ( #289 ) ) ;
#156 = STYLED_ITEM ( 'NONE', ( #293 ), #213 ) ;
#157 = SURFACE_SIDE_STYLE ('',( #299 ) ) ;
#158 =( NAMED_UNIT ( * ) PLANE_ANGLE_UNIT ( ) SI_UNIT ( $, .RADIAN. ) );
#159 =( NAMED_UNIT ( * ) PLANE_ANGLE_UNIT ( ) SI_UNIT ( $, .RADIAN. ) );
#160 =( CONVERSION_BASED_UNIT ( 'INCH', #163 ) LENGTH_UNIT ( ) NAMED_UNIT ( #107 ) );
#161 = CIRCLE ( 'NONE', #10, 0.09374999999999998612 ) ;
#162 = AXIS2_PLACEMENT_3D ( 'NONE', #34, #269, #127 ) ;
#163 = LENGTH_MEASURE_WITH_UNIT ( LENGTH_MEASURE( 0.02539999999999999897 ), #265 );
#164 = EDGE_CURVE ( 'NONE', #93, #144, #115, .T. ) ;
#165 = APPLICATION_PROTOCOL_DEFINITION ( 'draft international standard', 'automotive_design', 1998, #124 ) ;
#166 = EDGE_LOOP ( 'NONE', ( #211, #248, #13, #71 ) ) ;
#167 = CARTESIAN_POINT ( 'NONE',  ( 0.09374999999999995837, 3.000000000000000444, 1.148106374200644017E-17 ) ) ;
#168 = UNCERTAINTY_MEASURE_WITH_UNIT (LENGTH_MEASURE( 1.000000000000000082E-05 ), #160, 'distance_accuracy_value', 'NONE');
#169 = VERTEX_POINT ( 'NONE', #8 ) ;
#170 = CARTESIAN_POINT ( 'NONE',  ( 0.000000000000000000, 0.000000000000000000, 0.000000000000000000 ) ) ;
#171 = EDGE_CURVE ( 'NONE', #144, #169, #54, .T. ) ;
#172 = COLOUR_RGB ( '',1.000000000000000000, 0.000000000000000000, 0.000000000000000000 ) ;
#173 = ORIENTED_EDGE ( 'NONE', *, *, #33, .T. ) ;
#174 = SURFACE_SIDE_STYLE ('',( #215 ) ) ;
#175 =( CONVERSION_BASED_UNIT ( 'INCH', #276 ) LENGTH_UNIT ( ) NAMED_UNIT ( #302 ) );
#176 = EDGE_CURVE ( 'NONE', #50, #270, #291, .T. ) ;
#177 = ORIENTED_EDGE ( 'NONE', *, *, #171, .F. ) ;
#178 = CIRCLE ( 'NONE', #162, 0.09374999999999998612 ) ;
#179 = SURFACE_SIDE_STYLE ('',( #16 ) ) ;
#180 =( NAMED_UNIT ( * ) SI_UNIT ( $, .STERADIAN. ) SOLID_ANGLE_UNIT ( ) );
#181 =( CONVERSION_BASED_UNIT ( 'INCH', #252 ) LENGTH_UNIT ( ) NAMED_UNIT ( #134 ) );
#182 =( CONVERSION_BASED_UNIT ( 'INCH', #186 ) LENGTH_UNIT ( ) NAMED_UNIT ( #87 ) );
#183 = DIRECTION ( 'NONE',  ( 0.000000000000000000, 0.000000000000000000, -1.000000000000000000 ) ) ;
#184 =( LENGTH_UNIT ( ) NAMED_UNIT ( * ) SI_UNIT ( $, .METRE. ) );
#185 = FILL_AREA_STYLE_COLOUR ( '', #17 ) ;
#186 = LENGTH_MEASURE_WITH_UNIT ( LENGTH_MEASURE( 0.02539999999999999897 ), #227 );
#187 =( GEOMETRIC_REPRESENTATION_CONTEXT ( 3 ) GLOBAL_UNCERTAINTY_ASSIGNED_CONTEXT ( ( #262 ) ) GLOBAL_UNIT_ASSIGNED_CONTEXT ( ( #120, #72, #194 ) ) REPRESENTATION_CONTEXT ( 'NONE', 'WORKASPACE' ) );
#188 = DIRECTION ( 'NONE',  ( 0.000000000000000000, 0.000000000000000000, 1.000000000000000000 ) ) ;
#189 = LINE ( 'NONE', #209, #229 ) ;
#190 = LINE ( 'NONE', #167, #146 ) ;
#191 = EDGE_CURVE ( 'NONE', #169, #9, #53, .T. ) ;
#192 = DIRECTION ( 'NONE',  ( -0.000000000000000000, -1.000000000000000000, -0.000000000000000000 ) ) ;
#193 = ORIENTED_EDGE ( 'NONE', *, *, #176, .T. ) ;
#194 =( NAMED_UNIT ( * ) SI_UNIT ( $, .STERADIAN. ) SOLID_ANGLE_UNIT ( ) );
#195 = PRESENTATION_LAYER_ASSIGNMENT (  '', '', ( #139 ) ) ;
#196 = MECHANICAL_DESIGN_GEOMETRIC_PRESENTATION_REPRESENTATION (  '', ( #43 ), #75 ) ;
#197 = SURFACE_STYLE_USAGE ( .BOTH. , #174 ) ;
#198 = CARTESIAN_POINT ( 'NONE',  ( 1.148106374200643401E-17, 1.000000000000000000, 0.09374999999999998612 ) ) ;
#199 =( NAMED_UNIT ( * ) SI_UNIT ( $, .STERADIAN. ) SOLID_ANGLE_UNIT ( ) );
#200 = AXIS2_PLACEMENT_3D ( 'NONE', #253, #66, #84 ) ;
#201 = CARTESIAN_POINT ( 'NONE',  ( -0.09375000000000009714, 3.000000000000000444, 0.000000000000000000 ) ) ;
#202 = MECHANICAL_DESIGN_GEOMETRIC_PRESENTATION_REPRESENTATION (  '', ( #18 ), #207 ) ;
#203 = SURFACE_SIDE_STYLE ('',( #31 ) ) ;
#204 = ORIENTED_EDGE ( 'NONE', *, *, #45, .F. ) ;
#205 = LENGTH_MEASURE_WITH_UNIT ( LENGTH_MEASURE( 0.02539999999999999897 ), #133 );
#206 = DIRECTION ( 'NONE',  ( -0.000000000000000000, -1.000000000000000000, -0.000000000000000000 ) ) ;
#207 =( GEOMETRIC_REPRESENTATION_CONTEXT ( 3 ) GLOBAL_UNCERTAINTY_ASSIGNED_CONTEXT ( ( #208 ) ) GLOBAL_UNIT_ASSIGNED_CONTEXT ( ( #182, #112, #46 ) ) REPRESENTATION_CONTEXT ( 'NONE', 'WORKASPACE' ) );
#208 = UNCERTAINTY_MEASURE_WITH_UNIT (LENGTH_MEASURE( 1.000000000000000082E-05 ), #182, 'distance_accuracy_value', 'NONE');
#209 = CARTESIAN_POINT ( 'NONE',  ( 1.148106374200643401E-17, 0.000000000000000000, 0.09374999999999998612 ) ) ;
#210 = SURFACE_STYLE_FILL_AREA ( #258 ) ;
#211 = ORIENTED_EDGE ( 'NONE', *, *, #283, .F. ) ;
#212 = ORIENTED_EDGE ( 'NONE', *, *, #141, .F. ) ;
#213 = ADVANCED_FACE ( 'NONE', ( #94 ), #73, .T. ) ;
#214 = CARTESIAN_POINT ( 'NONE',  ( 0.000000000000000000, 0.000000000000000000, -0.09374999999999998612 ) ) ;
#215 = SURFACE_STYLE_FILL_AREA ( #148 ) ;
#216 = VECTOR ( 'NONE', #250, 39.37007874015748143 ) ;
#217 = STYLED_ITEM ( 'NONE', ( #20 ), #255 ) ;
#218 = DIRECTION ( 'NONE',  ( 0.000000000000000000, -0.000000000000000000, 1.000000000000000000 ) ) ;
#219 = FILL_AREA_STYLE_COLOUR ( '', #309 ) ;
#220 = DIRECTION ( 'NONE',  ( -3.061616997868386099E-17, 1.000000000000000000, -0.000000000000000000 ) ) ;
#221 = LINE ( 'NONE', #201, #216 ) ;
#222 = FILL_AREA_STYLE ('',( #105 ) ) ;
#223 = AXIS2_PLACEMENT_3D ( 'NONE', #4, #287, #267 ) ;
#224 = EDGE_CURVE ( 'NONE', #132, #37, #178, .T. ) ;
#225 =( NAMED_UNIT ( * ) SI_UNIT ( $, .STERADIAN. ) SOLID_ANGLE_UNIT ( ) );
#226 = ADVANCED_FACE ( 'NONE', ( #55 ), #121, .F. ) ;
#227 =( LENGTH_UNIT ( ) NAMED_UNIT ( * ) SI_UNIT ( $, .METRE. ) );
#228 = CARTESIAN_POINT ( 'NONE',  ( 0.000000000000000000, 0.000000000000000000, 0.000000000000000000 ) ) ;
#229 = VECTOR ( 'NONE', #206, 39.37007874015748143 ) ;
#230 = DIMENSIONAL_EXPONENTS ( 1.000000000000000000, 0.000000000000000000, 0.000000000000000000, 0.000000000000000000, 0.000000000000000000, 0.000000000000000000, 0.000000000000000000 ) ;
#231 =( NAMED_UNIT ( * ) SI_UNIT ( $, .STERADIAN. ) SOLID_ANGLE_UNIT ( ) );
#232 = PRODUCT_DEFINITION_CONTEXT ( 'detailed design', #114, 'design' ) ;
#233 = ADVANCED_FACE ( 'NONE', ( #290 ), #243, .T. ) ;
#234 = PRESENTATION_LAYER_ASSIGNMENT (  '', '', ( #156 ) ) ;
#235 = ORIENTED_EDGE ( 'NONE', *, *, #164, .F. ) ;
#236 = CARTESIAN_POINT ( 'NONE',  ( 0.000000000000000000, 1.000000000000000000, 0.000000000000000000 ) ) ;
#237 = CARTESIAN_POINT ( 'NONE',  ( 0.000000000000000000, 0.000000000000000000, 0.000000000000000000 ) ) ;
#238 = DIRECTION ( 'NONE',  ( -3.061616997868386099E-17, 1.000000000000000000, -0.000000000000000000 ) ) ;
#239 = CLOSED_SHELL ( 'NONE', ( #30, #97, #122, #226 ) ) ;
#240 = DIRECTION ( 'NONE',  ( 0.000000000000000000, 0.000000000000000000, -1.000000000000000000 ) ) ;
#241 = CARTESIAN_POINT ( 'NONE',  ( 0.000000000000000000, 0.000000000000000000, 0.000000000000000000 ) ) ;
#242 = ORIENTED_EDGE ( 'NONE', *, *, #57, .F. ) ;
#243 = PLANE ( 'NONE',  #99 ) ;
#244 = DIRECTION ( 'NONE',  ( -0.000000000000000000, -1.000000000000000000, -0.000000000000000000 ) ) ;
#245 = AXIS2_PLACEMENT_3D ( 'NONE', #152, #220, #82 ) ;
#246 = DIRECTION ( 'NONE',  ( -1.000000000000000000, -3.061616997868386099E-17, 0.000000000000000000 ) ) ;
#247 = DIRECTION ( 'NONE',  ( -0.000000000000000000, -1.000000000000000000, -0.000000000000000000 ) ) ;
#248 = ORIENTED_EDGE ( 'NONE', *, *, #164, .T. ) ;
#249 = CIRCLE ( 'NONE', #65, 0.09375000000000001388 ) ;
#250 = DIRECTION ( 'NONE',  ( -3.061616997868386099E-17, 1.000000000000000000, -0.000000000000000000 ) ) ;
#251 = MECHANICAL_DESIGN_GEOMETRIC_PRESENTATION_REPRESENTATION (  '', ( #289 ), #126 ) ;
#252 = LENGTH_MEASURE_WITH_UNIT ( LENGTH_MEASURE( 0.02539999999999999897 ), #184 );
#253 = CARTESIAN_POINT ( 'NONE',  ( -6.123233995736772199E-17, 3.000000000000000444, 0.000000000000000000 ) ) ;
#254 = PRESENTATION_STYLE_ASSIGNMENT (( #24 ) ) ;
#255 = MANIFOLD_SOLID_BREP ( 'Revolve - Tool Body (Straight Shanked)', #239 ) ;
#256 = FILL_AREA_STYLE ('',( #185 ) ) ;
#257 =( CONVERSION_BASED_UNIT ( 'INCH', #205 ) LENGTH_UNIT ( ) NAMED_UNIT ( #230 ) );
#258 = FILL_AREA_STYLE ('',( #303 ) ) ;
#259 =( LENGTH_UNIT ( ) NAMED_UNIT ( * ) SI_UNIT ( $, .METRE. ) );
#260 = ORIENTED_EDGE ( 'NONE', *, *, #138, .F. ) ;
#261 = PRESENTATION_LAYER_ASSIGNMENT (  '', '', ( #217 ) ) ;
#262 = UNCERTAINTY_MEASURE_WITH_UNIT (LENGTH_MEASURE( 1.000000000000000082E-05 ), #120, 'distance_accuracy_value', 'NONE');
#263 = APPLICATION_PROTOCOL_DEFINITION ( 'draft international standard', 'automotive_design', 1998, #114 ) ;
#264 = ORIENTED_EDGE ( 'NONE', *, *, #191, .T. ) ;
#265 =( LENGTH_UNIT ( ) NAMED_UNIT ( * ) SI_UNIT ( $, .METRE. ) );
#266 = ORIENTED_EDGE ( 'NONE', *, *, #138, .T. ) ;
#267 = DIRECTION ( 'NONE',  ( 1.000000000000000000, 3.061616997868386099E-17, 0.000000000000000000 ) ) ;
#268 =( GEOMETRIC_REPRESENTATION_CONTEXT ( 3 ) GLOBAL_UNCERTAINTY_ASSIGNED_CONTEXT ( ( #58 ) ) GLOBAL_UNIT_ASSIGNED_CONTEXT ( ( #175, #40, #199 ) ) REPRESENTATION_CONTEXT ( 'NONE', 'WORKASPACE' ) );
#269 = DIRECTION ( 'NONE',  ( -3.061616997868386099E-17, 1.000000000000000000, -0.000000000000000000 ) ) ;
#270 = VERTEX_POINT ( 'NONE', #22 ) ;
#271 = DIRECTION ( 'NONE',  ( 0.000000000000000000, 0.000000000000000000, -1.000000000000000000 ) ) ;
#272 = LENGTH_MEASURE_WITH_UNIT ( LENGTH_MEASURE( 0.02539999999999999897 ), #98 );
#273 = FACE_OUTER_BOUND ( 'NONE', #59, .T. ) ;
#274 = CARTESIAN_POINT ( 'NONE',  ( 0.000000000000000000, 0.000000000000000000, 0.000000000000000000 ) ) ;
#275 = SURFACE_STYLE_USAGE ( .BOTH. , #179 ) ;
#276 = LENGTH_MEASURE_WITH_UNIT ( LENGTH_MEASURE( 0.02539999999999999897 ), #104 );
#277 = AXIS2_PLACEMENT_3D ( 'NONE', #130, #300, #14 ) ;
#278 = AXIS2_PLACEMENT_3D ( 'NONE', #145, #100, #28 ) ;
#279 = SURFACE_STYLE_USAGE ( .BOTH. , #203 ) ;
#280 = FACE_OUTER_BOUND ( 'NONE', #60, .T. ) ;
#281 = CYLINDRICAL_SURFACE ( 'NONE', #200, 0.09375000000000002776 ) ;
#282 = AXIS2_PLACEMENT_3D ( 'NONE', #125, #101, #218 ) ;
#283 = EDGE_CURVE ( 'NONE', #93, #9, #189, .T. ) ;
#284 = AXIS2_PLACEMENT_3D ( 'NONE', #241, #192, #51 ) ;
#285 = DIRECTION ( 'NONE',  ( -1.000000000000000000, 0.000000000000000000, 0.000000000000000000 ) ) ;
#286 = UNCERTAINTY_MEASURE_WITH_UNIT (LENGTH_MEASURE( 1.000000000000000082E-05 ), #118, 'distance_accuracy_value', 'NONE');
#287 = DIRECTION ( 'NONE',  ( 3.061616997868386099E-17, -1.000000000000000000, 0.000000000000000000 ) ) ;
#288 = CARTESIAN_POINT ( 'NONE',  ( 0.000000000000000000, 1.000000000000000000, 0.000000000000000000 ) ) ;
#289 = STYLED_ITEM ( 'NONE', ( #254 ), #150 ) ;
#290 = FACE_OUTER_BOUND ( 'NONE', #5, .T. ) ;
#291 = CIRCLE ( 'NONE', #278, 0.09375000000000005551 ) ;
#292 = EDGE_LOOP ( 'NONE', ( #242, #74 ) ) ;
#293 = PRESENTATION_STYLE_ASSIGNMENT (( #197 ) ) ;
#294 = PRODUCT_RELATED_PRODUCT_CATEGORY ( 'part', '', ( #6 ) ) ;
#295 = FACE_OUTER_BOUND ( 'NONE', #292, .T. ) ;
#296 = ORIENTED_EDGE ( 'NONE', *, *, #176, .F. ) ;
#297 = AXIS2_PLACEMENT_3D ( 'NONE', #135, #86, #271 ) ;
#298 = CARTESIAN_POINT ( 'NONE',  ( 0.09374999999999998612, 3.000000000000000444, 1.148106374200644171E-17 ) ) ;
#299 = SURFACE_STYLE_FILL_AREA ( #64 ) ;
#300 = DIRECTION ( 'NONE',  ( -3.061616997868386099E-17, 1.000000000000000000, -0.000000000000000000 ) ) ;
#301 = PRESENTATION_STYLE_ASSIGNMENT (( #279 ) ) ;
#302 = DIMENSIONAL_EXPONENTS ( 1.000000000000000000, 0.000000000000000000, 0.000000000000000000, 0.000000000000000000, 0.000000000000000000, 0.000000000000000000, 0.000000000000000000 ) ;
#303 = FILL_AREA_STYLE_COLOUR ( '', #12 ) ;
#304 =( NAMED_UNIT ( * ) PLANE_ANGLE_UNIT ( ) SI_UNIT ( $, .RADIAN. ) );
#305 = AXIS2_PLACEMENT_3D ( 'NONE', #90, #238, #285 ) ;
#306 = CYLINDRICAL_SURFACE ( 'NONE', #297, 0.09374999999999998612 ) ;
#307 = DIRECTION ( 'NONE',  ( -3.061616997868386099E-17, 1.000000000000000000, -0.000000000000000000 ) ) ;
#308 = AXIS2_PLACEMENT_3D ( 'NONE', #56, #149, #246 ) ;
#309 = COLOUR_RGB ( '',1.000000000000000000, 0.000000000000000000, 0.000000000000000000 ) ;
ENDSEC;
END-ISO-10303-21;
