ISO-10303-21;
HEADER;
FILE_DESCRIPTION (( 'STEP AP214' ),
    '1' );
FILE_NAME ('83183.STEP',
    '2023-06-23T07:50:10',
    ( '' ),
    ( '' ),
    'SwSTEP 2.0',
    'SolidWorks 2023',
    '' );
FILE_SCHEMA (( 'AUTOMOTIVE_DESIGN' ));
ENDSEC;

DATA;
#1 = APPLICATION_PROTOCOL_DEFINITION ( 'draft international standard', 'automotive_design', 1998, #151 ) ;
#2 = CARTESIAN_POINT ( 'NONE',  ( -0.06249999999999953509, 1.499999999999999778, 0.000000000000000000 ) ) ;
#3 = PRESENTATION_LAYER_ASSIGNMENT (  '', '', ( #298 ) ) ;
#4 = CARTESIAN_POINT ( 'NONE',  ( 0.000000000000000000, 0.2500000000000000555, 0.000000000000000000 ) ) ;
#5 = DIRECTION ( 'NONE',  ( 0.000000000000000000, 0.000000000000000000, -1.000000000000000000 ) ) ;
#6 = AXIS2_PLACEMENT_3D ( 'NONE', #4, #48, #272 ) ;
#7 =( CONVERSION_BASED_UNIT ( 'INCH', #55 ) LENGTH_UNIT ( ) NAMED_UNIT ( #231 ) );
#8 = ADVANCED_FACE ( 'NONE', ( #205 ), #282, .T. ) ;
#9 = LENGTH_MEASURE_WITH_UNIT ( LENGTH_MEASURE( 0.02539999999999999897 ), #208 );
#10 = MECHANICAL_DESIGN_GEOMETRIC_PRESENTATION_REPRESENTATION (  '', ( #40 ), #238 ) ;
#11 = CARTESIAN_POINT ( 'NONE',  ( 0.000000000000000000, 0.2500000000000000555, 0.000000000000000000 ) ) ;
#12 = VERTEX_POINT ( 'NONE', #38 ) ;
#13 = CARTESIAN_POINT ( 'NONE',  ( 0.000000000000000000, 0.000000000000000000, 0.000000000000000000 ) ) ;
#14 = VERTEX_POINT ( 'NONE', #59 ) ;
#15 =( CONVERSION_BASED_UNIT ( 'INCH', #302 ) LENGTH_UNIT ( ) NAMED_UNIT ( #60 ) );
#16 = DIRECTION ( 'NONE',  ( 0.000000000000000000, -1.000000000000000000, -0.000000000000000000 ) ) ;
#17 = CLOSED_SHELL ( 'NONE', ( #234, #88, #8, #26 ) ) ;
#18 = VECTOR ( 'NONE', #269, 39.37007874015748143 ) ;
#19 = LINE ( 'NONE', #251, #131 ) ;
#20 = AXIS2_PLACEMENT_3D ( 'NONE', #67, #249, #242 ) ;
#21 = DIRECTION ( 'NONE',  ( 2.449293598294706414E-16, 1.000000000000000000, -0.000000000000000000 ) ) ;
#22 = CARTESIAN_POINT ( 'NONE',  ( 1.874699728327322010E-33, 0.2500000000000000555, 0.000000000000000000 ) ) ;
#23 =( GEOMETRIC_REPRESENTATION_CONTEXT ( 3 ) GLOBAL_UNCERTAINTY_ASSIGNED_CONTEXT ( ( #215 ) ) GLOBAL_UNIT_ASSIGNED_CONTEXT ( ( #190, #308, #146 ) ) REPRESENTATION_CONTEXT ( 'NONE', 'WORKASPACE' ) );
#24 = CARTESIAN_POINT ( 'NONE',  ( 0.000000000000000000, 0.2500000000000000555, 0.000000000000000000 ) ) ;
#25 = FILL_AREA_STYLE ('',( #99 ) ) ;
#26 = ADVANCED_FACE ( 'NONE', ( #256 ), #283, .F. ) ;
#27 = SURFACE_STYLE_FILL_AREA ( #113 ) ;
#28 = SURFACE_STYLE_USAGE ( .BOTH. , #274 ) ;
#29 = EDGE_CURVE ( 'NONE', #12, #14, #303, .T. ) ;
#30 = ORIENTED_EDGE ( 'NONE', *, *, #268, .F. ) ;
#31 = DIMENSIONAL_EXPONENTS ( 1.000000000000000000, 0.000000000000000000, 0.000000000000000000, 0.000000000000000000, 0.000000000000000000, 0.000000000000000000, 0.000000000000000000 ) ;
#32 = CIRCLE ( 'NONE', #226, 0.06249999999999970163 ) ;
#33 = EDGE_CURVE ( 'NONE', #140, #135, #156, .T. ) ;
#34 = FACE_OUTER_BOUND ( 'NONE', #212, .T. ) ;
#35 = FILL_AREA_STYLE ('',( #114 ) ) ;
#36 = EDGE_LOOP ( 'NONE', ( #92, #271, #169, #75 ) ) ;
#37 = CARTESIAN_POINT ( 'NONE',  ( 3.061616997868382155E-16, 1.499999999999999778, 0.000000000000000000 ) ) ;
#38 = CARTESIAN_POINT ( 'NONE',  ( 0.06250000000000001388, 1.499999999999999778, 7.654042494670948300E-18 ) ) ;
#39 = ORIENTED_EDGE ( 'NONE', *, *, #192, .F. ) ;
#40 = STYLED_ITEM ( 'NONE', ( #112 ), #257 ) ;
#41 = DIRECTION ( 'NONE',  ( 2.449293598294706414E-16, 1.000000000000000000, -0.000000000000000000 ) ) ;
#42 =( NAMED_UNIT ( * ) SI_UNIT ( $, .STERADIAN. ) SOLID_ANGLE_UNIT ( ) );
#43 =( NAMED_UNIT ( * ) SI_UNIT ( $, .STERADIAN. ) SOLID_ANGLE_UNIT ( ) );
#44 = COLOUR_RGB ( '',1.000000000000000000, 0.000000000000000000, 0.000000000000000000 ) ;
#45 = CIRCLE ( 'NONE', #20, 0.06250000000000000000 ) ;
#46 =( LENGTH_UNIT ( ) NAMED_UNIT ( * ) SI_UNIT ( $, .METRE. ) );
#47 = UNCERTAINTY_MEASURE_WITH_UNIT (LENGTH_MEASURE( 1.000000000000000082E-05 ), #158, 'distance_accuracy_value', 'NONE');
#48 = DIRECTION ( 'NONE',  ( -0.000000000000000000, -1.000000000000000000, -0.000000000000000000 ) ) ;
#49 = EDGE_CURVE ( 'NONE', #140, #306, #19, .T. ) ;
#50 =( GEOMETRIC_REPRESENTATION_CONTEXT ( 3 ) GLOBAL_UNCERTAINTY_ASSIGNED_CONTEXT ( ( #85 ) ) GLOBAL_UNIT_ASSIGNED_CONTEXT ( ( #264, #213, #42 ) ) REPRESENTATION_CONTEXT ( 'NONE', 'WORKASPACE' ) );
#51 = LINE ( 'NONE', #153, #18 ) ;
#52 = VERTEX_POINT ( 'NONE', #300 ) ;
#53 = DIRECTION ( 'NONE',  ( 0.000000000000000000, 0.000000000000000000, -1.000000000000000000 ) ) ;
#54 = DIMENSIONAL_EXPONENTS ( 1.000000000000000000, 0.000000000000000000, 0.000000000000000000, 0.000000000000000000, 0.000000000000000000, 0.000000000000000000, 0.000000000000000000 ) ;
#55 = LENGTH_MEASURE_WITH_UNIT ( LENGTH_MEASURE( 0.02539999999999999897 ), #175 );
#56 = MECHANICAL_DESIGN_GEOMETRIC_PRESENTATION_REPRESENTATION (  '', ( #293 ), #191 ) ;
#57 = PRESENTATION_STYLE_ASSIGNMENT (( #28 ) ) ;
#58 = DIRECTION ( 'NONE',  ( 0.000000000000000000, 0.000000000000000000, -1.000000000000000000 ) ) ;
#59 = CARTESIAN_POINT ( 'NONE',  ( -0.06249999999999939632, 1.499999999999999778, 0.000000000000000000 ) ) ;
#60 = DIMENSIONAL_EXPONENTS ( 1.000000000000000000, 0.000000000000000000, 0.000000000000000000, 0.000000000000000000, 0.000000000000000000, 0.000000000000000000, 0.000000000000000000 ) ;
#61 = CARTESIAN_POINT ( 'NONE',  ( 0.000000000000000000, 0.000000000000000000, 0.000000000000000000 ) ) ;
#62 = ORIENTED_EDGE ( 'NONE', *, *, #172, .F. ) ;
#63 = COLOUR_RGB ( '',0.7921568627450980005, 0.8196078431372548767, 0.9333333333333333481 ) ;
#64 = PLANE ( 'NONE',  #71 ) ;
#65 = ORIENTED_EDGE ( 'NONE', *, *, #295, .F. ) ;
#66 = DIRECTION ( 'NONE',  ( -2.449293598294706414E-16, -1.000000000000000000, 0.000000000000000000 ) ) ;
#67 = CARTESIAN_POINT ( 'NONE',  ( 0.000000000000000000, 0.000000000000000000, 0.000000000000000000 ) ) ;
#68 = DIRECTION ( 'NONE',  ( -0.000000000000000000, -1.000000000000000000, -0.000000000000000000 ) ) ;
#69 =( GEOMETRIC_REPRESENTATION_CONTEXT ( 3 ) GLOBAL_UNCERTAINTY_ASSIGNED_CONTEXT ( ( #134 ) ) GLOBAL_UNIT_ASSIGNED_CONTEXT ( ( #255, #108, #305 ) ) REPRESENTATION_CONTEXT ( 'NONE', 'WORKASPACE' ) );
#70 = DIRECTION ( 'NONE',  ( 0.000000000000000000, 1.000000000000000000, 0.000000000000000000 ) ) ;
#71 = AXIS2_PLACEMENT_3D ( 'NONE', #61, #16, #117 ) ;
#72 = PRESENTATION_STYLE_ASSIGNMENT (( #197 ) ) ;
#73 = PRODUCT_RELATED_PRODUCT_CATEGORY ( 'part', '', ( #177 ) ) ;
#74 = SURFACE_STYLE_FILL_AREA ( #107 ) ;
#75 = ORIENTED_EDGE ( 'NONE', *, *, #29, .F. ) ;
#76 = COLOUR_RGB ( '',0.7921568627450980005, 0.8196078431372548767, 0.9333333333333333481 ) ;
#77 = DIRECTION ( 'NONE',  ( -0.000000000000000000, -1.000000000000000000, -0.000000000000000000 ) ) ;
#78 = EDGE_LOOP ( 'NONE', ( #109, #254, #180, #62 ) ) ;
#79 = FILL_AREA_STYLE ('',( #246 ) ) ;
#80 = SURFACE_STYLE_USAGE ( .BOTH. , #129 ) ;
#81 = PRESENTATION_LAYER_ASSIGNMENT (  '', '', ( #185 ) ) ;
#82 = AXIS2_PLACEMENT_3D ( 'NONE', #24, #124, #194 ) ;
#83 = DIRECTION ( 'NONE',  ( -1.000000000000000000, 0.000000000000000000, 0.000000000000000000 ) ) ;
#84 = PRESENTATION_STYLE_ASSIGNMENT (( #277 ) ) ;
#85 = UNCERTAINTY_MEASURE_WITH_UNIT (LENGTH_MEASURE( 1.000000000000000082E-05 ), #264, 'distance_accuracy_value', 'NONE');
#86 = ORIENTED_EDGE ( 'NONE', *, *, #49, .T. ) ;
#87 = EDGE_LOOP ( 'NONE', ( #39, #186 ) ) ;
#88 = ADVANCED_FACE ( 'NONE', ( #118 ), #144, .F. ) ;
#89 = MANIFOLD_SOLID_BREP ( 'Revolve - Tool Body (Straight Shanked)', #17 ) ;
#90 = AXIS2_PLACEMENT_3D ( 'NONE', #128, #201, #53 ) ;
#91 =( NAMED_UNIT ( * ) PLANE_ANGLE_UNIT ( ) SI_UNIT ( $, .RADIAN. ) );
#92 = ORIENTED_EDGE ( 'NONE', *, *, #137, .F. ) ;
#93 = DIRECTION ( 'NONE',  ( 2.449293598294706414E-16, 1.000000000000000000, -0.000000000000000000 ) ) ;
#94 = ORIENTED_EDGE ( 'NONE', *, *, #125, .F. ) ;
#95 = APPLICATION_PROTOCOL_DEFINITION ( 'draft international standard', 'automotive_design', 1998, #148 ) ;
#96 = SURFACE_STYLE_USAGE ( .BOTH. , #265 ) ;
#97 = UNCERTAINTY_MEASURE_WITH_UNIT (LENGTH_MEASURE( 1.000000000000000082E-05 ), #15, 'distance_accuracy_value', 'NONE');
#98 = DIRECTION ( 'NONE',  ( 2.449293598294706414E-16, 1.000000000000000000, -0.000000000000000000 ) ) ;
#99 = FILL_AREA_STYLE_COLOUR ( '', #44 ) ;
#100 = AXIS2_PLACEMENT_3D ( 'NONE', #13, #206, #58 ) ;
#101 = ADVANCED_FACE ( 'NONE', ( #217 ), #301, .T. ) ;
#102 = DIRECTION ( 'NONE',  ( 2.449293598294706414E-16, 1.000000000000000000, -0.000000000000000000 ) ) ;
#103 = PRODUCT_DEFINITION_CONTEXT ( 'detailed design', #151, 'design' ) ;
#104 = LENGTH_MEASURE_WITH_UNIT ( LENGTH_MEASURE( 0.02539999999999999897 ), #222 );
#105 = COLOUR_RGB ( '',1.000000000000000000, 0.000000000000000000, 0.000000000000000000 ) ;
#106 = CARTESIAN_POINT ( 'NONE',  ( 0.000000000000000000, 0.2500000000000000555, -0.06250000000000000000 ) ) ;
#107 = FILL_AREA_STYLE ('',( #202 ) ) ;
#108 =( NAMED_UNIT ( * ) PLANE_ANGLE_UNIT ( ) SI_UNIT ( $, .RADIAN. ) );
#109 = ORIENTED_EDGE ( 'NONE', *, *, #49, .F. ) ;
#110 =( NAMED_UNIT ( * ) SI_UNIT ( $, .STERADIAN. ) SOLID_ANGLE_UNIT ( ) );
#111 = EDGE_LOOP ( 'NONE', ( #65, #239 ) ) ;
#112 = PRESENTATION_STYLE_ASSIGNMENT (( #250 ) ) ;
#113 = FILL_AREA_STYLE ('',( #232 ) ) ;
#114 = FILL_AREA_STYLE_COLOUR ( '', #105 ) ;
#115 = CARTESIAN_POINT ( 'NONE',  ( 0.000000000000000000, 0.2500000000000000555, 0.000000000000000000 ) ) ;
#116 = STYLED_ITEM ( 'NONE', ( #72 ), #101 ) ;
#117 = DIRECTION ( 'NONE',  ( 0.000000000000000000, 0.000000000000000000, -1.000000000000000000 ) ) ;
#118 = FACE_OUTER_BOUND ( 'NONE', #111, .T. ) ;
#119 = CARTESIAN_POINT ( 'NONE',  ( 0.000000000000000000, 0.000000000000000000, -0.06250000000000000000 ) ) ;
#120 = DIRECTION ( 'NONE',  ( 1.000000000000000000, 0.000000000000000000, 0.000000000000000000 ) ) ;
#121 = CLOSED_SHELL ( 'NONE', ( #243, #101, #176, #257 ) ) ;
#122 = PRESENTATION_LAYER_ASSIGNMENT (  '', '', ( #224 ) ) ;
#123 = CARTESIAN_POINT ( 'NONE',  ( 0.000000000000000000, 0.2500000000000000555, 0.000000000000000000 ) ) ;
#124 = DIRECTION ( 'NONE',  ( 2.449293598294706414E-16, 1.000000000000000000, -0.000000000000000000 ) ) ;
#125 = EDGE_CURVE ( 'NONE', #259, #14, #150, .T. ) ;
#126 =( NAMED_UNIT ( * ) PLANE_ANGLE_UNIT ( ) SI_UNIT ( $, .RADIAN. ) );
#127 = PRESENTATION_LAYER_ASSIGNMENT (  '', '', ( #40 ) ) ;
#128 = CARTESIAN_POINT ( 'NONE',  ( 0.000000000000000000, 0.000000000000000000, 0.000000000000000000 ) ) ;
#129 = SURFACE_SIDE_STYLE ('',( #74 ) ) ;
#130 = LINE ( 'NONE', #223, #136 ) ;
#131 = VECTOR ( 'NONE', #209, 39.37007874015748143 ) ;
#132 = CYLINDRICAL_SURFACE ( 'NONE', #196, 0.06249999999999984734 ) ;
#133 = DIMENSIONAL_EXPONENTS ( 1.000000000000000000, 0.000000000000000000, 0.000000000000000000, 0.000000000000000000, 0.000000000000000000, 0.000000000000000000, 0.000000000000000000 ) ;
#134 = UNCERTAINTY_MEASURE_WITH_UNIT (LENGTH_MEASURE( 1.000000000000000082E-05 ), #255, 'distance_accuracy_value', 'NONE');
#135 = VERTEX_POINT ( 'NONE', #106 ) ;
#136 = VECTOR ( 'NONE', #102, 39.37007874015748143 ) ;
#137 = EDGE_CURVE ( 'NONE', #52, #12, #130, .T. ) ;
#138 = DIRECTION ( 'NONE',  ( 2.449293598294706414E-16, 1.000000000000000000, -0.000000000000000000 ) ) ;
#139 = CYLINDRICAL_SURFACE ( 'NONE', #100, 0.06250000000000000000 ) ;
#140 = VERTEX_POINT ( 'NONE', #221 ) ;
#141 = DIRECTION ( 'NONE',  ( -1.000000000000000000, 0.000000000000000000, 0.000000000000000000 ) ) ;
#142 = VECTOR ( 'NONE', #98, 39.37007874015748143 ) ;
#143 = DIRECTION ( 'NONE',  ( -1.000000000000000000, 0.000000000000000000, 0.000000000000000000 ) ) ;
#144 = PLANE ( 'NONE',  #171 ) ;
#145 = DIRECTION ( 'NONE',  ( 0.000000000000000000, 0.000000000000000000, 1.000000000000000000 ) ) ;
#146 =( NAMED_UNIT ( * ) SI_UNIT ( $, .STERADIAN. ) SOLID_ANGLE_UNIT ( ) );
#147 = ADVANCED_BREP_SHAPE_REPRESENTATION ( '83183', ( #195, #89, #157 ), #50 ) ;
#148 = APPLICATION_CONTEXT ( 'automotive_design' ) ;
#149 = AXIS2_PLACEMENT_3D ( 'NONE', #163, #189, #161 ) ;
#150 = LINE ( 'NONE', #2, #142 ) ;
#151 = APPLICATION_CONTEXT ( 'automotive_design' ) ;
#152 = CIRCLE ( 'NONE', #237, 0.06250000000000000000 ) ;
#153 = CARTESIAN_POINT ( 'NONE',  ( 0.000000000000000000, 0.000000000000000000, -0.06250000000000000000 ) ) ;
#154 = ORIENTED_EDGE ( 'NONE', *, *, #288, .F. ) ;
#155 =( NAMED_UNIT ( * ) PLANE_ANGLE_UNIT ( ) SI_UNIT ( $, .RADIAN. ) );
#156 = CIRCLE ( 'NONE', #173, 0.06250000000000000000 ) ;
#157 = AXIS2_PLACEMENT_3D ( 'NONE', #307, #145, #120 ) ;
#158 =( CONVERSION_BASED_UNIT ( 'INCH', #104 ) LENGTH_UNIT ( ) NAMED_UNIT ( #167 ) );
#159 = UNCERTAINTY_MEASURE_WITH_UNIT (LENGTH_MEASURE( 1.000000000000000082E-05 ), #7, 'distance_accuracy_value', 'NONE');
#160 =( LENGTH_UNIT ( ) NAMED_UNIT ( * ) SI_UNIT ( $, .METRE. ) );
#161 = DIRECTION ( 'NONE',  ( -1.000000000000000000, 0.000000000000000000, 0.000000000000000000 ) ) ;
#162 = DIRECTION ( 'NONE',  ( 2.449293598294706414E-16, 1.000000000000000000, -0.000000000000000000 ) ) ;
#163 = CARTESIAN_POINT ( 'NONE',  ( 3.061616997868382155E-16, 1.499999999999999778, 0.000000000000000000 ) ) ;
#164 = MECHANICAL_DESIGN_GEOMETRIC_PRESENTATION_REPRESENTATION (  '', ( #298 ), #270 ) ;
#165 = SURFACE_SIDE_STYLE ('',( #181 ) ) ;
#166 = EDGE_LOOP ( 'NONE', ( #184, #207 ) ) ;
#167 = DIMENSIONAL_EXPONENTS ( 1.000000000000000000, 0.000000000000000000, 0.000000000000000000, 0.000000000000000000, 0.000000000000000000, 0.000000000000000000, 0.000000000000000000 ) ;
#168 = DIRECTION ( 'NONE',  ( -1.000000000000000000, 0.000000000000000000, 0.000000000000000000 ) ) ;
#169 = ORIENTED_EDGE ( 'NONE', *, *, #125, .T. ) ;
#170 = EDGE_LOOP ( 'NONE', ( #278, #86, #30, #228 ) ) ;
#171 = AXIS2_PLACEMENT_3D ( 'NONE', #22, #138, #203 ) ;
#172 = EDGE_CURVE ( 'NONE', #306, #304, #219, .T. ) ;
#173 = AXIS2_PLACEMENT_3D ( 'NONE', #115, #68, #236 ) ;
#174 = PRESENTATION_STYLE_ASSIGNMENT (( #96 ) ) ;
#175 =( LENGTH_UNIT ( ) NAMED_UNIT ( * ) SI_UNIT ( $, .METRE. ) );
#176 = ADVANCED_FACE ( 'NONE', ( #292 ), #294, .T. ) ;
#177 = PRODUCT ( '83183', '83183', '', ( #240 ) ) ;
#178 = AXIS2_PLACEMENT_3D ( 'NONE', #123, #70, #267 ) ;
#179 = FACE_OUTER_BOUND ( 'NONE', #280, .T. ) ;
#180 = ORIENTED_EDGE ( 'NONE', *, *, #187, .T. ) ;
#181 = SURFACE_STYLE_FILL_AREA ( #35 ) ;
#182 = ORIENTED_EDGE ( 'NONE', *, *, #295, .T. ) ;
#183 = FILL_AREA_STYLE_COLOUR ( '', #260 ) ;
#184 = ORIENTED_EDGE ( 'NONE', *, *, #288, .T. ) ;
#185 = STYLED_ITEM ( 'NONE', ( #57 ), #195 ) ;
#186 = ORIENTED_EDGE ( 'NONE', *, *, #33, .F. ) ;
#187 = EDGE_CURVE ( 'NONE', #135, #304, #51, .T. ) ;
#188 = FILL_AREA_STYLE ('',( #183 ) ) ;
#189 = DIRECTION ( 'NONE',  ( 2.449293598294706414E-16, 1.000000000000000000, -0.000000000000000000 ) ) ;
#190 =( CONVERSION_BASED_UNIT ( 'INCH', #214 ) LENGTH_UNIT ( ) NAMED_UNIT ( #297 ) );
#191 =( GEOMETRIC_REPRESENTATION_CONTEXT ( 3 ) GLOBAL_UNCERTAINTY_ASSIGNED_CONTEXT ( ( #47 ) ) GLOBAL_UNIT_ASSIGNED_CONTEXT ( ( #158, #155, #296 ) ) REPRESENTATION_CONTEXT ( 'NONE', 'WORKASPACE' ) );
#192 = EDGE_CURVE ( 'NONE', #135, #140, #200, .T. ) ;
#193 =( LENGTH_UNIT ( ) NAMED_UNIT ( * ) SI_UNIT ( $, .METRE. ) );
#194 = DIRECTION ( 'NONE',  ( -1.000000000000000000, 0.000000000000000000, 0.000000000000000000 ) ) ;
#195 = MANIFOLD_SOLID_BREP ( 'Revolve - Cutting Edge', #121 ) ;
#196 = AXIS2_PLACEMENT_3D ( 'NONE', #235, #162, #168 ) ;
#197 = SURFACE_STYLE_USAGE ( .BOTH. , #291 ) ;
#198 =( NAMED_UNIT ( * ) SI_UNIT ( $, .STERADIAN. ) SOLID_ANGLE_UNIT ( ) );
#199 = CARTESIAN_POINT ( 'NONE',  ( 0.000000000000000000, 0.000000000000000000, 0.000000000000000000 ) ) ;
#200 = CIRCLE ( 'NONE', #6, 0.06250000000000000000 ) ;
#201 = DIRECTION ( 'NONE',  ( -0.000000000000000000, -1.000000000000000000, -0.000000000000000000 ) ) ;
#202 = FILL_AREA_STYLE_COLOUR ( '', #309 ) ;
#203 = DIRECTION ( 'NONE',  ( -1.000000000000000000, 2.449293598294706414E-16, 0.000000000000000000 ) ) ;
#204 = MECHANICAL_DESIGN_GEOMETRIC_PRESENTATION_REPRESENTATION (  '', ( #116 ), #23 ) ;
#205 = FACE_OUTER_BOUND ( 'NONE', #36, .T. ) ;
#206 = DIRECTION ( 'NONE',  ( -0.000000000000000000, -1.000000000000000000, -0.000000000000000000 ) ) ;
#207 = ORIENTED_EDGE ( 'NONE', *, *, #29, .T. ) ;
#208 =( LENGTH_UNIT ( ) NAMED_UNIT ( * ) SI_UNIT ( $, .METRE. ) );
#209 = DIRECTION ( 'NONE',  ( -0.000000000000000000, -1.000000000000000000, -0.000000000000000000 ) ) ;
#210 = PRESENTATION_LAYER_ASSIGNMENT (  '', '', ( #116 ) ) ;
#211 = CARTESIAN_POINT ( 'NONE',  ( -0.06250000000000000000, 0.2500000000000000555, 0.000000000000000000 ) ) ;
#212 = EDGE_LOOP ( 'NONE', ( #182, #299, #154, #94 ) ) ;
#213 =( NAMED_UNIT ( * ) PLANE_ANGLE_UNIT ( ) SI_UNIT ( $, .RADIAN. ) );
#214 = LENGTH_MEASURE_WITH_UNIT ( LENGTH_MEASURE( 0.02539999999999999897 ), #193 );
#215 = UNCERTAINTY_MEASURE_WITH_UNIT (LENGTH_MEASURE( 1.000000000000000082E-05 ), #190, 'distance_accuracy_value', 'NONE');
#216 = MECHANICAL_DESIGN_GEOMETRIC_PRESENTATION_REPRESENTATION (  '', ( #224 ), #69 ) ;
#217 = FACE_OUTER_BOUND ( 'NONE', #87, .T. ) ;
#218 =( CONVERSION_BASED_UNIT ( 'INCH', #284 ) LENGTH_UNIT ( ) NAMED_UNIT ( #133 ) );
#219 = CIRCLE ( 'NONE', #248, 0.06250000000000000000 ) ;
#220 = CIRCLE ( 'NONE', #82, 0.06250000000000000000 ) ;
#221 = CARTESIAN_POINT ( 'NONE',  ( 7.654042494670957545E-18, 0.2500000000000000555, 0.06250000000000000000 ) ) ;
#222 =( LENGTH_UNIT ( ) NAMED_UNIT ( * ) SI_UNIT ( $, .METRE. ) );
#223 = CARTESIAN_POINT ( 'NONE',  ( 0.06250000000000015266, 1.499999999999999778, 7.654042494670939056E-18 ) ) ;
#224 = STYLED_ITEM ( 'NONE', ( #84 ), #243 ) ;
#225 = PRESENTATION_STYLE_ASSIGNMENT (( #80 ) ) ;
#226 = AXIS2_PLACEMENT_3D ( 'NONE', #262, #21, #143 ) ;
#227 = PRODUCT_DEFINITION ( 'UNKNOWN', '', #261, #103 ) ;
#228 = ORIENTED_EDGE ( 'NONE', *, *, #187, .F. ) ;
#229 = SURFACE_STYLE_FILL_AREA ( #79 ) ;
#230 = UNCERTAINTY_MEASURE_WITH_UNIT (LENGTH_MEASURE( 1.000000000000000082E-05 ), #218, 'distance_accuracy_value', 'NONE');
#231 = DIMENSIONAL_EXPONENTS ( 1.000000000000000000, 0.000000000000000000, 0.000000000000000000, 0.000000000000000000, 0.000000000000000000, 0.000000000000000000, 0.000000000000000000 ) ;
#232 = FILL_AREA_STYLE_COLOUR ( '', #76 ) ;
#233 = CARTESIAN_POINT ( 'NONE',  ( 0.06250000000000001388, 1.499999999999999778, 0.000000000000000000 ) ) ;
#234 = ADVANCED_FACE ( 'NONE', ( #34 ), #132, .T. ) ;
#235 = CARTESIAN_POINT ( 'NONE',  ( 3.061616997868382155E-16, 1.499999999999999778, 0.000000000000000000 ) ) ;
#236 = DIRECTION ( 'NONE',  ( 0.000000000000000000, 0.000000000000000000, -1.000000000000000000 ) ) ;
#237 = AXIS2_PLACEMENT_3D ( 'NONE', #11, #93, #83 ) ;
#238 =( GEOMETRIC_REPRESENTATION_CONTEXT ( 3 ) GLOBAL_UNCERTAINTY_ASSIGNED_CONTEXT ( ( #97 ) ) GLOBAL_UNIT_ASSIGNED_CONTEXT ( ( #15, #91, #110 ) ) REPRESENTATION_CONTEXT ( 'NONE', 'WORKASPACE' ) );
#239 = ORIENTED_EDGE ( 'NONE', *, *, #245, .F. ) ;
#240 = PRODUCT_CONTEXT ( 'NONE', #148, 'mechanical' ) ;
#241 =( GEOMETRIC_REPRESENTATION_CONTEXT ( 3 ) GLOBAL_UNCERTAINTY_ASSIGNED_CONTEXT ( ( #159 ) ) GLOBAL_UNIT_ASSIGNED_CONTEXT ( ( #7, #126, #198 ) ) REPRESENTATION_CONTEXT ( 'NONE', 'WORKASPACE' ) );
#242 = DIRECTION ( 'NONE',  ( 0.000000000000000000, 0.000000000000000000, -1.000000000000000000 ) ) ;
#243 = ADVANCED_FACE ( 'NONE', ( #281 ), #139, .T. ) ;
#244 = SURFACE_STYLE_FILL_AREA ( #25 ) ;
#245 = EDGE_CURVE ( 'NONE', #52, #259, #152, .T. ) ;
#246 = FILL_AREA_STYLE_COLOUR ( '', #63 ) ;
#247 = ORIENTED_EDGE ( 'NONE', *, *, #172, .T. ) ;
#248 = AXIS2_PLACEMENT_3D ( 'NONE', #199, #77, #5 ) ;
#249 = DIRECTION ( 'NONE',  ( -0.000000000000000000, -1.000000000000000000, -0.000000000000000000 ) ) ;
#250 = SURFACE_STYLE_USAGE ( .BOTH. , #275 ) ;
#251 = CARTESIAN_POINT ( 'NONE',  ( 7.654042494670957545E-18, 0.000000000000000000, 0.06250000000000000000 ) ) ;
#252 = SURFACE_STYLE_FILL_AREA ( #188 ) ;
#253 = PRESENTATION_LAYER_ASSIGNMENT (  '', '', ( #293 ) ) ;
#254 = ORIENTED_EDGE ( 'NONE', *, *, #33, .T. ) ;
#255 =( CONVERSION_BASED_UNIT ( 'INCH', #9 ) LENGTH_UNIT ( ) NAMED_UNIT ( #54 ) );
#256 = FACE_OUTER_BOUND ( 'NONE', #166, .T. ) ;
#257 = ADVANCED_FACE ( 'NONE', ( #179 ), #64, .T. ) ;
#258 = DIRECTION ( 'NONE',  ( 1.000000000000000000, -2.449293598294706414E-16, 0.000000000000000000 ) ) ;
#259 = VERTEX_POINT ( 'NONE', #211 ) ;
#260 = COLOUR_RGB ( '',1.000000000000000000, 0.000000000000000000, 0.000000000000000000 ) ;
#261 = PRODUCT_DEFINITION_FORMATION_WITH_SPECIFIED_SOURCE ( 'ANY', '', #177, .NOT_KNOWN. ) ;
#262 = CARTESIAN_POINT ( 'NONE',  ( 3.061616997868382155E-16, 1.499999999999999778, 0.000000000000000000 ) ) ;
#263 =( NAMED_UNIT ( * ) PLANE_ANGLE_UNIT ( ) SI_UNIT ( $, .RADIAN. ) );
#264 =( CONVERSION_BASED_UNIT ( 'INCH', #266 ) LENGTH_UNIT ( ) NAMED_UNIT ( #31 ) );
#265 = SURFACE_SIDE_STYLE ('',( #27 ) ) ;
#266 = LENGTH_MEASURE_WITH_UNIT ( LENGTH_MEASURE( 0.02539999999999999897 ), #287 );
#267 = DIRECTION ( 'NONE',  ( 0.000000000000000000, -0.000000000000000000, 1.000000000000000000 ) ) ;
#268 = EDGE_CURVE ( 'NONE', #304, #306, #45, .T. ) ;
#269 = DIRECTION ( 'NONE',  ( -0.000000000000000000, -1.000000000000000000, -0.000000000000000000 ) ) ;
#270 =( GEOMETRIC_REPRESENTATION_CONTEXT ( 3 ) GLOBAL_UNCERTAINTY_ASSIGNED_CONTEXT ( ( #230 ) ) GLOBAL_UNIT_ASSIGNED_CONTEXT ( ( #218, #263, #43 ) ) REPRESENTATION_CONTEXT ( 'NONE', 'WORKASPACE' ) );
#271 = ORIENTED_EDGE ( 'NONE', *, *, #245, .T. ) ;
#272 = DIRECTION ( 'NONE',  ( 0.000000000000000000, 0.000000000000000000, -1.000000000000000000 ) ) ;
#273 = MECHANICAL_DESIGN_GEOMETRIC_PRESENTATION_REPRESENTATION (  '', ( #185 ), #241 ) ;
#274 = SURFACE_SIDE_STYLE ('',( #229 ) ) ;
#275 = SURFACE_SIDE_STYLE ('',( #252 ) ) ;
#276 = ORIENTED_EDGE ( 'NONE', *, *, #268, .T. ) ;
#277 = SURFACE_STYLE_USAGE ( .BOTH. , #165 ) ;
#278 = ORIENTED_EDGE ( 'NONE', *, *, #192, .T. ) ;
#279 = AXIS2_PLACEMENT_3D ( 'NONE', #233, #66, #258 ) ;
#280 = EDGE_LOOP ( 'NONE', ( #276, #247 ) ) ;
#281 = FACE_OUTER_BOUND ( 'NONE', #170, .T. ) ;
#282 = CYLINDRICAL_SURFACE ( 'NONE', #149, 0.06249999999999984734 ) ;
#283 = PLANE ( 'NONE',  #279 ) ;
#284 = LENGTH_MEASURE_WITH_UNIT ( LENGTH_MEASURE( 0.02539999999999999897 ), #46 );
#285 = PRODUCT_DEFINITION_SHAPE ( 'NONE', 'NONE',  #227 ) ;
#286 = SHAPE_DEFINITION_REPRESENTATION ( #285, #147 ) ;
#287 =( LENGTH_UNIT ( ) NAMED_UNIT ( * ) SI_UNIT ( $, .METRE. ) );
#288 = EDGE_CURVE ( 'NONE', #14, #12, #32, .T. ) ;
#289 = CARTESIAN_POINT ( 'NONE',  ( 7.654042494670957545E-18, 0.000000000000000000, 0.06250000000000000000 ) ) ;
#290 = AXIS2_PLACEMENT_3D ( 'NONE', #37, #41, #141 ) ;
#291 = SURFACE_SIDE_STYLE ('',( #244 ) ) ;
#292 = FACE_OUTER_BOUND ( 'NONE', #78, .T. ) ;
#293 = STYLED_ITEM ( 'NONE', ( #225 ), #176 ) ;
#294 = CYLINDRICAL_SURFACE ( 'NONE', #90, 0.06250000000000000000 ) ;
#295 = EDGE_CURVE ( 'NONE', #259, #52, #220, .T. ) ;
#296 =( NAMED_UNIT ( * ) SI_UNIT ( $, .STERADIAN. ) SOLID_ANGLE_UNIT ( ) );
#297 = DIMENSIONAL_EXPONENTS ( 1.000000000000000000, 0.000000000000000000, 0.000000000000000000, 0.000000000000000000, 0.000000000000000000, 0.000000000000000000, 0.000000000000000000 ) ;
#298 = STYLED_ITEM ( 'NONE', ( #174 ), #89 ) ;
#299 = ORIENTED_EDGE ( 'NONE', *, *, #137, .T. ) ;
#300 = CARTESIAN_POINT ( 'NONE',  ( 0.06250000000000001388, 0.2500000000000000555, 7.654042494670948300E-18 ) ) ;
#301 = PLANE ( 'NONE',  #178 ) ;
#302 = LENGTH_MEASURE_WITH_UNIT ( LENGTH_MEASURE( 0.02539999999999999897 ), #160 );
#303 = CIRCLE ( 'NONE', #290, 0.06249999999999970163 ) ;
#304 = VERTEX_POINT ( 'NONE', #119 ) ;
#305 =( NAMED_UNIT ( * ) SI_UNIT ( $, .STERADIAN. ) SOLID_ANGLE_UNIT ( ) );
#306 = VERTEX_POINT ( 'NONE', #289 ) ;
#307 = CARTESIAN_POINT ( 'NONE',  ( 0.000000000000000000, 0.000000000000000000, 0.000000000000000000 ) ) ;
#308 =( NAMED_UNIT ( * ) PLANE_ANGLE_UNIT ( ) SI_UNIT ( $, .RADIAN. ) );
#309 = COLOUR_RGB ( '',1.000000000000000000, 0.000000000000000000, 0.000000000000000000 ) ;
ENDSEC;
END-ISO-10303-21;
