ISO-10303-21;
HEADER;
FILE_DESCRIPTION (( 'STEP AP214' ),
    '1' );
FILE_NAME ('83436.STEP',
    '2023-06-23T10:14:19',
    ( '' ),
    ( '' ),
    'SwSTEP 2.0',
    'SolidWorks 2023',
    '' );
FILE_SCHEMA (( 'AUTOMOTIVE_DESIGN' ));
ENDSEC;

DATA;
#1 =( GEOMETRIC_REPRESENTATION_CONTEXT ( 3 ) GLOBAL_UNCERTAINTY_ASSIGNED_CONTEXT ( ( #120 ) ) GLOBAL_UNIT_ASSIGNED_CONTEXT ( ( #159, #303, #249 ) ) REPRESENTATION_CONTEXT ( 'NONE', 'WORKASPACE' ) );
#2 = CARTESIAN_POINT ( 'NONE',  ( 0.000000000000000000, 1.562500000000000000, -0.1562500000000000000 ) ) ;
#3 = ORIENTED_EDGE ( 'NONE', *, *, #298, .F. ) ;
#4 = CARTESIAN_POINT ( 'NONE',  ( -0.1562500000000000000, 1.562500000000000000, 0.000000000000000000 ) ) ;
#5 = CARTESIAN_POINT ( 'NONE',  ( 1.913510623667739463E-17, 0.000000000000000000, 0.1562500000000000000 ) ) ;
#6 = UNCERTAINTY_MEASURE_WITH_UNIT (LENGTH_MEASURE( 1.000000000000000082E-05 ), #204, 'distance_accuracy_value', 'NONE');
#7 = CARTESIAN_POINT ( 'NONE',  ( 0.000000000000000000, 1.562500000000000000, 0.000000000000000000 ) ) ;
#8 = MECHANICAL_DESIGN_GEOMETRIC_PRESENTATION_REPRESENTATION (  '', ( #183 ), #301 ) ;
#9 = FACE_OUTER_BOUND ( 'NONE', #195, .T. ) ;
#10 =( NAMED_UNIT ( * ) PLANE_ANGLE_UNIT ( ) SI_UNIT ( $, .RADIAN. ) );
#11 = PRESENTATION_STYLE_ASSIGNMENT (( #205 ) ) ;
#12 = APPLICATION_CONTEXT ( 'automotive_design' ) ;
#13 = PRESENTATION_LAYER_ASSIGNMENT (  '', '', ( #82 ) ) ;
#14 = COLOUR_RGB ( '',1.000000000000000000, 0.000000000000000000, 0.000000000000000000 ) ;
#15 = CIRCLE ( 'NONE', #128, 0.1562500000000000000 ) ;
#16 = EDGE_LOOP ( 'NONE', ( #186, #74 ) ) ;
#17 = SURFACE_SIDE_STYLE ('',( #55 ) ) ;
#18 = CARTESIAN_POINT ( 'NONE',  ( 0.000000000000000000, 1.562500000000000000, 0.000000000000000000 ) ) ;
#19 = AXIS2_PLACEMENT_3D ( 'NONE', #95, #97, #293 ) ;
#20 = DIRECTION ( 'NONE',  ( 1.000000000000000000, 0.000000000000000000, 0.000000000000000000 ) ) ;
#21 = VERTEX_POINT ( 'NONE', #65 ) ;
#22 =( LENGTH_UNIT ( ) NAMED_UNIT ( * ) SI_UNIT ( $, .METRE. ) );
#23 = DIRECTION ( 'NONE',  ( -1.000000000000000000, 0.000000000000000000, 0.000000000000000000 ) ) ;
#24 = EDGE_LOOP ( 'NONE', ( #168, #33 ) ) ;
#25 = AXIS2_PLACEMENT_3D ( 'NONE', #261, #191, #291 ) ;
#26 = CARTESIAN_POINT ( 'NONE',  ( 0.1562499999999999445, 4.000000000000000000, 1.913510623667740080E-17 ) ) ;
#27 = ORIENTED_EDGE ( 'NONE', *, *, #71, .F. ) ;
#28 = DIRECTION ( 'NONE',  ( -1.000000000000000000, 0.000000000000000000, 0.000000000000000000 ) ) ;
#29 = CARTESIAN_POINT ( 'NONE',  ( -1.224646799147352714E-16, 4.000000000000000000, 0.000000000000000000 ) ) ;
#30 = SURFACE_STYLE_USAGE ( .BOTH. , #37 ) ;
#31 =( CONVERSION_BASED_UNIT ( 'INCH', #173 ) LENGTH_UNIT ( ) NAMED_UNIT ( #41 ) );
#32 = PLANE ( 'NONE',  #277 ) ;
#33 = ORIENTED_EDGE ( 'NONE', *, *, #71, .T. ) ;
#34 = CARTESIAN_POINT ( 'NONE',  ( 0.000000000000000000, 0.000000000000000000, 0.000000000000000000 ) ) ;
#35 = PRODUCT_RELATED_PRODUCT_CATEGORY ( 'part', '', ( #304 ) ) ;
#36 = PRESENTATION_LAYER_ASSIGNMENT (  '', '', ( #183 ) ) ;
#37 = SURFACE_SIDE_STYLE ('',( #276 ) ) ;
#38 = LENGTH_MEASURE_WITH_UNIT ( LENGTH_MEASURE( 0.02539999999999999897 ), #50 );
#39 =( GEOMETRIC_REPRESENTATION_CONTEXT ( 3 ) GLOBAL_UNCERTAINTY_ASSIGNED_CONTEXT ( ( #252 ) ) GLOBAL_UNIT_ASSIGNED_CONTEXT ( ( #302, #137, #40 ) ) REPRESENTATION_CONTEXT ( 'NONE', 'WORKASPACE' ) );
#40 =( NAMED_UNIT ( * ) SI_UNIT ( $, .STERADIAN. ) SOLID_ANGLE_UNIT ( ) );
#41 = DIMENSIONAL_EXPONENTS ( 1.000000000000000000, 0.000000000000000000, 0.000000000000000000, 0.000000000000000000, 0.000000000000000000, 0.000000000000000000, 0.000000000000000000 ) ;
#42 = ORIENTED_EDGE ( 'NONE', *, *, #181, .T. ) ;
#43 = DIRECTION ( 'NONE',  ( -1.000000000000000000, -5.024191996501958731E-17, 0.000000000000000000 ) ) ;
#44 = APPLICATION_PROTOCOL_DEFINITION ( 'draft international standard', 'automotive_design', 1998, #12 ) ;
#45 = PRESENTATION_STYLE_ASSIGNMENT (( #153 ) ) ;
#46 = SURFACE_STYLE_FILL_AREA ( #122 ) ;
#47 = AXIS2_PLACEMENT_3D ( 'NONE', #266, #58, #23 ) ;
#48 =( GEOMETRIC_REPRESENTATION_CONTEXT ( 3 ) GLOBAL_UNCERTAINTY_ASSIGNED_CONTEXT ( ( #149 ) ) GLOBAL_UNIT_ASSIGNED_CONTEXT ( ( #253, #108, #228 ) ) REPRESENTATION_CONTEXT ( 'NONE', 'WORKASPACE' ) );
#49 = ADVANCED_FACE ( 'NONE', ( #114 ), #165, .T. ) ;
#50 =( LENGTH_UNIT ( ) NAMED_UNIT ( * ) SI_UNIT ( $, .METRE. ) );
#51 = CARTESIAN_POINT ( 'NONE',  ( 1.913510623667739463E-17, 1.562500000000000000, 0.1562500000000000000 ) ) ;
#52 =( NAMED_UNIT ( * ) PLANE_ANGLE_UNIT ( ) SI_UNIT ( $, .RADIAN. ) );
#53 = DIRECTION ( 'NONE',  ( -5.024191996501959347E-17, 1.000000000000000000, -0.000000000000000000 ) ) ;
#54 = CARTESIAN_POINT ( 'NONE',  ( 0.000000000000000000, 1.562500000000000000, 0.000000000000000000 ) ) ;
#55 = SURFACE_STYLE_FILL_AREA ( #272 ) ;
#56 =( NAMED_UNIT ( * ) SI_UNIT ( $, .STERADIAN. ) SOLID_ANGLE_UNIT ( ) );
#57 = CARTESIAN_POINT ( 'NONE',  ( 0.1562500000000000000, 1.562500000000000000, 1.913510623667740388E-17 ) ) ;
#58 = DIRECTION ( 'NONE',  ( -5.024191996501959347E-17, 1.000000000000000000, -0.000000000000000000 ) ) ;
#59 = CIRCLE ( 'NONE', #79, 0.1562500000000001388 ) ;
#60 = AXIS2_PLACEMENT_3D ( 'NONE', #18, #289, #219 ) ;
#61 = CARTESIAN_POINT ( 'NONE',  ( 0.000000000000000000, 0.000000000000000000, 0.000000000000000000 ) ) ;
#62 = CARTESIAN_POINT ( 'NONE',  ( 0.000000000000000000, 0.000000000000000000, 0.000000000000000000 ) ) ;
#63 = DIMENSIONAL_EXPONENTS ( 1.000000000000000000, 0.000000000000000000, 0.000000000000000000, 0.000000000000000000, 0.000000000000000000, 0.000000000000000000, 0.000000000000000000 ) ;
#64 = FACE_OUTER_BOUND ( 'NONE', #16, .T. ) ;
#65 = CARTESIAN_POINT ( 'NONE',  ( 0.1562500000000000000, 4.000000000000000000, 1.913510623667740388E-17 ) ) ;
#66 = PRESENTATION_STYLE_ASSIGNMENT (( #235 ) ) ;
#67 = DIRECTION ( 'NONE',  ( -0.000000000000000000, -1.000000000000000000, -0.000000000000000000 ) ) ;
#68 = SURFACE_STYLE_USAGE ( .BOTH. , #286 ) ;
#69 =( GEOMETRIC_REPRESENTATION_CONTEXT ( 3 ) GLOBAL_UNCERTAINTY_ASSIGNED_CONTEXT ( ( #6 ) ) GLOBAL_UNIT_ASSIGNED_CONTEXT ( ( #204, #103, #56 ) ) REPRESENTATION_CONTEXT ( 'NONE', 'WORKASPACE' ) );
#70 = VERTEX_POINT ( 'NONE', #51 ) ;
#71 = EDGE_CURVE ( 'NONE', #21, #113, #59, .T. ) ;
#72 = LINE ( 'NONE', #267, #230 ) ;
#73 = LENGTH_MEASURE_WITH_UNIT ( LENGTH_MEASURE( 0.02539999999999999897 ), #129 );
#74 = ORIENTED_EDGE ( 'NONE', *, *, #288, .T. ) ;
#75 = COLOUR_RGB ( '',1.000000000000000000, 0.000000000000000000, 0.000000000000000000 ) ;
#76 = DIRECTION ( 'NONE',  ( -5.024191996501959347E-17, 1.000000000000000000, -0.000000000000000000 ) ) ;
#77 = FILL_AREA_STYLE_COLOUR ( '', #202 ) ;
#78 = UNCERTAINTY_MEASURE_WITH_UNIT (LENGTH_MEASURE( 1.000000000000000082E-05 ), #295, 'distance_accuracy_value', 'NONE');
#79 = AXIS2_PLACEMENT_3D ( 'NONE', #29, #53, #156 ) ;
#80 = FILL_AREA_STYLE ('',( #100 ) ) ;
#81 = DIRECTION ( 'NONE',  ( -1.000000000000000000, 0.000000000000000000, 0.000000000000000000 ) ) ;
#82 = STYLED_ITEM ( 'NONE', ( #297 ), #49 ) ;
#83 = DIRECTION ( 'NONE',  ( 0.000000000000000000, 0.000000000000000000, -1.000000000000000000 ) ) ;
#84 = CIRCLE ( 'NONE', #236, 0.1562500000000000000 ) ;
#85 = COLOUR_RGB ( '',1.000000000000000000, 0.000000000000000000, 0.000000000000000000 ) ;
#86 = EDGE_LOOP ( 'NONE', ( #187, #284, #116, #171 ) ) ;
#87 = CARTESIAN_POINT ( 'NONE',  ( 0.000000000000000000, 1.562500000000000000, 0.000000000000000000 ) ) ;
#88 = APPLICATION_CONTEXT ( 'automotive_design' ) ;
#89 = PRODUCT_DEFINITION_SHAPE ( 'NONE', 'NONE',  #152 ) ;
#90 = FILL_AREA_STYLE ('',( #254 ) ) ;
#91 = STYLED_ITEM ( 'NONE', ( #140 ), #115 ) ;
#92 = PLANE ( 'NONE',  #162 ) ;
#93 = CARTESIAN_POINT ( 'NONE',  ( -1.224646799147352714E-16, 4.000000000000000000, 0.000000000000000000 ) ) ;
#94 = FACE_OUTER_BOUND ( 'NONE', #24, .T. ) ;
#95 = CARTESIAN_POINT ( 'NONE',  ( 0.000000000000000000, 0.000000000000000000, 0.000000000000000000 ) ) ;
#96 = MECHANICAL_DESIGN_GEOMETRIC_PRESENTATION_REPRESENTATION (  '', ( #222 ), #39 ) ;
#97 = DIRECTION ( 'NONE',  ( -0.000000000000000000, -1.000000000000000000, -0.000000000000000000 ) ) ;
#98 = LENGTH_MEASURE_WITH_UNIT ( LENGTH_MEASURE( 0.02539999999999999897 ), #22 );
#99 =( NAMED_UNIT ( * ) PLANE_ANGLE_UNIT ( ) SI_UNIT ( $, .RADIAN. ) );
#100 = FILL_AREA_STYLE_COLOUR ( '', #85 ) ;
#101 = SURFACE_STYLE_USAGE ( .BOTH. , #17 ) ;
#102 =( NAMED_UNIT ( * ) SI_UNIT ( $, .STERADIAN. ) SOLID_ANGLE_UNIT ( ) );
#103 =( NAMED_UNIT ( * ) PLANE_ANGLE_UNIT ( ) SI_UNIT ( $, .RADIAN. ) );
#104 = DIMENSIONAL_EXPONENTS ( 1.000000000000000000, 0.000000000000000000, 0.000000000000000000, 0.000000000000000000, 0.000000000000000000, 0.000000000000000000, 0.000000000000000000 ) ;
#105 =( LENGTH_UNIT ( ) NAMED_UNIT ( * ) SI_UNIT ( $, .METRE. ) );
#106 = STYLED_ITEM ( 'NONE', ( #11 ), #268 ) ;
#107 = DIMENSIONAL_EXPONENTS ( 1.000000000000000000, 0.000000000000000000, 0.000000000000000000, 0.000000000000000000, 0.000000000000000000, 0.000000000000000000, 0.000000000000000000 ) ;
#108 =( NAMED_UNIT ( * ) PLANE_ANGLE_UNIT ( ) SI_UNIT ( $, .RADIAN. ) );
#109 = CARTESIAN_POINT ( 'NONE',  ( 0.000000000000000000, 1.562500000000000000, 0.000000000000000000 ) ) ;
#110 = CIRCLE ( 'NONE', #60, 0.1562500000000000000 ) ;
#111 = DIRECTION ( 'NONE',  ( 0.000000000000000000, 0.000000000000000000, -1.000000000000000000 ) ) ;
#112 = MECHANICAL_DESIGN_GEOMETRIC_PRESENTATION_REPRESENTATION (  '', ( #106 ), #203 ) ;
#113 = VERTEX_POINT ( 'NONE', #246 ) ;
#114 = FACE_OUTER_BOUND ( 'NONE', #147, .T. ) ;
#115 = ADVANCED_FACE ( 'NONE', ( #9 ), #294, .T. ) ;
#116 = ORIENTED_EDGE ( 'NONE', *, *, #125, .F. ) ;
#117 = DIRECTION ( 'NONE',  ( -5.024191996501958731E-17, 1.000000000000000000, -0.000000000000000000 ) ) ;
#118 = VERTEX_POINT ( 'NONE', #148 ) ;
#119 = PRESENTATION_LAYER_ASSIGNMENT (  '', '', ( #222 ) ) ;
#120 = UNCERTAINTY_MEASURE_WITH_UNIT (LENGTH_MEASURE( 1.000000000000000082E-05 ), #159, 'distance_accuracy_value', 'NONE');
#121 = ORIENTED_EDGE ( 'NONE', *, *, #281, .T. ) ;
#122 = FILL_AREA_STYLE ('',( #77 ) ) ;
#123 = PRESENTATION_LAYER_ASSIGNMENT (  '', '', ( #257 ) ) ;
#124 = VERTEX_POINT ( 'NONE', #135 ) ;
#125 = EDGE_CURVE ( 'NONE', #113, #21, #282, .T. ) ;
#126 = CIRCLE ( 'NONE', #25, 0.1562500000000000000 ) ;
#127 = PRESENTATION_STYLE_ASSIGNMENT (( #30 ) ) ;
#128 = AXIS2_PLACEMENT_3D ( 'NONE', #34, #176, #155 ) ;
#129 =( LENGTH_UNIT ( ) NAMED_UNIT ( * ) SI_UNIT ( $, .METRE. ) );
#130 = DIRECTION ( 'NONE',  ( 0.000000000000000000, -0.000000000000000000, 1.000000000000000000 ) ) ;
#131 = CYLINDRICAL_SURFACE ( 'NONE', #185, 0.1562500000000000000 ) ;
#132 = ADVANCED_FACE ( 'NONE', ( #139 ), #170, .T. ) ;
#133 =( LENGTH_UNIT ( ) NAMED_UNIT ( * ) SI_UNIT ( $, .METRE. ) );
#134 = CIRCLE ( 'NONE', #169, 0.1562500000000000000 ) ;
#135 = CARTESIAN_POINT ( 'NONE',  ( 0.000000000000000000, 0.000000000000000000, -0.1562500000000000000 ) ) ;
#136 = SURFACE_SIDE_STYLE ('',( #275 ) ) ;
#137 =( NAMED_UNIT ( * ) PLANE_ANGLE_UNIT ( ) SI_UNIT ( $, .RADIAN. ) );
#138 = DIMENSIONAL_EXPONENTS ( 1.000000000000000000, 0.000000000000000000, 0.000000000000000000, 0.000000000000000000, 0.000000000000000000, 0.000000000000000000, 0.000000000000000000 ) ;
#139 = FACE_OUTER_BOUND ( 'NONE', #86, .T. ) ;
#140 = PRESENTATION_STYLE_ASSIGNMENT (( #101 ) ) ;
#141 = EDGE_LOOP ( 'NONE', ( #3, #190 ) ) ;
#142 = SHAPE_DEFINITION_REPRESENTATION ( #89, #177 ) ;
#143 = FILL_AREA_STYLE_COLOUR ( '', #264 ) ;
#144 = AXIS2_PLACEMENT_3D ( 'NONE', #61, #163, #231 ) ;
#145 = EDGE_LOOP ( 'NONE', ( #285, #247, #256, #27 ) ) ;
#146 =( LENGTH_UNIT ( ) NAMED_UNIT ( * ) SI_UNIT ( $, .METRE. ) );
#147 = EDGE_LOOP ( 'NONE', ( #273, #274, #121, #307 ) ) ;
#148 = CARTESIAN_POINT ( 'NONE',  ( 1.913510623667739463E-17, 0.000000000000000000, 0.1562500000000000000 ) ) ;
#149 = UNCERTAINTY_MEASURE_WITH_UNIT (LENGTH_MEASURE( 1.000000000000000082E-05 ), #253, 'distance_accuracy_value', 'NONE');
#150 = PRESENTATION_LAYER_ASSIGNMENT (  '', '', ( #91 ) ) ;
#151 = DIRECTION ( 'NONE',  ( -5.024191996501958731E-17, 1.000000000000000000, -0.000000000000000000 ) ) ;
#152 = PRODUCT_DEFINITION ( 'UNKNOWN', '', #240, #225 ) ;
#153 = SURFACE_STYLE_USAGE ( .BOTH. , #218 ) ;
#154 =( NAMED_UNIT ( * ) SI_UNIT ( $, .STERADIAN. ) SOLID_ANGLE_UNIT ( ) );
#155 = DIRECTION ( 'NONE',  ( 0.000000000000000000, 0.000000000000000000, -1.000000000000000000 ) ) ;
#156 = DIRECTION ( 'NONE',  ( -1.000000000000000000, 0.000000000000000000, 0.000000000000000000 ) ) ;
#157 = DIRECTION ( 'NONE',  ( -5.024191996501959347E-17, 1.000000000000000000, -0.000000000000000000 ) ) ;
#158 = ORIENTED_EDGE ( 'NONE', *, *, #220, .T. ) ;
#159 =( CONVERSION_BASED_UNIT ( 'INCH', #38 ) LENGTH_UNIT ( ) NAMED_UNIT ( #63 ) );
#160 = FILL_AREA_STYLE ('',( #178 ) ) ;
#161 = CLOSED_SHELL ( 'NONE', ( #308, #115, #49, #189 ) ) ;
#162 = AXIS2_PLACEMENT_3D ( 'NONE', #258, #172, #221 ) ;
#163 = DIRECTION ( 'NONE',  ( 0.000000000000000000, -1.000000000000000000, -0.000000000000000000 ) ) ;
#164 = PRODUCT_CONTEXT ( 'NONE', #12, 'mechanical' ) ;
#165 = CYLINDRICAL_SURFACE ( 'NONE', #19, 0.1562500000000000000 ) ;
#166 = ADVANCED_FACE ( 'NONE', ( #292 ), #32, .F. ) ;
#167 = CARTESIAN_POINT ( 'NONE',  ( 0.000000000000000000, 0.000000000000000000, 0.000000000000000000 ) ) ;
#168 = ORIENTED_EDGE ( 'NONE', *, *, #125, .T. ) ;
#169 = AXIS2_PLACEMENT_3D ( 'NONE', #7, #262, #198 ) ;
#170 = CYLINDRICAL_SURFACE ( 'NONE', #47, 0.1562500000000000833 ) ;
#171 = ORIENTED_EDGE ( 'NONE', *, *, #251, .F. ) ;
#172 = DIRECTION ( 'NONE',  ( 5.024191996501958731E-17, -1.000000000000000000, 0.000000000000000000 ) ) ;
#173 = LENGTH_MEASURE_WITH_UNIT ( LENGTH_MEASURE( 0.02539999999999999897 ), #201 );
#174 = FILL_AREA_STYLE_COLOUR ( '', #14 ) ;
#175 = AXIS2_PLACEMENT_3D ( 'NONE', #87, #241, #130 ) ;
#176 = DIRECTION ( 'NONE',  ( -0.000000000000000000, -1.000000000000000000, -0.000000000000000000 ) ) ;
#177 = ADVANCED_BREP_SHAPE_REPRESENTATION ( '83436', ( #268, #255, #265 ), #48 ) ;
#178 = FILL_AREA_STYLE_COLOUR ( '', #245 ) ;
#179 = DIRECTION ( 'NONE',  ( -1.000000000000000000, 0.000000000000000000, 0.000000000000000000 ) ) ;
#180 = LENGTH_MEASURE_WITH_UNIT ( LENGTH_MEASURE( 0.02539999999999999897 ), #133 );
#181 = EDGE_CURVE ( 'NONE', #209, #70, #84, .T. ) ;
#182 = AXIS2_PLACEMENT_3D ( 'NONE', #93, #76, #28 ) ;
#183 = STYLED_ITEM ( 'NONE', ( #127 ), #308 ) ;
#184 = MECHANICAL_DESIGN_GEOMETRIC_PRESENTATION_REPRESENTATION (  '', ( #82 ), #239 ) ;
#185 = AXIS2_PLACEMENT_3D ( 'NONE', #62, #67, #111 ) ;
#186 = ORIENTED_EDGE ( 'NONE', *, *, #233, .T. ) ;
#187 = ORIENTED_EDGE ( 'NONE', *, *, #298, .T. ) ;
#188 = PLANE ( 'NONE',  #144 ) ;
#189 = ADVANCED_FACE ( 'NONE', ( #64 ), #188, .T. ) ;
#190 = ORIENTED_EDGE ( 'NONE', *, *, #238, .F. ) ;
#191 = DIRECTION ( 'NONE',  ( -0.000000000000000000, -1.000000000000000000, -0.000000000000000000 ) ) ;
#192 = PRESENTATION_LAYER_ASSIGNMENT (  '', '', ( #106 ) ) ;
#193 = CIRCLE ( 'NONE', #278, 0.1562500000000000000 ) ;
#194 = DIRECTION ( 'NONE',  ( 0.000000000000000000, 0.000000000000000000, 1.000000000000000000 ) ) ;
#195 = EDGE_LOOP ( 'NONE', ( #217, #214 ) ) ;
#196 = CYLINDRICAL_SURFACE ( 'NONE', #182, 0.1562500000000000833 ) ;
#197 = EDGE_CURVE ( 'NONE', #70, #209, #110, .T. ) ;
#198 = DIRECTION ( 'NONE',  ( -1.000000000000000000, 0.000000000000000000, 0.000000000000000000 ) ) ;
#199 =( CONVERSION_BASED_UNIT ( 'INCH', #73 ) LENGTH_UNIT ( ) NAMED_UNIT ( #107 ) );
#200 = DIRECTION ( 'NONE',  ( -0.000000000000000000, -1.000000000000000000, -0.000000000000000000 ) ) ;
#201 =( LENGTH_UNIT ( ) NAMED_UNIT ( * ) SI_UNIT ( $, .METRE. ) );
#202 = COLOUR_RGB ( '',0.7921568627450980005, 0.8196078431372548767, 0.9333333333333333481 ) ;
#203 =( GEOMETRIC_REPRESENTATION_CONTEXT ( 3 ) GLOBAL_UNCERTAINTY_ASSIGNED_CONTEXT ( ( #78 ) ) GLOBAL_UNIT_ASSIGNED_CONTEXT ( ( #295, #52, #102 ) ) REPRESENTATION_CONTEXT ( 'NONE', 'WORKASPACE' ) );
#204 =( CONVERSION_BASED_UNIT ( 'INCH', #98 ) LENGTH_UNIT ( ) NAMED_UNIT ( #213 ) );
#205 = SURFACE_STYLE_USAGE ( .BOTH. , #136 ) ;
#206 = LENGTH_MEASURE_WITH_UNIT ( LENGTH_MEASURE( 0.02539999999999999897 ), #105 );
#207 = ORIENTED_EDGE ( 'NONE', *, *, #233, .F. ) ;
#208 = APPLICATION_PROTOCOL_DEFINITION ( 'draft international standard', 'automotive_design', 1998, #88 ) ;
#209 = VERTEX_POINT ( 'NONE', #2 ) ;
#210 = VECTOR ( 'NONE', #299, 39.37007874015748143 ) ;
#211 = ORIENTED_EDGE ( 'NONE', *, *, #281, .F. ) ;
#212 = EDGE_CURVE ( 'NONE', #290, #21, #237, .T. ) ;
#213 = DIMENSIONAL_EXPONENTS ( 1.000000000000000000, 0.000000000000000000, 0.000000000000000000, 0.000000000000000000, 0.000000000000000000, 0.000000000000000000, 0.000000000000000000 ) ;
#214 = ORIENTED_EDGE ( 'NONE', *, *, #197, .F. ) ;
#215 = LINE ( 'NONE', #5, #259 ) ;
#216 = MECHANICAL_DESIGN_GEOMETRIC_PRESENTATION_REPRESENTATION (  '', ( #91 ), #1 ) ;
#217 = ORIENTED_EDGE ( 'NONE', *, *, #181, .F. ) ;
#218 = SURFACE_SIDE_STYLE ('',( #46 ) ) ;
#219 = DIRECTION ( 'NONE',  ( 0.000000000000000000, 0.000000000000000000, -1.000000000000000000 ) ) ;
#220 = EDGE_CURVE ( 'NONE', #70, #118, #215, .T. ) ;
#221 = DIRECTION ( 'NONE',  ( 1.000000000000000000, 5.024191996501958731E-17, 0.000000000000000000 ) ) ;
#222 = STYLED_ITEM ( 'NONE', ( #66 ), #189 ) ;
#223 = CARTESIAN_POINT ( 'NONE',  ( 0.000000000000000000, 0.000000000000000000, -0.1562500000000000000 ) ) ;
#224 = ADVANCED_FACE ( 'NONE', ( #94 ), #92, .F. ) ;
#225 = PRODUCT_DEFINITION_CONTEXT ( 'detailed design', #88, 'design' ) ;
#226 =( NAMED_UNIT ( * ) SI_UNIT ( $, .STERADIAN. ) SOLID_ANGLE_UNIT ( ) );
#227 = LINE ( 'NONE', #223, #210 ) ;
#228 =( NAMED_UNIT ( * ) SI_UNIT ( $, .STERADIAN. ) SOLID_ANGLE_UNIT ( ) );
#229 = FILL_AREA_STYLE ('',( #143 ) ) ;
#230 = VECTOR ( 'NONE', #151, 39.37007874015748143 ) ;
#231 = DIRECTION ( 'NONE',  ( 0.000000000000000000, 0.000000000000000000, -1.000000000000000000 ) ) ;
#232 = LENGTH_MEASURE_WITH_UNIT ( LENGTH_MEASURE( 0.02539999999999999897 ), #146 );
#233 = EDGE_CURVE ( 'NONE', #124, #118, #126, .T. ) ;
#234 = EDGE_LOOP ( 'NONE', ( #42, #158, #207, #211 ) ) ;
#235 = SURFACE_STYLE_USAGE ( .BOTH. , #279 ) ;
#236 = AXIS2_PLACEMENT_3D ( 'NONE', #109, #309, #83 ) ;
#237 = LINE ( 'NONE', #26, #296 ) ;
#238 = EDGE_CURVE ( 'NONE', #290, #248, #134, .T. ) ;
#239 =( GEOMETRIC_REPRESENTATION_CONTEXT ( 3 ) GLOBAL_UNCERTAINTY_ASSIGNED_CONTEXT ( ( #243 ) ) GLOBAL_UNIT_ASSIGNED_CONTEXT ( ( #199, #99, #154 ) ) REPRESENTATION_CONTEXT ( 'NONE', 'WORKASPACE' ) );
#240 = PRODUCT_DEFINITION_FORMATION_WITH_SPECIFIED_SOURCE ( 'ANY', '', #304, .NOT_KNOWN. ) ;
#241 = DIRECTION ( 'NONE',  ( 0.000000000000000000, 1.000000000000000000, 0.000000000000000000 ) ) ;
#242 = FACE_OUTER_BOUND ( 'NONE', #145, .T. ) ;
#243 = UNCERTAINTY_MEASURE_WITH_UNIT (LENGTH_MEASURE( 1.000000000000000082E-05 ), #199, 'distance_accuracy_value', 'NONE');
#244 = FACE_OUTER_BOUND ( 'NONE', #234, .T. ) ;
#245 = COLOUR_RGB ( '',0.7921568627450980005, 0.8196078431372548767, 0.9333333333333333481 ) ;
#246 = CARTESIAN_POINT ( 'NONE',  ( -0.1562500000000002776, 4.000000000000000000, 0.000000000000000000 ) ) ;
#247 = ORIENTED_EDGE ( 'NONE', *, *, #238, .T. ) ;
#248 = VERTEX_POINT ( 'NONE', #4 ) ;
#249 =( NAMED_UNIT ( * ) SI_UNIT ( $, .STERADIAN. ) SOLID_ANGLE_UNIT ( ) );
#250 = ADVANCED_FACE ( 'NONE', ( #242 ), #196, .T. ) ;
#251 = EDGE_CURVE ( 'NONE', #248, #113, #72, .T. ) ;
#252 = UNCERTAINTY_MEASURE_WITH_UNIT (LENGTH_MEASURE( 1.000000000000000082E-05 ), #302, 'distance_accuracy_value', 'NONE');
#253 =( CONVERSION_BASED_UNIT ( 'INCH', #232 ) LENGTH_UNIT ( ) NAMED_UNIT ( #104 ) );
#254 = FILL_AREA_STYLE_COLOUR ( '', #75 ) ;
#255 = MANIFOLD_SOLID_BREP ( 'Revolve - Tool Body (Straight Shanked)', #271 ) ;
#256 = ORIENTED_EDGE ( 'NONE', *, *, #251, .T. ) ;
#257 = STYLED_ITEM ( 'NONE', ( #45 ), #255 ) ;
#258 = CARTESIAN_POINT ( 'NONE',  ( 0.1562500000000000000, 4.000000000000000000, 0.000000000000000000 ) ) ;
#259 = VECTOR ( 'NONE', #200, 39.37007874015748143 ) ;
#260 = SURFACE_STYLE_FILL_AREA ( #90 ) ;
#261 = CARTESIAN_POINT ( 'NONE',  ( 0.000000000000000000, 0.000000000000000000, 0.000000000000000000 ) ) ;
#262 = DIRECTION ( 'NONE',  ( -5.024191996501959347E-17, 1.000000000000000000, -0.000000000000000000 ) ) ;
#263 = DIRECTION ( 'NONE',  ( -5.024191996501959347E-17, 1.000000000000000000, -0.000000000000000000 ) ) ;
#264 = COLOUR_RGB ( '',1.000000000000000000, 0.000000000000000000, 0.000000000000000000 ) ;
#265 = AXIS2_PLACEMENT_3D ( 'NONE', #167, #194, #20 ) ;
#266 = CARTESIAN_POINT ( 'NONE',  ( -1.224646799147352714E-16, 4.000000000000000000, 0.000000000000000000 ) ) ;
#267 = CARTESIAN_POINT ( 'NONE',  ( -0.1562500000000002220, 4.000000000000000000, 0.000000000000000000 ) ) ;
#268 = MANIFOLD_SOLID_BREP ( 'Revolve - Cutting Edge', #161 ) ;
#269 = DIRECTION ( 'NONE',  ( -5.024191996501958731E-17, 1.000000000000000000, 0.000000000000000000 ) ) ;
#270 = UNCERTAINTY_MEASURE_WITH_UNIT (LENGTH_MEASURE( 1.000000000000000082E-05 ), #31, 'distance_accuracy_value', 'NONE');
#271 = CLOSED_SHELL ( 'NONE', ( #132, #166, #250, #224 ) ) ;
#272 = FILL_AREA_STYLE ('',( #174 ) ) ;
#273 = ORIENTED_EDGE ( 'NONE', *, *, #220, .F. ) ;
#274 = ORIENTED_EDGE ( 'NONE', *, *, #197, .T. ) ;
#275 = SURFACE_STYLE_FILL_AREA ( #160 ) ;
#276 = SURFACE_STYLE_FILL_AREA ( #80 ) ;
#277 = AXIS2_PLACEMENT_3D ( 'NONE', #306, #269, #43 ) ;
#278 = AXIS2_PLACEMENT_3D ( 'NONE', #54, #157, #81 ) ;
#279 = SURFACE_SIDE_STYLE ('',( #283 ) ) ;
#280 = CARTESIAN_POINT ( 'NONE',  ( -1.224646799147352714E-16, 4.000000000000000000, 0.000000000000000000 ) ) ;
#281 = EDGE_CURVE ( 'NONE', #209, #124, #227, .T. ) ;
#282 = CIRCLE ( 'NONE', #287, 0.1562500000000001388 ) ;
#283 = SURFACE_STYLE_FILL_AREA ( #229 ) ;
#284 = ORIENTED_EDGE ( 'NONE', *, *, #212, .T. ) ;
#285 = ORIENTED_EDGE ( 'NONE', *, *, #212, .F. ) ;
#286 = SURFACE_SIDE_STYLE ('',( #260 ) ) ;
#287 = AXIS2_PLACEMENT_3D ( 'NONE', #280, #263, #179 ) ;
#288 = EDGE_CURVE ( 'NONE', #118, #124, #15, .T. ) ;
#289 = DIRECTION ( 'NONE',  ( -0.000000000000000000, -1.000000000000000000, -0.000000000000000000 ) ) ;
#290 = VERTEX_POINT ( 'NONE', #57 ) ;
#291 = DIRECTION ( 'NONE',  ( 0.000000000000000000, 0.000000000000000000, -1.000000000000000000 ) ) ;
#292 = FACE_OUTER_BOUND ( 'NONE', #141, .T. ) ;
#293 = DIRECTION ( 'NONE',  ( 0.000000000000000000, 0.000000000000000000, -1.000000000000000000 ) ) ;
#294 = PLANE ( 'NONE',  #175 ) ;
#295 =( CONVERSION_BASED_UNIT ( 'INCH', #180 ) LENGTH_UNIT ( ) NAMED_UNIT ( #138 ) );
#296 = VECTOR ( 'NONE', #117, 39.37007874015748143 ) ;
#297 = PRESENTATION_STYLE_ASSIGNMENT (( #68 ) ) ;
#298 = EDGE_CURVE ( 'NONE', #248, #290, #193, .T. ) ;
#299 = DIRECTION ( 'NONE',  ( -0.000000000000000000, -1.000000000000000000, -0.000000000000000000 ) ) ;
#300 = MECHANICAL_DESIGN_GEOMETRIC_PRESENTATION_REPRESENTATION (  '', ( #257 ), #69 ) ;
#301 =( GEOMETRIC_REPRESENTATION_CONTEXT ( 3 ) GLOBAL_UNCERTAINTY_ASSIGNED_CONTEXT ( ( #270 ) ) GLOBAL_UNIT_ASSIGNED_CONTEXT ( ( #31, #10, #226 ) ) REPRESENTATION_CONTEXT ( 'NONE', 'WORKASPACE' ) );
#302 =( CONVERSION_BASED_UNIT ( 'INCH', #206 ) LENGTH_UNIT ( ) NAMED_UNIT ( #305 ) );
#303 =( NAMED_UNIT ( * ) PLANE_ANGLE_UNIT ( ) SI_UNIT ( $, .RADIAN. ) );
#304 = PRODUCT ( '83436', '83436', '', ( #164 ) ) ;
#305 = DIMENSIONAL_EXPONENTS ( 1.000000000000000000, 0.000000000000000000, 0.000000000000000000, 0.000000000000000000, 0.000000000000000000, 0.000000000000000000, 0.000000000000000000 ) ;
#306 = CARTESIAN_POINT ( 'NONE',  ( 1.972070720133933243E-34, 1.562500000000000000, 0.000000000000000000 ) ) ;
#307 = ORIENTED_EDGE ( 'NONE', *, *, #288, .F. ) ;
#308 = ADVANCED_FACE ( 'NONE', ( #244 ), #131, .T. ) ;
#309 = DIRECTION ( 'NONE',  ( -0.000000000000000000, -1.000000000000000000, -0.000000000000000000 ) ) ;
ENDSEC;
END-ISO-10303-21;
