ISO-10303-21;
HEADER;
FILE_DESCRIPTION (( 'STEP AP214' ),
    '1' );
FILE_NAME ('12112.STEP',
    '2023-06-30T21:50:54',
    ( '' ),
    ( '' ),
    'SwSTEP 2.0',
    'SolidWorks 2023',
    '' );
FILE_SCHEMA (( 'AUTOMOTIVE_DESIGN' ));
ENDSEC;

DATA;
#1 =( LENGTH_UNIT ( ) NAMED_UNIT ( * ) SI_UNIT ( $, .METRE. ) );
#2 = SURFACE_STYLE_USAGE ( .BOTH. , #24 ) ;
#3 = MECHANICAL_DESIGN_GEOMETRIC_PRESENTATION_REPRESENTATION (  '', ( #73 ), #150 ) ;
#4 =( GEOMETRIC_REPRESENTATION_CONTEXT ( 3 ) GLOBAL_UNCERTAINTY_ASSIGNED_CONTEXT ( ( #331 ) ) GLOBAL_UNIT_ASSIGNED_CONTEXT ( ( #222, #357, #188 ) ) REPRESENTATION_CONTEXT ( 'NONE', 'WORKASPACE' ) );
#5 = ORIENTED_EDGE ( 'NONE', *, *, #83, .F. ) ;
#6 =( NAMED_UNIT ( * ) SI_UNIT ( $, .STERADIAN. ) SOLID_ANGLE_UNIT ( ) );
#7 = LINE ( 'NONE', #128, #31 ) ;
#8 = COLOUR_RGB ( '',1.000000000000000000, 0.000000000000000000, 0.000000000000000000 ) ;
#9 =( NAMED_UNIT ( * ) SI_UNIT ( $, .STERADIAN. ) SOLID_ANGLE_UNIT ( ) );
#10 = SURFACE_SIDE_STYLE ('',( #91 ) ) ;
#11 = AXIS2_PLACEMENT_3D ( 'NONE', #123, #99, #39 ) ;
#12 = ADVANCED_FACE ( 'NONE', ( #353 ), #163, .T. ) ;
#13 = LENGTH_MEASURE_WITH_UNIT ( LENGTH_MEASURE( 0.02539999999999999897 ), #55 );
#14 = CARTESIAN_POINT ( 'NONE',  ( -6.123233995736766036E-17, 2.500000000000000000, 0.000000000000000000 ) ) ;
#15 = CYLINDRICAL_SURFACE ( 'NONE', #62, 0.1249999999999999584 ) ;
#16 = EDGE_LOOP ( 'NONE', ( #334, #166, #50, #164, #246 ) ) ;
#17 = CARTESIAN_POINT ( 'NONE',  ( -7.654042494670957545E-18, 0.000000000000000000, 0.000000000000000000 ) ) ;
#18 = CYLINDRICAL_SURFACE ( 'NONE', #303, 0.1249999999999998612 ) ;
#19 = LINE ( 'NONE', #325, #292 ) ;
#20 = SURFACE_SIDE_STYLE ('',( #140 ) ) ;
#21 = STYLED_ITEM ( 'NONE', ( #37 ), #58 ) ;
#22 = VERTEX_POINT ( 'NONE', #372 ) ;
#23 = EDGE_LOOP ( 'NONE', ( #272, #107 ) ) ;
#24 = SURFACE_SIDE_STYLE ('',( #177 ) ) ;
#25 = EDGE_CURVE ( 'NONE', #248, #90, #296, .T. ) ;
#26 =( GEOMETRIC_REPRESENTATION_CONTEXT ( 3 ) GLOBAL_UNCERTAINTY_ASSIGNED_CONTEXT ( ( #286 ) ) GLOBAL_UNIT_ASSIGNED_CONTEXT ( ( #169, #197, #38 ) ) REPRESENTATION_CONTEXT ( 'NONE', 'WORKASPACE' ) );
#27 = SURFACE_STYLE_USAGE ( .BOTH. , #88 ) ;
#28 = LENGTH_MEASURE_WITH_UNIT ( LENGTH_MEASURE( 0.02539999999999999897 ), #119 );
#29 = AXIS2_PLACEMENT_3D ( 'NONE', #307, #56, #237 ) ;
#30 = CARTESIAN_POINT ( 'NONE',  ( 1.530808498934191201E-17, 0.000000000000000000, 0.1249999999999999584 ) ) ;
#31 = VECTOR ( 'NONE', #249, 39.37007874015748143 ) ;
#32 = VERTEX_POINT ( 'NONE', #312 ) ;
#33 = AXIS2_PLACEMENT_3D ( 'NONE', #102, #256, #110 ) ;
#34 = DIRECTION ( 'NONE',  ( 0.000000000000000000, 0.000000000000000000, -1.000000000000000000 ) ) ;
#35 = FILL_AREA_STYLE ('',( #97 ) ) ;
#36 = EDGE_LOOP ( 'NONE', ( #335, #142, #329, #71 ) ) ;
#37 = PRESENTATION_STYLE_ASSIGNMENT (( #308 ) ) ;
#38 =( NAMED_UNIT ( * ) SI_UNIT ( $, .STERADIAN. ) SOLID_ANGLE_UNIT ( ) );
#39 = DIRECTION ( 'NONE',  ( -1.000000000000000000, 0.000000000000000000, 0.000000000000000000 ) ) ;
#40 =( CONVERSION_BASED_UNIT ( 'INCH', #221 ) LENGTH_UNIT ( ) NAMED_UNIT ( #111 ) );
#41 = MECHANICAL_DESIGN_GEOMETRIC_PRESENTATION_REPRESENTATION (  '', ( #192 ), #26 ) ;
#42 =( LENGTH_UNIT ( ) NAMED_UNIT ( * ) SI_UNIT ( $, .METRE. ) );
#43 = PRESENTATION_STYLE_ASSIGNMENT (( #302 ) ) ;
#44 = EDGE_CURVE ( 'NONE', #363, #233, #136, .T. ) ;
#45 = SURFACE_STYLE_USAGE ( .BOTH. , #330 ) ;
#46 = UNCERTAINTY_MEASURE_WITH_UNIT (LENGTH_MEASURE( 1.000000000000000082E-05 ), #40, 'distance_accuracy_value', 'NONE');
#47 =( NAMED_UNIT ( * ) SI_UNIT ( $, .STERADIAN. ) SOLID_ANGLE_UNIT ( ) );
#48 = DIRECTION ( 'NONE',  ( 1.000000000000000000, 0.000000000000000000, -1.224646799147353207E-16 ) ) ;
#49 = CARTESIAN_POINT ( 'NONE',  ( -1.530808498934191509E-17, 0.1250000000000000000, 0.000000000000000000 ) ) ;
#50 = ORIENTED_EDGE ( 'NONE', *, *, #103, .F. ) ;
#51 = DIRECTION ( 'NONE',  ( -1.224646799147352961E-16, 1.000000000000000000, 0.000000000000000000 ) ) ;
#52 = AXIS2_PLACEMENT_3D ( 'NONE', #141, #352, #257 ) ;
#53 = DIMENSIONAL_EXPONENTS ( 1.000000000000000000, 0.000000000000000000, 0.000000000000000000, 0.000000000000000000, 0.000000000000000000, 0.000000000000000000, 0.000000000000000000 ) ;
#54 = CIRCLE ( 'NONE', #202, 0.1249999999999999306 ) ;
#55 =( LENGTH_UNIT ( ) NAMED_UNIT ( * ) SI_UNIT ( $, .METRE. ) );
#56 = DIRECTION ( 'NONE',  ( -1.224646799147352961E-16, 1.000000000000000000, -0.000000000000000000 ) ) ;
#57 = APPLICATION_PROTOCOL_DEFINITION ( 'draft international standard', 'automotive_design', 1998, #341 ) ;
#58 = ADVANCED_FACE ( 'NONE', ( #204 ), #15, .T. ) ;
#59 = FILL_AREA_STYLE ('',( #239 ) ) ;
#60 = PRESENTATION_STYLE_ASSIGNMENT (( #27 ) ) ;
#61 = ORIENTED_EDGE ( 'NONE', *, *, #89, .F. ) ;
#62 = AXIS2_PLACEMENT_3D ( 'NONE', #193, #196, #138 ) ;
#63 = COLOUR_RGB ( '',0.7921568627450980005, 0.8196078431372548767, 0.9333333333333333481 ) ;
#64 = ORIENTED_EDGE ( 'NONE', *, *, #269, .F. ) ;
#65 = APPLICATION_CONTEXT ( 'automotive_design' ) ;
#66 = PRODUCT_DEFINITION_CONTEXT ( 'detailed design', #65, 'design' ) ;
#67 = MECHANICAL_DESIGN_GEOMETRIC_PRESENTATION_REPRESENTATION (  '', ( #21 ), #120 ) ;
#68 = CARTESIAN_POINT ( 'NONE',  ( -6.123233995736766036E-17, 2.500000000000000000, 0.000000000000000000 ) ) ;
#69 = LENGTH_MEASURE_WITH_UNIT ( LENGTH_MEASURE( 0.02539999999999999897 ), #218 );
#70 = PRESENTATION_LAYER_ASSIGNMENT (  '', '', ( #367 ) ) ;
#71 = ORIENTED_EDGE ( 'NONE', *, *, #349, .F. ) ;
#72 =( NAMED_UNIT ( * ) SI_UNIT ( $, .STERADIAN. ) SOLID_ANGLE_UNIT ( ) );
#73 = STYLED_ITEM ( 'NONE', ( #43 ), #342 ) ;
#74 = CARTESIAN_POINT ( 'NONE',  ( -1.530808498934191509E-17, 0.1250000000000000000, 0.000000000000000000 ) ) ;
#75 = AXIS2_PLACEMENT_3D ( 'NONE', #242, #344, #113 ) ;
#76 = CARTESIAN_POINT ( 'NONE',  ( 1.836970198721029194E-16, 0.5000000000000001110, 0.000000000000000000 ) ) ;
#77 = EDGE_LOOP ( 'NONE', ( #270, #370, #251, #301 ) ) ;
#78 =( CONVERSION_BASED_UNIT ( 'INCH', #115 ) LENGTH_UNIT ( ) NAMED_UNIT ( #254 ) );
#79 = ADVANCED_BREP_SHAPE_REPRESENTATION ( '12112', ( #187, #304, #338 ), #94 ) ;
#80 = COLOUR_RGB ( '',1.000000000000000000, 0.000000000000000000, 0.000000000000000000 ) ;
#81 = ORIENTED_EDGE ( 'NONE', *, *, #349, .T. ) ;
#82 = AXIS2_PLACEMENT_3D ( 'NONE', #274, #125, #153 ) ;
#83 = EDGE_CURVE ( 'NONE', #356, #148, #280, .T. ) ;
#84 = DIRECTION ( 'NONE',  ( 0.000000000000000000, 0.000000000000000000, -1.000000000000000000 ) ) ;
#85 = AXIS2_PLACEMENT_3D ( 'NONE', #199, #368, #235 ) ;
#86 = PRESENTATION_STYLE_ASSIGNMENT (( #2 ) ) ;
#87 = CIRCLE ( 'NONE', #300, 0.1249999999999997641 ) ;
#88 = SURFACE_SIDE_STYLE ('',( #310 ) ) ;
#89 = EDGE_CURVE ( 'NONE', #258, #32, #129, .T. ) ;
#90 = VERTEX_POINT ( 'NONE', #366 ) ;
#91 = SURFACE_STYLE_FILL_AREA ( #347 ) ;
#92 = PRODUCT_DEFINITION_SHAPE ( 'NONE', 'NONE',  #234 ) ;
#93 =( LENGTH_UNIT ( ) NAMED_UNIT ( * ) SI_UNIT ( $, .METRE. ) );
#94 =( GEOMETRIC_REPRESENTATION_CONTEXT ( 3 ) GLOBAL_UNCERTAINTY_ASSIGNED_CONTEXT ( ( #215 ) ) GLOBAL_UNIT_ASSIGNED_CONTEXT ( ( #336, #176, #146 ) ) REPRESENTATION_CONTEXT ( 'NONE', 'WORKASPACE' ) );
#95 = EDGE_CURVE ( 'NONE', #148, #233, #275, .T. ) ;
#96 = SURFACE_STYLE_FILL_AREA ( #118 ) ;
#97 = FILL_AREA_STYLE_COLOUR ( '', #80 ) ;
#98 =( GEOMETRIC_REPRESENTATION_CONTEXT ( 3 ) GLOBAL_UNCERTAINTY_ASSIGNED_CONTEXT ( ( #184 ) ) GLOBAL_UNIT_ASSIGNED_CONTEXT ( ( #122, #203, #207 ) ) REPRESENTATION_CONTEXT ( 'NONE', 'WORKASPACE' ) );
#99 = DIRECTION ( 'NONE',  ( -1.224646799147352961E-16, 1.000000000000000000, -0.000000000000000000 ) ) ;
#100 = PLANE ( 'NONE',  #289 ) ;
#101 =( CONVERSION_BASED_UNIT ( 'INCH', #360 ) LENGTH_UNIT ( ) NAMED_UNIT ( #224 ) );
#102 = CARTESIAN_POINT ( 'NONE',  ( -1.530808498934191509E-17, 0.1250000000000000000, 0.000000000000000000 ) ) ;
#103 = EDGE_CURVE ( 'NONE', #363, #356, #348, .T. ) ;
#104 = DIRECTION ( 'NONE',  ( -0.000000000000000000, -1.000000000000000000, -0.000000000000000000 ) ) ;
#105 = DIRECTION ( 'NONE',  ( 0.000000000000000000, 0.000000000000000000, -1.000000000000000000 ) ) ;
#106 = PRESENTATION_STYLE_ASSIGNMENT (( #135 ) ) ;
#107 = ORIENTED_EDGE ( 'NONE', *, *, #165, .F. ) ;
#108 = PRESENTATION_LAYER_ASSIGNMENT (  '', '', ( #21 ) ) ;
#109 = FILL_AREA_STYLE_COLOUR ( '', #317 ) ;
#110 = DIRECTION ( 'NONE',  ( 1.000000000000000000, 0.000000000000000000, 0.000000000000000000 ) ) ;
#111 = DIMENSIONAL_EXPONENTS ( 1.000000000000000000, 0.000000000000000000, 0.000000000000000000, 0.000000000000000000, 0.000000000000000000, 0.000000000000000000, 0.000000000000000000 ) ;
#112 = FILL_AREA_STYLE_COLOUR ( '', #208 ) ;
#113 = DIRECTION ( 'NONE',  ( -1.000000000000000000, 0.000000000000000000, 0.000000000000000000 ) ) ;
#114 = DIRECTION ( 'NONE',  ( 1.000000000000000000, 1.224646799147352961E-16, 0.000000000000000000 ) ) ;
#115 = LENGTH_MEASURE_WITH_UNIT ( LENGTH_MEASURE( 0.02539999999999999897 ), #339 );
#116 = CARTESIAN_POINT ( 'NONE',  ( 0.000000000000000000, 0.000000000000000000, 0.000000000000000000 ) ) ;
#117 = AXIS2_PLACEMENT_3D ( 'NONE', #74, #250, #48 ) ;
#118 = FILL_AREA_STYLE ('',( #316 ) ) ;
#119 =( LENGTH_UNIT ( ) NAMED_UNIT ( * ) SI_UNIT ( $, .METRE. ) );
#120 =( GEOMETRIC_REPRESENTATION_CONTEXT ( 3 ) GLOBAL_UNCERTAINTY_ASSIGNED_CONTEXT ( ( #46 ) ) GLOBAL_UNIT_ASSIGNED_CONTEXT ( ( #40, #217, #72 ) ) REPRESENTATION_CONTEXT ( 'NONE', 'WORKASPACE' ) );
#121 = VECTOR ( 'NONE', #170, 39.37007874015748143 ) ;
#122 =( CONVERSION_BASED_UNIT ( 'INCH', #28 ) LENGTH_UNIT ( ) NAMED_UNIT ( #147 ) );
#123 = CARTESIAN_POINT ( 'NONE',  ( -6.123233995736766036E-17, 2.500000000000000000, 0.000000000000000000 ) ) ;
#124 = DIRECTION ( 'NONE',  ( 0.000000000000000000, 0.000000000000000000, -1.000000000000000000 ) ) ;
#125 = DIRECTION ( 'NONE',  ( 0.000000000000000000, 0.000000000000000000, 1.000000000000000000 ) ) ;
#126 = ORIENTED_EDGE ( 'NONE', *, *, #25, .T. ) ;
#127 = FILL_AREA_STYLE_COLOUR ( '', #160 ) ;
#128 = CARTESIAN_POINT ( 'NONE',  ( -0.1249999999999999306, 2.500000000000000000, 0.000000000000000000 ) ) ;
#129 = CIRCLE ( 'NONE', #168, 0.1250000000000000000 ) ;
#130 =( CONVERSION_BASED_UNIT ( 'INCH', #253 ) LENGTH_UNIT ( ) NAMED_UNIT ( #205 ) );
#131 = SURFACE_STYLE_USAGE ( .BOTH. , #276 ) ;
#132 = DIRECTION ( 'NONE',  ( -1.000000000000000000, 0.000000000000000000, 0.000000000000000000 ) ) ;
#133 = ORIENTED_EDGE ( 'NONE', *, *, #247, .T. ) ;
#134 =( GEOMETRIC_REPRESENTATION_CONTEXT ( 3 ) GLOBAL_UNCERTAINTY_ASSIGNED_CONTEXT ( ( #321 ) ) GLOBAL_UNIT_ASSIGNED_CONTEXT ( ( #130, #198, #6 ) ) REPRESENTATION_CONTEXT ( 'NONE', 'WORKASPACE' ) );
#135 = SURFACE_STYLE_USAGE ( .BOTH. , #10 ) ;
#136 = CIRCLE ( 'NONE', #219, 0.1250000000000000000 ) ;
#137 = DIRECTION ( 'NONE',  ( -1.000000000000000000, 0.000000000000000000, 0.000000000000000000 ) ) ;
#138 = DIRECTION ( 'NONE',  ( 0.000000000000000000, 0.000000000000000000, -1.000000000000000000 ) ) ;
#139 = VERTEX_POINT ( 'NONE', #333 ) ;
#140 = SURFACE_STYLE_FILL_AREA ( #327 ) ;
#141 = CARTESIAN_POINT ( 'NONE',  ( 0.000000000000000000, 0.1250000000000000278, 0.000000000000000000 ) ) ;
#142 = ORIENTED_EDGE ( 'NONE', *, *, #165, .T. ) ;
#143 = EDGE_LOOP ( 'NONE', ( #151, #81 ) ) ;
#144 =( NAMED_UNIT ( * ) PLANE_ANGLE_UNIT ( ) SI_UNIT ( $, .RADIAN. ) );
#145 =( LENGTH_UNIT ( ) NAMED_UNIT ( * ) SI_UNIT ( $, .METRE. ) );
#146 =( NAMED_UNIT ( * ) SI_UNIT ( $, .STERADIAN. ) SOLID_ANGLE_UNIT ( ) );
#147 = DIMENSIONAL_EXPONENTS ( 1.000000000000000000, 0.000000000000000000, 0.000000000000000000, 0.000000000000000000, 0.000000000000000000, 0.000000000000000000, 0.000000000000000000 ) ;
#148 = VERTEX_POINT ( 'NONE', #285 ) ;
#149 = EDGE_CURVE ( 'NONE', #90, #32, #19, .T. ) ;
#150 =( GEOMETRIC_REPRESENTATION_CONTEXT ( 3 ) GLOBAL_UNCERTAINTY_ASSIGNED_CONTEXT ( ( #158 ) ) GLOBAL_UNIT_ASSIGNED_CONTEXT ( ( #78, #144, #47 ) ) REPRESENTATION_CONTEXT ( 'NONE', 'WORKASPACE' ) );
#151 = ORIENTED_EDGE ( 'NONE', *, *, #89, .T. ) ;
#152 =( GEOMETRIC_REPRESENTATION_CONTEXT ( 3 ) GLOBAL_UNCERTAINTY_ASSIGNED_CONTEXT ( ( #351 ) ) GLOBAL_UNIT_ASSIGNED_CONTEXT ( ( #101, #183, #9 ) ) REPRESENTATION_CONTEXT ( 'NONE', 'WORKASPACE' ) );
#153 = DIRECTION ( 'NONE',  ( 1.000000000000000000, 0.000000000000000000, 0.000000000000000000 ) ) ;
#154 = EDGE_LOOP ( 'NONE', ( #155, #133, #288, #211, #5 ) ) ;
#155 = ORIENTED_EDGE ( 'NONE', *, *, #265, .F. ) ;
#156 = PRODUCT ( '12112', '12112', '', ( #267 ) ) ;
#157 = DIRECTION ( 'NONE',  ( -0.000000000000000000, -1.000000000000000000, -0.000000000000000000 ) ) ;
#158 = UNCERTAINTY_MEASURE_WITH_UNIT (LENGTH_MEASURE( 1.000000000000000082E-05 ), #78, 'distance_accuracy_value', 'NONE');
#159 = MECHANICAL_DESIGN_GEOMETRIC_PRESENTATION_REPRESENTATION (  '', ( #364 ), #134 ) ;
#160 = COLOUR_RGB ( '',1.000000000000000000, 0.000000000000000000, 0.000000000000000000 ) ;
#161 = PRODUCT_RELATED_PRODUCT_CATEGORY ( 'part', '', ( #156 ) ) ;
#162 = SURFACE_STYLE_FILL_AREA ( #35 ) ;
#163 = PLANE ( 'NONE',  #354 ) ;
#164 = ORIENTED_EDGE ( 'NONE', *, *, #213, .F. ) ;
#165 = EDGE_CURVE ( 'NONE', #90, #248, #87, .T. ) ;
#166 = ORIENTED_EDGE ( 'NONE', *, *, #265, .T. ) ;
#167 = CARTESIAN_POINT ( 'NONE',  ( 0.000000000000000000, 0.000000000000000000, -0.1249999999999999584 ) ) ;
#168 = AXIS2_PLACEMENT_3D ( 'NONE', #68, #328, #132 ) ;
#169 =( CONVERSION_BASED_UNIT ( 'INCH', #13 ) LENGTH_UNIT ( ) NAMED_UNIT ( #241 ) );
#170 = DIRECTION ( 'NONE',  ( -0.000000000000000000, -1.000000000000000000, -0.000000000000000000 ) ) ;
#171 = DIRECTION ( 'NONE',  ( -0.000000000000000000, -1.000000000000000000, -0.000000000000000000 ) ) ;
#172 = DIRECTION ( 'NONE',  ( -1.224646799147352961E-16, 1.000000000000000000, -0.000000000000000000 ) ) ;
#173 = PRESENTATION_LAYER_ASSIGNMENT (  '', '', ( #323 ) ) ;
#174 = STYLED_ITEM ( 'NONE', ( #60 ), #297 ) ;
#175 = FILL_AREA_STYLE ('',( #109 ) ) ;
#176 =( NAMED_UNIT ( * ) PLANE_ANGLE_UNIT ( ) SI_UNIT ( $, .RADIAN. ) );
#177 = SURFACE_STYLE_FILL_AREA ( #59 ) ;
#178 = DIRECTION ( 'NONE',  ( 0.000000000000000000, 0.000000000000000000, 1.000000000000000000 ) ) ;
#179 = MECHANICAL_DESIGN_GEOMETRIC_PRESENTATION_REPRESENTATION (  '', ( #323 ), #4 ) ;
#180 = PRODUCT_DEFINITION_FORMATION_WITH_SPECIFIED_SOURCE ( 'ANY', '', #156, .NOT_KNOWN. ) ;
#181 = FACE_OUTER_BOUND ( 'NONE', #295, .T. ) ;
#182 = VERTEX_POINT ( 'NONE', #252 ) ;
#183 =( NAMED_UNIT ( * ) PLANE_ANGLE_UNIT ( ) SI_UNIT ( $, .RADIAN. ) );
#184 = UNCERTAINTY_MEASURE_WITH_UNIT (LENGTH_MEASURE( 1.000000000000000082E-05 ), #122, 'distance_accuracy_value', 'NONE');
#185 = PRESENTATION_LAYER_ASSIGNMENT (  '', '', ( #73 ) ) ;
#186 = CLOSED_SHELL ( 'NONE', ( #264, #297, #12, #58, #342 ) ) ;
#187 = MANIFOLD_SOLID_BREP ( 'Revolve - Cutting Edge', #186 ) ;
#188 =( NAMED_UNIT ( * ) SI_UNIT ( $, .STERADIAN. ) SOLID_ANGLE_UNIT ( ) );
#189 = CARTESIAN_POINT ( 'NONE',  ( 1.836970198721029441E-16, 0.5000000000000000000, 0.000000000000000000 ) ) ;
#190 = CIRCLE ( 'NONE', #29, 0.1250000000000000000 ) ;
#191 = PRESENTATION_STYLE_ASSIGNMENT (( #45 ) ) ;
#192 = STYLED_ITEM ( 'NONE', ( #191 ), #187 ) ;
#193 = CARTESIAN_POINT ( 'NONE',  ( 0.000000000000000000, 0.000000000000000000, 0.000000000000000000 ) ) ;
#194 = SPHERICAL_SURFACE ( 'NONE', #33, 0.1250000000000000000 ) ;
#195 = FILL_AREA_STYLE ('',( #228 ) ) ;
#196 = DIRECTION ( 'NONE',  ( -0.000000000000000000, -1.000000000000000000, -0.000000000000000000 ) ) ;
#197 =( NAMED_UNIT ( * ) PLANE_ANGLE_UNIT ( ) SI_UNIT ( $, .RADIAN. ) );
#198 =( NAMED_UNIT ( * ) PLANE_ANGLE_UNIT ( ) SI_UNIT ( $, .RADIAN. ) );
#199 = CARTESIAN_POINT ( 'NONE',  ( 0.000000000000000000, 0.1250000000000000278, 0.000000000000000000 ) ) ;
#200 = AXIS2_PLACEMENT_3D ( 'NONE', #116, #290, #236 ) ;
#201 = DIRECTION ( 'NONE',  ( 1.224646799147352961E-16, -1.000000000000000000, 0.000000000000000000 ) ) ;
#202 = AXIS2_PLACEMENT_3D ( 'NONE', #210, #320, #34 ) ;
#203 =( NAMED_UNIT ( * ) PLANE_ANGLE_UNIT ( ) SI_UNIT ( $, .RADIAN. ) );
#204 = FACE_OUTER_BOUND ( 'NONE', #154, .T. ) ;
#205 = DIMENSIONAL_EXPONENTS ( 1.000000000000000000, 0.000000000000000000, 0.000000000000000000, 0.000000000000000000, 0.000000000000000000, 0.000000000000000000, 0.000000000000000000 ) ;
#206 = APPLICATION_PROTOCOL_DEFINITION ( 'draft international standard', 'automotive_design', 1998, #65 ) ;
#207 =( NAMED_UNIT ( * ) SI_UNIT ( $, .STERADIAN. ) SOLID_ANGLE_UNIT ( ) );
#208 = COLOUR_RGB ( '',1.000000000000000000, 0.000000000000000000, 0.000000000000000000 ) ;
#209 = EDGE_LOOP ( 'NONE', ( #299, #345 ) ) ;
#210 = CARTESIAN_POINT ( 'NONE',  ( 0.000000000000000000, 0.5000000000000000000, 0.000000000000000000 ) ) ;
#211 = ORIENTED_EDGE ( 'NONE', *, *, #369, .F. ) ;
#212 = PRESENTATION_LAYER_ASSIGNMENT (  '', '', ( #192 ) ) ;
#213 = EDGE_CURVE ( 'NONE', #139, #363, #245, .T. ) ;
#214 = SPHERICAL_SURFACE ( 'NONE', #82, 0.1250000000000000000 ) ;
#215 = UNCERTAINTY_MEASURE_WITH_UNIT (LENGTH_MEASURE( 1.000000000000000082E-05 ), #336, 'distance_accuracy_value', 'NONE');
#216 = CIRCLE ( 'NONE', #85, 0.1250000000000000000 ) ;
#217 =( NAMED_UNIT ( * ) PLANE_ANGLE_UNIT ( ) SI_UNIT ( $, .RADIAN. ) );
#218 =( LENGTH_UNIT ( ) NAMED_UNIT ( * ) SI_UNIT ( $, .METRE. ) );
#219 = AXIS2_PLACEMENT_3D ( 'NONE', #49, #84, #337 ) ;
#220 = MECHANICAL_DESIGN_GEOMETRIC_PRESENTATION_REPRESENTATION (  '', ( #367 ), #152 ) ;
#221 = LENGTH_MEASURE_WITH_UNIT ( LENGTH_MEASURE( 0.02539999999999999897 ), #93 );
#222 =( CONVERSION_BASED_UNIT ( 'INCH', #69 ) LENGTH_UNIT ( ) NAMED_UNIT ( #53 ) );
#223 = LINE ( 'NONE', #167, #121 ) ;
#224 = DIMENSIONAL_EXPONENTS ( 1.000000000000000000, 0.000000000000000000, 0.000000000000000000, 0.000000000000000000, 0.000000000000000000, 0.000000000000000000, 0.000000000000000000 ) ;
#225 = ORIENTED_EDGE ( 'NONE', *, *, #103, .T. ) ;
#226 = CARTESIAN_POINT ( 'NONE',  ( 0.1249999999999999306, 2.500000000000000000, 0.000000000000000000 ) ) ;
#227 = PLANE ( 'NONE',  #259 ) ;
#228 = FILL_AREA_STYLE_COLOUR ( '', #324 ) ;
#229 = DIRECTION ( 'NONE',  ( 0.000000000000000000, 0.000000000000000000, -1.000000000000000000 ) ) ;
#230 = DIRECTION ( 'NONE',  ( -0.000000000000000000, -1.000000000000000000, -0.000000000000000000 ) ) ;
#231 = CIRCLE ( 'NONE', #305, 0.1249999999999999306 ) ;
#232 = DIRECTION ( 'NONE',  ( -1.224646799147352961E-16, 1.000000000000000000, -0.000000000000000000 ) ) ;
#233 = VERTEX_POINT ( 'NONE', #17 ) ;
#234 = PRODUCT_DEFINITION ( 'UNKNOWN', '', #180, #66 ) ;
#235 = DIRECTION ( 'NONE',  ( 0.000000000000000000, 0.000000000000000000, -1.000000000000000000 ) ) ;
#236 = DIRECTION ( 'NONE',  ( 0.000000000000000000, 0.000000000000000000, -1.000000000000000000 ) ) ;
#237 = DIRECTION ( 'NONE',  ( -1.000000000000000000, 0.000000000000000000, 0.000000000000000000 ) ) ;
#238 = DIRECTION ( 'NONE',  ( 0.000000000000000000, -0.000000000000000000, 1.000000000000000000 ) ) ;
#239 = FILL_AREA_STYLE_COLOUR ( '', #63 ) ;
#240 = ADVANCED_FACE ( 'NONE', ( #359 ), #100, .F. ) ;
#241 = DIMENSIONAL_EXPONENTS ( 1.000000000000000000, 0.000000000000000000, 0.000000000000000000, 0.000000000000000000, 0.000000000000000000, 0.000000000000000000, 0.000000000000000000 ) ;
#242 = CARTESIAN_POINT ( 'NONE',  ( 1.836970198721029194E-16, 0.5000000000000001110, 0.000000000000000000 ) ) ;
#243 = DIRECTION ( 'NONE',  ( 1.000000000000000000, 0.000000000000000000, 0.000000000000000000 ) ) ;
#244 = ORIENTED_EDGE ( 'NONE', *, *, #83, .T. ) ;
#245 = CIRCLE ( 'NONE', #266, 0.1250000000000000000 ) ;
#246 = ORIENTED_EDGE ( 'NONE', *, *, #293, .F. ) ;
#247 = EDGE_CURVE ( 'NONE', #22, #182, #231, .T. ) ;
#248 = VERTEX_POINT ( 'NONE', #346 ) ;
#249 = DIRECTION ( 'NONE',  ( -1.224646799147352961E-16, 1.000000000000000000, -0.000000000000000000 ) ) ;
#250 = DIRECTION ( 'NONE',  ( 1.224646799147353207E-16, -0.000000000000000000, 1.000000000000000000 ) ) ;
#251 = ORIENTED_EDGE ( 'NONE', *, *, #213, .T. ) ;
#252 = CARTESIAN_POINT ( 'NONE',  ( 0.000000000000000000, 0.5000000000000000000, -0.1249999999999999306 ) ) ;
#253 = LENGTH_MEASURE_WITH_UNIT ( LENGTH_MEASURE( 0.02539999999999999897 ), #1 );
#254 = DIMENSIONAL_EXPONENTS ( 1.000000000000000000, 0.000000000000000000, 0.000000000000000000, 0.000000000000000000, 0.000000000000000000, 0.000000000000000000, 0.000000000000000000 ) ;
#255 = CARTESIAN_POINT ( 'NONE',  ( 0.000000000000000000, 0.5000000000000000000, 0.000000000000000000 ) ) ;
#256 = DIRECTION ( 'NONE',  ( 0.000000000000000000, 0.000000000000000000, 1.000000000000000000 ) ) ;
#257 = DIRECTION ( 'NONE',  ( 0.000000000000000000, 0.000000000000000000, -1.000000000000000000 ) ) ;
#258 = VERTEX_POINT ( 'NONE', #273 ) ;
#259 = AXIS2_PLACEMENT_3D ( 'NONE', #189, #51, #365 ) ;
#260 = SURFACE_SIDE_STYLE ('',( #96 ) ) ;
#261 = DIRECTION ( 'NONE',  ( 0.000000000000000000, 1.000000000000000000, 0.000000000000000000 ) ) ;
#262 = FACE_OUTER_BOUND ( 'NONE', #77, .T. ) ;
#263 = CARTESIAN_POINT ( 'NONE',  ( 0.000000000000000000, 0.5000000000000000000, 0.000000000000000000 ) ) ;
#264 = ADVANCED_FACE ( 'NONE', ( #298 ), #214, .T. ) ;
#265 = EDGE_CURVE ( 'NONE', #22, #356, #350, .T. ) ;
#266 = AXIS2_PLACEMENT_3D ( 'NONE', #283, #171, #105 ) ;
#267 = PRODUCT_CONTEXT ( 'NONE', #341, 'mechanical' ) ;
#268 = CYLINDRICAL_SURFACE ( 'NONE', #200, 0.1249999999999999584 ) ;
#269 = EDGE_CURVE ( 'NONE', #248, #258, #7, .T. ) ;
#270 = ORIENTED_EDGE ( 'NONE', *, *, #95, .F. ) ;
#271 = PRESENTATION_LAYER_ASSIGNMENT (  '', '', ( #174 ) ) ;
#272 = ORIENTED_EDGE ( 'NONE', *, *, #25, .F. ) ;
#273 = CARTESIAN_POINT ( 'NONE',  ( -0.1250000000000000555, 2.500000000000000000, 0.000000000000000000 ) ) ;
#274 = CARTESIAN_POINT ( 'NONE',  ( -1.530808498934191509E-17, 0.1250000000000000000, 0.000000000000000000 ) ) ;
#275 = CIRCLE ( 'NONE', #117, 0.1250000000000000000 ) ;
#276 = SURFACE_SIDE_STYLE ('',( #162 ) ) ;
#277 = EDGE_CURVE ( 'NONE', #182, #22, #54, .T. ) ;
#278 = PRESENTATION_STYLE_ASSIGNMENT (( #131 ) ) ;
#279 = ORIENTED_EDGE ( 'NONE', *, *, #44, .F. ) ;
#280 = CIRCLE ( 'NONE', #319, 0.1250000000000000000 ) ;
#281 = DIMENSIONAL_EXPONENTS ( 1.000000000000000000, 0.000000000000000000, 0.000000000000000000, 0.000000000000000000, 0.000000000000000000, 0.000000000000000000, 0.000000000000000000 ) ;
#282 = ADVANCED_FACE ( 'NONE', ( #181 ), #294, .T. ) ;
#283 = CARTESIAN_POINT ( 'NONE',  ( 0.000000000000000000, 0.1250000000000000278, 0.000000000000000000 ) ) ;
#284 = CARTESIAN_POINT ( 'NONE',  ( 1.530808498934191509E-17, 0.1250000000000000278, 0.1250000000000000000 ) ) ;
#285 = CARTESIAN_POINT ( 'NONE',  ( -0.1250000000000000000, 0.1250000000000000278, 1.530808498934191201E-17 ) ) ;
#286 = UNCERTAINTY_MEASURE_WITH_UNIT (LENGTH_MEASURE( 1.000000000000000082E-05 ), #169, 'distance_accuracy_value', 'NONE');
#287 = CARTESIAN_POINT ( 'NONE',  ( 0.1250000000000000000, 0.1250000000000000278, 0.000000000000000000 ) ) ;
#288 = ORIENTED_EDGE ( 'NONE', *, *, #293, .T. ) ;
#289 = AXIS2_PLACEMENT_3D ( 'NONE', #226, #201, #114 ) ;
#290 = DIRECTION ( 'NONE',  ( -0.000000000000000000, -1.000000000000000000, -0.000000000000000000 ) ) ;
#291 = SHAPE_DEFINITION_REPRESENTATION ( #92, #79 ) ;
#292 = VECTOR ( 'NONE', #232, 39.37007874015748143 ) ;
#293 = EDGE_CURVE ( 'NONE', #182, #139, #223, .T. ) ;
#294 = CYLINDRICAL_SURFACE ( 'NONE', #11, 0.1249999999999998612 ) ;
#295 = EDGE_LOOP ( 'NONE', ( #126, #362, #61, #64 ) ) ;
#296 = CIRCLE ( 'NONE', #75, 0.1249999999999997641 ) ;
#297 = ADVANCED_FACE ( 'NONE', ( #332 ), #268, .T. ) ;
#298 = FACE_OUTER_BOUND ( 'NONE', #318, .T. ) ;
#299 = ORIENTED_EDGE ( 'NONE', *, *, #277, .F. ) ;
#300 = AXIS2_PLACEMENT_3D ( 'NONE', #76, #311, #306 ) ;
#301 = ORIENTED_EDGE ( 'NONE', *, *, #44, .T. ) ;
#302 = SURFACE_STYLE_USAGE ( .BOTH. , #20 ) ;
#303 = AXIS2_PLACEMENT_3D ( 'NONE', #14, #172, #137 ) ;
#304 = MANIFOLD_SOLID_BREP ( 'Revolve - Tool Body (Straight Shanked)', #373 ) ;
#305 = AXIS2_PLACEMENT_3D ( 'NONE', #255, #230, #124 ) ;
#306 = DIRECTION ( 'NONE',  ( -1.000000000000000000, 0.000000000000000000, 0.000000000000000000 ) ) ;
#307 = CARTESIAN_POINT ( 'NONE',  ( -6.123233995736766036E-17, 2.500000000000000000, 0.000000000000000000 ) ) ;
#308 = SURFACE_STYLE_USAGE ( .BOTH. , #260 ) ;
#309 = FACE_OUTER_BOUND ( 'NONE', #23, .T. ) ;
#310 = SURFACE_STYLE_FILL_AREA ( #195 ) ;
#311 = DIRECTION ( 'NONE',  ( -1.224646799147352961E-16, 1.000000000000000000, -0.000000000000000000 ) ) ;
#312 = CARTESIAN_POINT ( 'NONE',  ( 0.1249999999999999167, 2.500000000000000000, 1.530808498934190585E-17 ) ) ;
#313 = ORIENTED_EDGE ( 'NONE', *, *, #95, .T. ) ;
#314 = SURFACE_STYLE_FILL_AREA ( #175 ) ;
#315 = FACE_OUTER_BOUND ( 'NONE', #36, .T. ) ;
#316 = FILL_AREA_STYLE_COLOUR ( '', #8 ) ;
#317 = COLOUR_RGB ( '',0.7921568627450980005, 0.8196078431372548767, 0.9333333333333333481 ) ;
#318 = EDGE_LOOP ( 'NONE', ( #244, #313, #279, #225 ) ) ;
#319 = AXIS2_PLACEMENT_3D ( 'NONE', #361, #104, #229 ) ;
#320 = DIRECTION ( 'NONE',  ( -0.000000000000000000, -1.000000000000000000, -0.000000000000000000 ) ) ;
#321 = UNCERTAINTY_MEASURE_WITH_UNIT (LENGTH_MEASURE( 1.000000000000000082E-05 ), #130, 'distance_accuracy_value', 'NONE');
#322 = PRESENTATION_LAYER_ASSIGNMENT (  '', '', ( #364 ) ) ;
#323 = STYLED_ITEM ( 'NONE', ( #278 ), #12 ) ;
#324 = COLOUR_RGB ( '',1.000000000000000000, 0.000000000000000000, 0.000000000000000000 ) ;
#325 = CARTESIAN_POINT ( 'NONE',  ( 0.1249999999999997918, 2.500000000000000000, 1.530808498934189660E-17 ) ) ;
#326 = ADVANCED_FACE ( 'NONE', ( #315 ), #18, .T. ) ;
#327 = FILL_AREA_STYLE ('',( #112 ) ) ;
#328 = DIRECTION ( 'NONE',  ( -1.224646799147352961E-16, 1.000000000000000000, -0.000000000000000000 ) ) ;
#329 = ORIENTED_EDGE ( 'NONE', *, *, #269, .T. ) ;
#330 = SURFACE_SIDE_STYLE ('',( #314 ) ) ;
#331 = UNCERTAINTY_MEASURE_WITH_UNIT (LENGTH_MEASURE( 1.000000000000000082E-05 ), #222, 'distance_accuracy_value', 'NONE');
#332 = FACE_OUTER_BOUND ( 'NONE', #16, .T. ) ;
#333 = CARTESIAN_POINT ( 'NONE',  ( 0.000000000000000000, 0.1250000000000000278, -0.1250000000000000000 ) ) ;
#334 = ORIENTED_EDGE ( 'NONE', *, *, #277, .T. ) ;
#335 = ORIENTED_EDGE ( 'NONE', *, *, #149, .F. ) ;
#336 =( CONVERSION_BASED_UNIT ( 'INCH', #371 ) LENGTH_UNIT ( ) NAMED_UNIT ( #281 ) );
#337 = DIRECTION ( 'NONE',  ( -1.000000000000000000, 0.000000000000000000, 0.000000000000000000 ) ) ;
#338 = AXIS2_PLACEMENT_3D ( 'NONE', #343, #178, #243 ) ;
#339 =( LENGTH_UNIT ( ) NAMED_UNIT ( * ) SI_UNIT ( $, .METRE. ) );
#340 = MECHANICAL_DESIGN_GEOMETRIC_PRESENTATION_REPRESENTATION (  '', ( #174 ), #98 ) ;
#341 = APPLICATION_CONTEXT ( 'automotive_design' ) ;
#342 = ADVANCED_FACE ( 'NONE', ( #262 ), #194, .T. ) ;
#343 = CARTESIAN_POINT ( 'NONE',  ( 0.000000000000000000, 0.000000000000000000, 0.000000000000000000 ) ) ;
#344 = DIRECTION ( 'NONE',  ( -1.224646799147352961E-16, 1.000000000000000000, -0.000000000000000000 ) ) ;
#345 = ORIENTED_EDGE ( 'NONE', *, *, #247, .F. ) ;
#346 = CARTESIAN_POINT ( 'NONE',  ( -0.1249999999999995698, 0.5000000000000001110, 0.000000000000000000 ) ) ;
#347 = FILL_AREA_STYLE ('',( #127 ) ) ;
#348 = CIRCLE ( 'NONE', #52, 0.1250000000000000000 ) ;
#349 = EDGE_CURVE ( 'NONE', #32, #258, #190, .T. ) ;
#350 = LINE ( 'NONE', #30, #355 ) ;
#351 = UNCERTAINTY_MEASURE_WITH_UNIT (LENGTH_MEASURE( 1.000000000000000082E-05 ), #101, 'distance_accuracy_value', 'NONE');
#352 = DIRECTION ( 'NONE',  ( -0.000000000000000000, -1.000000000000000000, -0.000000000000000000 ) ) ;
#353 = FACE_OUTER_BOUND ( 'NONE', #209, .T. ) ;
#354 = AXIS2_PLACEMENT_3D ( 'NONE', #263, #261, #238 ) ;
#355 = VECTOR ( 'NONE', #157, 39.37007874015748143 ) ;
#356 = VERTEX_POINT ( 'NONE', #284 ) ;
#357 =( NAMED_UNIT ( * ) PLANE_ANGLE_UNIT ( ) SI_UNIT ( $, .RADIAN. ) );
#358 = ADVANCED_FACE ( 'NONE', ( #309 ), #227, .F. ) ;
#359 = FACE_OUTER_BOUND ( 'NONE', #143, .T. ) ;
#360 = LENGTH_MEASURE_WITH_UNIT ( LENGTH_MEASURE( 0.02539999999999999897 ), #42 );
#361 = CARTESIAN_POINT ( 'NONE',  ( 0.000000000000000000, 0.1250000000000000278, 0.000000000000000000 ) ) ;
#362 = ORIENTED_EDGE ( 'NONE', *, *, #149, .T. ) ;
#363 = VERTEX_POINT ( 'NONE', #287 ) ;
#364 = STYLED_ITEM ( 'NONE', ( #86 ), #304 ) ;
#365 = DIRECTION ( 'NONE',  ( -1.000000000000000000, -1.224646799147352961E-16, 0.000000000000000000 ) ) ;
#366 = CARTESIAN_POINT ( 'NONE',  ( 0.1249999999999999445, 0.5000000000000001110, 1.530808498934190893E-17 ) ) ;
#367 = STYLED_ITEM ( 'NONE', ( #106 ), #264 ) ;
#368 = DIRECTION ( 'NONE',  ( -0.000000000000000000, -1.000000000000000000, -0.000000000000000000 ) ) ;
#369 = EDGE_CURVE ( 'NONE', #148, #139, #216, .T. ) ;
#370 = ORIENTED_EDGE ( 'NONE', *, *, #369, .T. ) ;
#371 = LENGTH_MEASURE_WITH_UNIT ( LENGTH_MEASURE( 0.02539999999999999897 ), #145 );
#372 = CARTESIAN_POINT ( 'NONE',  ( 1.530808498934190893E-17, 0.5000000000000000000, 0.1249999999999999306 ) ) ;
#373 = CLOSED_SHELL ( 'NONE', ( #282, #358, #326, #240 ) ) ;
ENDSEC;
END-ISO-10303-21;
