ISO-10303-21;
HEADER;
FILE_DESCRIPTION (( 'STEP AP214' ),
    '1' );
FILE_NAME ('59551.STEP',
    '2023-07-24T15:10:34',
    ( '' ),
    ( '' ),
    'SwSTEP 2.0',
    'SolidWorks 2023',
    '' );
FILE_SCHEMA (( 'AUTOMOTIVE_DESIGN' ));
ENDSEC;

DATA;
#1 = EDGE_CURVE ( 'NONE', #106, #296, #216, .T. ) ;
#2 = DIRECTION ( 'NONE',  ( -1.236440607496819135E-16, 1.000000000000000000, -0.000000000000000000 ) ) ;
#3 = ORIENTED_EDGE ( 'NONE', *, *, #243, .T. ) ;
#4 = DIRECTION ( 'NONE',  ( 0.000000000000000000, 0.000000000000000000, -1.000000000000000000 ) ) ;
#5 = PRODUCT ( '59551', '59551', '', ( #206 ) ) ;
#6 = AXIS2_PLACEMENT_3D ( 'NONE', #198, #127, #67 ) ;
#7 = AXIS2_PLACEMENT_3D ( 'NONE', #232, #102, #228 ) ;
#8 = CARTESIAN_POINT ( 'NONE',  ( 10.00000000000000355, 100.0000000000000000, 1.224646799147353651E-15 ) ) ;
#9 = ADVANCED_FACE ( 'NONE', ( #162 ), #291, .T. ) ;
#10 =( NAMED_UNIT ( * ) PLANE_ANGLE_UNIT ( ) SI_UNIT ( $, .RADIAN. ) );
#11 =( GEOMETRIC_REPRESENTATION_CONTEXT ( 3 ) GLOBAL_UNCERTAINTY_ASSIGNED_CONTEXT ( ( #252 ) ) GLOBAL_UNIT_ASSIGNED_CONTEXT ( ( #91, #88, #141 ) ) REPRESENTATION_CONTEXT ( 'NONE', 'WORKASPACE' ) );
#12 = MECHANICAL_DESIGN_GEOMETRIC_PRESENTATION_REPRESENTATION (  '', ( #303 ), #270 ) ;
#13 = CARTESIAN_POINT ( 'NONE',  ( 0.000000000000000000, 0.000000000000000000, 0.000000000000000000 ) ) ;
#14 = DIRECTION ( 'NONE',  ( 0.000000000000000000, 1.000000000000000000, 0.000000000000000000 ) ) ;
#15 = ORIENTED_EDGE ( 'NONE', *, *, #272, .F. ) ;
#16 = SURFACE_STYLE_FILL_AREA ( #112 ) ;
#17 = VERTEX_POINT ( 'NONE', #264 ) ;
#18 = STYLED_ITEM ( 'NONE', ( #189 ), #185 ) ;
#19 = STYLED_ITEM ( 'NONE', ( #154 ), #287 ) ;
#20 = AXIS2_PLACEMENT_3D ( 'NONE', #175, #201, #100 ) ;
#21 = EDGE_CURVE ( 'NONE', #246, #106, #41, .T. ) ;
#22 = ORIENTED_EDGE ( 'NONE', *, *, #213, .F. ) ;
#23 = CARTESIAN_POINT ( 'NONE',  ( 0.000000000000000000, 0.000000000000000000, 0.000000000000000000 ) ) ;
#24 = PRODUCT_DEFINITION_CONTEXT ( 'detailed design', #136, 'design' ) ;
#25 = CIRCLE ( 'NONE', #217, 1.000000000000000888 ) ;
#26 = COLOUR_RGB ( '',1.000000000000000000, 0.000000000000000000, 0.000000000000000000 ) ;
#27 = DIRECTION ( 'NONE',  ( -0.000000000000000000, -1.000000000000000000, -0.000000000000000000 ) ) ;
#28 = SURFACE_STYLE_FILL_AREA ( #144 ) ;
#29 =( NAMED_UNIT ( * ) SI_UNIT ( $, .STERADIAN. ) SOLID_ANGLE_UNIT ( ) );
#30 = STYLED_ITEM ( 'NONE', ( #182 ), #178 ) ;
#31 = SURFACE_STYLE_USAGE ( .BOTH. , #302 ) ;
#32 = ADVANCED_BREP_SHAPE_REPRESENTATION ( '59551', ( #38, #287, #319 ), #283 ) ;
#33 = MECHANICAL_DESIGN_GEOMETRIC_PRESENTATION_REPRESENTATION (  '', ( #276 ), #245 ) ;
#34 =( NAMED_UNIT ( * ) SI_UNIT ( $, .STERADIAN. ) SOLID_ANGLE_UNIT ( ) );
#35 = ORIENTED_EDGE ( 'NONE', *, *, #21, .T. ) ;
#36 = CARTESIAN_POINT ( 'NONE',  ( 9.999999999999996447, 100.0000000000000000, 1.224646799147353059E-15 ) ) ;
#37 = ORIENTED_EDGE ( 'NONE', *, *, #95, .F. ) ;
#38 = MANIFOLD_SOLID_BREP ( 'Revolve - Cutting Edge', #295 ) ;
#39 = CARTESIAN_POINT ( 'NONE',  ( 6.071532165918824830E-15, 40.00000000000000000, 0.000000000000000000 ) ) ;
#40 = AXIS2_PLACEMENT_3D ( 'NONE', #347, #176, #103 ) ;
#41 = CIRCLE ( 'NONE', #183, 10.00000000000000000 ) ;
#42 = CARTESIAN_POINT ( 'NONE',  ( 1.102182119232617911E-15, 1.000000000000000000, 9.000000000000001776 ) ) ;
#43 =( LENGTH_UNIT ( ) NAMED_UNIT ( * ) SI_UNIT ( .MILLI., .METRE. ) );
#44 = MECHANICAL_DESIGN_GEOMETRIC_PRESENTATION_REPRESENTATION (  '', ( #18 ), #301 ) ;
#45 = PRODUCT_DEFINITION ( 'UNKNOWN', '', #80, #24 ) ;
#46 = ADVANCED_FACE ( 'NONE', ( #113 ), #262, .F. ) ;
#47 = VECTOR ( 'NONE', #358, 1000.000000000000000 ) ;
#48 = SHAPE_DEFINITION_REPRESENTATION ( #366, #32 ) ;
#49 = DIRECTION ( 'NONE',  ( 0.000000000000000000, -1.000000000000000000, -0.000000000000000000 ) ) ;
#50 = ORIENTED_EDGE ( 'NONE', *, *, #289, .T. ) ;
#51 = DIRECTION ( 'NONE',  ( 0.000000000000000000, 0.000000000000000000, -1.000000000000000000 ) ) ;
#52 = ORIENTED_EDGE ( 'NONE', *, *, #121, .T. ) ;
#53 =( NAMED_UNIT ( * ) SI_UNIT ( $, .STERADIAN. ) SOLID_ANGLE_UNIT ( ) );
#54 = MECHANICAL_DESIGN_GEOMETRIC_PRESENTATION_REPRESENTATION (  '', ( #78 ), #146 ) ;
#55 = VECTOR ( 'NONE', #214, 1000.000000000000000 ) ;
#56 = MECHANICAL_DESIGN_GEOMETRIC_PRESENTATION_REPRESENTATION (  '', ( #128 ), #81 ) ;
#57 = ORIENTED_EDGE ( 'NONE', *, *, #156, .F. ) ;
#58 = CARTESIAN_POINT ( 'NONE',  ( 0.000000000000000000, 1.000000000000000000, 0.000000000000000000 ) ) ;
#59 = ORIENTED_EDGE ( 'NONE', *, *, #313, .F. ) ;
#60 = FILL_AREA_STYLE ('',( #224 ) ) ;
#61 = SURFACE_SIDE_STYLE ('',( #28 ) ) ;
#62 = FACE_OUTER_BOUND ( 'NONE', #305, .T. ) ;
#63 = ORIENTED_EDGE ( 'NONE', *, *, #208, .F. ) ;
#64 = ADVANCED_FACE ( 'NONE', ( #62 ), #225, .T. ) ;
#65 = FILL_AREA_STYLE_COLOUR ( '', #202 ) ;
#66 = AXIS2_PLACEMENT_3D ( 'NONE', #210, #49, #51 ) ;
#67 = DIRECTION ( 'NONE',  ( 0.000000000000000000, 0.000000000000000000, -1.000000000000000000 ) ) ;
#68 = AXIS2_PLACEMENT_3D ( 'NONE', #322, #336, #299 ) ;
#69 = UNCERTAINTY_MEASURE_WITH_UNIT (LENGTH_MEASURE( 1.000000000000000082E-05 ), #165, 'distance_accuracy_value', 'NONE');
#70 = CARTESIAN_POINT ( 'NONE',  ( 0.000000000000000000, 1.000000000000000000, 0.000000000000000000 ) ) ;
#71 = SURFACE_SIDE_STYLE ('',( #342 ) ) ;
#72 = AXIS2_PLACEMENT_3D ( 'NONE', #363, #119, #332 ) ;
#73 = PRESENTATION_LAYER_ASSIGNMENT (  '', '', ( #128 ) ) ;
#74 = DIRECTION ( 'NONE',  ( 0.000000000000000000, 0.000000000000000000, -1.000000000000000000 ) ) ;
#75 = FILL_AREA_STYLE_COLOUR ( '', #273 ) ;
#76 = UNCERTAINTY_MEASURE_WITH_UNIT (LENGTH_MEASURE( 1.000000000000000082E-05 ), #279, 'distance_accuracy_value', 'NONE');
#77 =( NAMED_UNIT ( * ) SI_UNIT ( $, .STERADIAN. ) SOLID_ANGLE_UNIT ( ) );
#78 = STYLED_ITEM ( 'NONE', ( #205 ), #150 ) ;
#79 = ORIENTED_EDGE ( 'NONE', *, *, #266, .T. ) ;
#80 = PRODUCT_DEFINITION_FORMATION_WITH_SPECIFIED_SOURCE ( 'ANY', '', #5, .NOT_KNOWN. ) ;
#81 =( GEOMETRIC_REPRESENTATION_CONTEXT ( 3 ) GLOBAL_UNCERTAINTY_ASSIGNED_CONTEXT ( ( #149 ) ) GLOBAL_UNIT_ASSIGNED_CONTEXT ( ( #339, #362, #29 ) ) REPRESENTATION_CONTEXT ( 'NONE', 'WORKASPACE' ) );
#82 = FILL_AREA_STYLE_COLOUR ( '', #219 ) ;
#83 =( LENGTH_UNIT ( ) NAMED_UNIT ( * ) SI_UNIT ( .MILLI., .METRE. ) );
#84 = DIRECTION ( 'NONE',  ( -0.000000000000000000, -1.000000000000000000, -0.000000000000000000 ) ) ;
#85 = APPLICATION_PROTOCOL_DEFINITION ( 'draft international standard', 'automotive_design', 1998, #234 ) ;
#86 = SURFACE_STYLE_FILL_AREA ( #186 ) ;
#87 = MECHANICAL_DESIGN_GEOMETRIC_PRESENTATION_REPRESENTATION (  '', ( #93 ), #11 ) ;
#88 =( NAMED_UNIT ( * ) PLANE_ANGLE_UNIT ( ) SI_UNIT ( $, .RADIAN. ) );
#89 = ADVANCED_FACE ( 'NONE', ( #341 ), #316, .T. ) ;
#90 = ORIENTED_EDGE ( 'NONE', *, *, #297, .F. ) ;
#91 =( LENGTH_UNIT ( ) NAMED_UNIT ( * ) SI_UNIT ( .MILLI., .METRE. ) );
#92 = SURFACE_SIDE_STYLE ('',( #333 ) ) ;
#93 = STYLED_ITEM ( 'NONE', ( #360 ), #200 ) ;
#94 = SURFACE_STYLE_USAGE ( .BOTH. , #140 ) ;
#95 = EDGE_CURVE ( 'NONE', #173, #255, #256, .T. ) ;
#96 = DIRECTION ( 'NONE',  ( 0.000000000000000000, 0.000000000000000000, -1.000000000000000000 ) ) ;
#97 = PRESENTATION_STYLE_ASSIGNMENT (( #31 ) ) ;
#98 = ORIENTED_EDGE ( 'NONE', *, *, #1, .T. ) ;
#99 = AXIS2_PLACEMENT_3D ( 'NONE', #203, #101, #155 ) ;
#100 = DIRECTION ( 'NONE',  ( -1.000000000000000000, 0.000000000000000000, 0.000000000000000000 ) ) ;
#101 = DIRECTION ( 'NONE',  ( -0.000000000000000000, -1.000000000000000000, -0.000000000000000000 ) ) ;
#102 = DIRECTION ( 'NONE',  ( -1.236440607496819135E-16, 1.000000000000000000, -0.000000000000000000 ) ) ;
#103 = DIRECTION ( 'NONE',  ( -1.000000000000000000, 0.000000000000000000, 0.000000000000000000 ) ) ;
#104 = AXIS2_PLACEMENT_3D ( 'NONE', #261, #14, #235 ) ;
#105 = EDGE_LOOP ( 'NONE', ( #59, #355 ) ) ;
#106 = VERTEX_POINT ( 'NONE', #143 ) ;
#107 = UNCERTAINTY_MEASURE_WITH_UNIT (LENGTH_MEASURE( 1.000000000000000082E-05 ), #83, 'distance_accuracy_value', 'NONE');
#108 =( NAMED_UNIT ( * ) PLANE_ANGLE_UNIT ( ) SI_UNIT ( $, .RADIAN. ) );
#109 = CARTESIAN_POINT ( 'NONE',  ( 0.000000000000000000, 40.00000000000000000, 0.000000000000000000 ) ) ;
#110 = SURFACE_SIDE_STYLE ('',( #133 ) ) ;
#111 = DIRECTION ( 'NONE',  ( 0.000000000000000000, 0.000000000000000000, 1.000000000000000000 ) ) ;
#112 = FILL_AREA_STYLE ('',( #75 ) ) ;
#113 = FACE_OUTER_BOUND ( 'NONE', #285, .T. ) ;
#114 = CIRCLE ( 'NONE', #99, 9.000000000000001776 ) ;
#115 = EDGE_CURVE ( 'NONE', #196, #242, #268, .T. ) ;
#116 = FILL_AREA_STYLE_COLOUR ( '', #343 ) ;
#117 = SURFACE_STYLE_FILL_AREA ( #124 ) ;
#118 = EDGE_LOOP ( 'NONE', ( #152, #188, #254, #337 ) ) ;
#119 = DIRECTION ( 'NONE',  ( -0.000000000000000000, -1.000000000000000000, -0.000000000000000000 ) ) ;
#120 = FACE_OUTER_BOUND ( 'NONE', #280, .T. ) ;
#121 = EDGE_CURVE ( 'NONE', #296, #310, #25, .T. ) ;
#122 = PRESENTATION_LAYER_ASSIGNMENT (  '', '', ( #30 ) ) ;
#123 = CARTESIAN_POINT ( 'NONE',  ( 1.224646799147353256E-15, 40.00000000000000000, 10.00000000000000000 ) ) ;
#124 = FILL_AREA_STYLE ('',( #193 ) ) ;
#125 = PRODUCT_RELATED_PRODUCT_CATEGORY ( 'part', '', ( #5 ) ) ;
#126 = FACE_OUTER_BOUND ( 'NONE', #118, .T. ) ;
#127 = DIRECTION ( 'NONE',  ( -0.000000000000000000, -1.000000000000000000, -0.000000000000000000 ) ) ;
#128 = STYLED_ITEM ( 'NONE', ( #97 ), #64 ) ;
#129 = CYLINDRICAL_SURFACE ( 'NONE', #7, 9.999999999999998224 ) ;
#130 = CARTESIAN_POINT ( 'NONE',  ( -10.00000000000000000, 100.0000000000000000, 0.000000000000000000 ) ) ;
#131 = ORIENTED_EDGE ( 'NONE', *, *, #226, .T. ) ;
#132 = AXIS2_PLACEMENT_3D ( 'NONE', #192, #338, #96 ) ;
#133 = SURFACE_STYLE_FILL_AREA ( #244 ) ;
#134 = FILL_AREA_STYLE_COLOUR ( '', #294 ) ;
#135 = CARTESIAN_POINT ( 'NONE',  ( -1.347111479062090180E-15, 100.0000000000000000, 0.000000000000000000 ) ) ;
#136 = APPLICATION_CONTEXT ( 'automotive_design' ) ;
#137 = DIRECTION ( 'NONE',  ( 1.000000000000000000, 0.000000000000000000, 0.000000000000000000 ) ) ;
#138 = AXIS2_PLACEMENT_3D ( 'NONE', #70, #227, #74 ) ;
#139 =( LENGTH_UNIT ( ) NAMED_UNIT ( * ) SI_UNIT ( .MILLI., .METRE. ) );
#140 = SURFACE_SIDE_STYLE ('',( #142 ) ) ;
#141 =( NAMED_UNIT ( * ) SI_UNIT ( $, .STERADIAN. ) SOLID_ANGLE_UNIT ( ) );
#142 = SURFACE_STYLE_FILL_AREA ( #60 ) ;
#143 = CARTESIAN_POINT ( 'NONE',  ( 0.000000000000000000, 40.00000000000000000, -10.00000000000000000 ) ) ;
#144 = FILL_AREA_STYLE ('',( #116 ) ) ;
#145 = CARTESIAN_POINT ( 'NONE',  ( -1.347111479062089982E-15, 100.0000000000000000, 0.000000000000000000 ) ) ;
#146 =( GEOMETRIC_REPRESENTATION_CONTEXT ( 3 ) GLOBAL_UNCERTAINTY_ASSIGNED_CONTEXT ( ( #69 ) ) GLOBAL_UNIT_ASSIGNED_CONTEXT ( ( #165, #158, #321 ) ) REPRESENTATION_CONTEXT ( 'NONE', 'WORKASPACE' ) );
#147 = DIRECTION ( 'NONE',  ( -0.000000000000000000, -1.000000000000000000, -0.000000000000000000 ) ) ;
#148 = ORIENTED_EDGE ( 'NONE', *, *, #1, .F. ) ;
#149 = UNCERTAINTY_MEASURE_WITH_UNIT (LENGTH_MEASURE( 1.000000000000000082E-05 ), #339, 'distance_accuracy_value', 'NONE');
#150 = ADVANCED_FACE ( 'NONE', ( #120 ), #222, .T. ) ;
#151 = DIRECTION ( 'NONE',  ( -0.000000000000000000, -1.000000000000000000, -0.000000000000000000 ) ) ;
#152 = ORIENTED_EDGE ( 'NONE', *, *, #334, .F. ) ;
#153 = AXIS2_PLACEMENT_3D ( 'NONE', #365, #147, #220 ) ;
#154 = PRESENTATION_STYLE_ASSIGNMENT (( #311 ) ) ;
#155 = DIRECTION ( 'NONE',  ( 0.000000000000000000, 0.000000000000000000, -1.000000000000000000 ) ) ;
#156 = EDGE_CURVE ( 'NONE', #246, #160, #240, .T. ) ;
#157 = ORIENTED_EDGE ( 'NONE', *, *, #213, .T. ) ;
#158 =( NAMED_UNIT ( * ) PLANE_ANGLE_UNIT ( ) SI_UNIT ( $, .RADIAN. ) );
#159 = EDGE_LOOP ( 'NONE', ( #312, #157, #326, #209 ) ) ;
#160 = VERTEX_POINT ( 'NONE', #215 ) ;
#161 = FACE_OUTER_BOUND ( 'NONE', #170, .T. ) ;
#162 = FACE_OUTER_BOUND ( 'NONE', #180, .T. ) ;
#163 =( NAMED_UNIT ( * ) PLANE_ANGLE_UNIT ( ) SI_UNIT ( $, .RADIAN. ) );
#164 = AXIS2_PLACEMENT_3D ( 'NONE', #248, #249, #364 ) ;
#165 =( LENGTH_UNIT ( ) NAMED_UNIT ( * ) SI_UNIT ( .MILLI., .METRE. ) );
#166 = DIRECTION ( 'NONE',  ( -1.000000000000000000, 0.000000000000000000, 0.000000000000000000 ) ) ;
#167 = DIRECTION ( 'NONE',  ( -1.000000000000000000, 0.000000000000000000, 0.000000000000000000 ) ) ;
#168 = UNCERTAINTY_MEASURE_WITH_UNIT (LENGTH_MEASURE( 1.000000000000000082E-05 ), #318, 'distance_accuracy_value', 'NONE');
#169 = CIRCLE ( 'NONE', #132, 9.000000000000001776 ) ;
#170 = EDGE_LOOP ( 'NONE', ( #22, #131, #52, #63 ) ) ;
#171 = DIRECTION ( 'NONE',  ( 0.000000000000000000, 0.000000000000000000, -1.000000000000000000 ) ) ;
#172 = FILL_AREA_STYLE ('',( #65 ) ) ;
#173 = VERTEX_POINT ( 'NONE', #290 ) ;
#174 = PRESENTATION_LAYER_ASSIGNMENT (  '', '', ( #78 ) ) ;
#175 = CARTESIAN_POINT ( 'NONE',  ( 6.071532165918824830E-15, 40.00000000000000000, 0.000000000000000000 ) ) ;
#176 = DIRECTION ( 'NONE',  ( -1.236440607496819135E-16, 1.000000000000000000, -0.000000000000000000 ) ) ;
#177 = CIRCLE ( 'NONE', #40, 10.00000000000000355 ) ;
#178 = ADVANCED_FACE ( 'NONE', ( #207 ), #354, .T. ) ;
#179 = AXIS2_PLACEMENT_3D ( 'NONE', #135, #359, #166 ) ;
#180 = EDGE_LOOP ( 'NONE', ( #191, #353, #37, #90 ) ) ;
#181 = AXIS2_PLACEMENT_3D ( 'NONE', #58, #27, #370 ) ;
#182 = PRESENTATION_STYLE_ASSIGNMENT (( #352 ) ) ;
#183 = AXIS2_PLACEMENT_3D ( 'NONE', #109, #84, #271 ) ;
#184 = CARTESIAN_POINT ( 'NONE',  ( 0.000000000000000000, 0.000000000000000000, -10.00000000000000178 ) ) ;
#185 = ADVANCED_FACE ( 'NONE', ( #161 ), #260, .T. ) ;
#186 = FILL_AREA_STYLE ('',( #82 ) ) ;
#187 = SURFACE_STYLE_USAGE ( .BOTH. , #237 ) ;
#188 = ORIENTED_EDGE ( 'NONE', *, *, #115, .T. ) ;
#189 = PRESENTATION_STYLE_ASSIGNMENT (( #187 ) ) ;
#190 = PRESENTATION_LAYER_ASSIGNMENT (  '', '', ( #18 ) ) ;
#191 = ORIENTED_EDGE ( 'NONE', *, *, #313, .T. ) ;
#192 = CARTESIAN_POINT ( 'NONE',  ( 0.000000000000000000, 0.000000000000000000, 0.000000000000000000 ) ) ;
#193 = FILL_AREA_STYLE_COLOUR ( '', #26 ) ;
#194 = CYLINDRICAL_SURFACE ( 'NONE', #72, 10.00000000000000178 ) ;
#195 = PRESENTATION_STYLE_ASSIGNMENT (( #94 ) ) ;
#196 = VERTEX_POINT ( 'NONE', #263 ) ;
#197 = LINE ( 'NONE', #36, #55 ) ;
#198 = CARTESIAN_POINT ( 'NONE',  ( 0.000000000000000000, 1.000000000000000000, 0.000000000000000000 ) ) ;
#199 = SURFACE_STYLE_USAGE ( .BOTH. , #92 ) ;
#200 = ADVANCED_FACE ( 'NONE', ( #298 ), #194, .T. ) ;
#201 = DIRECTION ( 'NONE',  ( -1.236440607496819135E-16, 1.000000000000000000, -0.000000000000000000 ) ) ;
#202 = COLOUR_RGB ( '',1.000000000000000000, 0.000000000000000000, 0.000000000000000000 ) ;
#203 = CARTESIAN_POINT ( 'NONE',  ( 0.000000000000000000, 0.000000000000000000, 0.000000000000000000 ) ) ;
#204 = ORIENTED_EDGE ( 'NONE', *, *, #95, .T. ) ;
#205 = PRESENTATION_STYLE_ASSIGNMENT (( #199 ) ) ;
#206 = PRODUCT_CONTEXT ( 'NONE', #234, 'mechanical' ) ;
#207 = FACE_OUTER_BOUND ( 'NONE', #350, .T. ) ;
#208 = EDGE_CURVE ( 'NONE', #17, #310, #169, .T. ) ;
#209 = ORIENTED_EDGE ( 'NONE', *, *, #121, .F. ) ;
#210 = CARTESIAN_POINT ( 'NONE',  ( 0.000000000000000000, 0.000000000000000000, 0.000000000000000000 ) ) ;
#211 = COLOUR_RGB ( '',1.000000000000000000, 0.000000000000000000, 0.000000000000000000 ) ;
#212 = ORIENTED_EDGE ( 'NONE', *, *, #208, .T. ) ;
#213 = EDGE_CURVE ( 'NONE', #160, #17, #282, .T. ) ;
#214 = DIRECTION ( 'NONE',  ( -1.236440607496819135E-16, 1.000000000000000000, -0.000000000000000000 ) ) ;
#215 = CARTESIAN_POINT ( 'NONE',  ( 1.224646799147353256E-15, 1.000000000000000000, 10.00000000000000178 ) ) ;
#216 = LINE ( 'NONE', #184, #47 ) ;
#217 = AXIS2_PLACEMENT_3D ( 'NONE', #251, #167, #369 ) ;
#218 = SURFACE_SIDE_STYLE ('',( #86 ) ) ;
#219 = COLOUR_RGB ( '',0.7921568627450980005, 0.8196078431372548767, 0.9333333333333333481 ) ;
#220 = DIRECTION ( 'NONE',  ( 0.000000000000000000, 0.000000000000000000, -1.000000000000000000 ) ) ;
#221 = DIRECTION ( 'NONE',  ( -0.000000000000000000, -1.000000000000000000, -0.000000000000000000 ) ) ;
#222 = PLANE ( 'NONE',  #104 ) ;
#223 = PRESENTATION_LAYER_ASSIGNMENT (  '', '', ( #93 ) ) ;
#224 = FILL_AREA_STYLE_COLOUR ( '', #211 ) ;
#225 = CYLINDRICAL_SURFACE ( 'NONE', #241, 10.00000000000000178 ) ;
#226 = EDGE_CURVE ( 'NONE', #160, #296, #327, .T. ) ;
#227 = DIRECTION ( 'NONE',  ( -0.000000000000000000, -1.000000000000000000, -0.000000000000000000 ) ) ;
#228 = DIRECTION ( 'NONE',  ( -1.000000000000000000, 0.000000000000000000, 0.000000000000000000 ) ) ;
#229 =( GEOMETRIC_REPRESENTATION_CONTEXT ( 3 ) GLOBAL_UNCERTAINTY_ASSIGNED_CONTEXT ( ( #168 ) ) GLOBAL_UNIT_ASSIGNED_CONTEXT ( ( #318, #108, #77 ) ) REPRESENTATION_CONTEXT ( 'NONE', 'WORKASPACE' ) );
#230 = VECTOR ( 'NONE', #2, 1000.000000000000000 ) ;
#231 = CARTESIAN_POINT ( 'NONE',  ( 0.000000000000000000, 0.000000000000000000, -9.000000000000001776 ) ) ;
#232 = CARTESIAN_POINT ( 'NONE',  ( -1.347111479062090180E-15, 100.0000000000000000, 0.000000000000000000 ) ) ;
#233 = DIRECTION ( 'NONE',  ( -1.236440607496819135E-16, 1.000000000000000000, 0.000000000000000000 ) ) ;
#234 = APPLICATION_CONTEXT ( 'automotive_design' ) ;
#235 = DIRECTION ( 'NONE',  ( 0.000000000000000000, -0.000000000000000000, 1.000000000000000000 ) ) ;
#236 =( NAMED_UNIT ( * ) SI_UNIT ( $, .STERADIAN. ) SOLID_ANGLE_UNIT ( ) );
#237 = SURFACE_SIDE_STYLE ('',( #16 ) ) ;
#238 = CIRCLE ( 'NONE', #138, 10.00000000000000178 ) ;
#239 =( GEOMETRIC_REPRESENTATION_CONTEXT ( 3 ) GLOBAL_UNCERTAINTY_ASSIGNED_CONTEXT ( ( #265 ) ) GLOBAL_UNIT_ASSIGNED_CONTEXT ( ( #43, #10, #34 ) ) REPRESENTATION_CONTEXT ( 'NONE', 'WORKASPACE' ) );
#240 = LINE ( 'NONE', #357, #250 ) ;
#241 = AXIS2_PLACEMENT_3D ( 'NONE', #23, #221, #171 ) ;
#242 = VERTEX_POINT ( 'NONE', #284 ) ;
#243 = EDGE_CURVE ( 'NONE', #310, #17, #114, .T. ) ;
#244 = FILL_AREA_STYLE ('',( #134 ) ) ;
#245 =( GEOMETRIC_REPRESENTATION_CONTEXT ( 3 ) GLOBAL_UNCERTAINTY_ASSIGNED_CONTEXT ( ( #76 ) ) GLOBAL_UNIT_ASSIGNED_CONTEXT ( ( #279, #331, #306 ) ) REPRESENTATION_CONTEXT ( 'NONE', 'WORKASPACE' ) );
#246 = VERTEX_POINT ( 'NONE', #123 ) ;
#247 = ADVANCED_FACE ( 'NONE', ( #286 ), #314, .F. ) ;
#248 = CARTESIAN_POINT ( 'NONE',  ( 6.071532165918824830E-15, 40.00000000000000000, 0.000000000000000000 ) ) ;
#249 = DIRECTION ( 'NONE',  ( -1.236440607496819135E-16, 1.000000000000000000, -0.000000000000000000 ) ) ;
#250 = VECTOR ( 'NONE', #269, 1000.000000000000000 ) ;
#251 = CARTESIAN_POINT ( 'NONE',  ( 0.000000000000000000, 1.000000000000000000, -9.000000000000001776 ) ) ;
#252 = UNCERTAINTY_MEASURE_WITH_UNIT (LENGTH_MEASURE( 1.000000000000000082E-05 ), #91, 'distance_accuracy_value', 'NONE');
#253 = CARTESIAN_POINT ( 'NONE',  ( 0.000000000000000000, 1.000000000000000000, -10.00000000000000178 ) ) ;
#254 = ORIENTED_EDGE ( 'NONE', *, *, #297, .T. ) ;
#255 = VERTEX_POINT ( 'NONE', #8 ) ;
#256 = CIRCLE ( 'NONE', #367, 10.00000000000000355 ) ;
#257 = CIRCLE ( 'NONE', #20, 9.999999999999994671 ) ;
#258 = FILL_AREA_STYLE_COLOUR ( '', #335 ) ;
#259 = ORIENTED_EDGE ( 'NONE', *, *, #156, .T. ) ;
#260 = TOROIDAL_SURFACE ( 'NONE', #153, 9.000000000000001776, 1.000000000000000444 ) ;
#261 = CARTESIAN_POINT ( 'NONE',  ( 0.000000000000000000, 40.00000000000000000, 0.000000000000000000 ) ) ;
#262 = PLANE ( 'NONE',  #68 ) ;
#263 = CARTESIAN_POINT ( 'NONE',  ( 10.00000000000000178, 40.00000000000000000, 1.224646799147353651E-15 ) ) ;
#264 = CARTESIAN_POINT ( 'NONE',  ( 1.163414459189985682E-15, 0.000000000000000000, 9.000000000000001776 ) ) ;
#265 = UNCERTAINTY_MEASURE_WITH_UNIT (LENGTH_MEASURE( 1.000000000000000082E-05 ), #43, 'distance_accuracy_value', 'NONE');
#266 = EDGE_CURVE ( 'NONE', #255, #173, #177, .T. ) ;
#267 = PRESENTATION_STYLE_ASSIGNMENT (( #293 ) ) ;
#268 = CIRCLE ( 'NONE', #164, 9.999999999999994671 ) ;
#269 = DIRECTION ( 'NONE',  ( -0.000000000000000000, -1.000000000000000000, -0.000000000000000000 ) ) ;
#270 =( GEOMETRIC_REPRESENTATION_CONTEXT ( 3 ) GLOBAL_UNCERTAINTY_ASSIGNED_CONTEXT ( ( #281 ) ) GLOBAL_UNIT_ASSIGNED_CONTEXT ( ( #139, #329, #53 ) ) REPRESENTATION_CONTEXT ( 'NONE', 'WORKASPACE' ) );
#271 = DIRECTION ( 'NONE',  ( 0.000000000000000000, 0.000000000000000000, -1.000000000000000000 ) ) ;
#272 = EDGE_CURVE ( 'NONE', #296, #160, #238, .T. ) ;
#273 = COLOUR_RGB ( '',1.000000000000000000, 0.000000000000000000, 0.000000000000000000 ) ;
#274 = PRESENTATION_LAYER_ASSIGNMENT (  '', '', ( #19 ) ) ;
#275 = DIRECTION ( 'NONE',  ( -1.236440607496819135E-16, 1.000000000000000000, -0.000000000000000000 ) ) ;
#276 = STYLED_ITEM ( 'NONE', ( #195 ), #89 ) ;
#277 = UNCERTAINTY_MEASURE_WITH_UNIT (LENGTH_MEASURE( 1.000000000000000082E-05 ), #351, 'distance_accuracy_value', 'NONE');
#278 = DIRECTION ( 'NONE',  ( -1.000000000000000000, 0.000000000000000000, 0.000000000000000000 ) ) ;
#279 =( LENGTH_UNIT ( ) NAMED_UNIT ( * ) SI_UNIT ( .MILLI., .METRE. ) );
#280 = EDGE_LOOP ( 'NONE', ( #323, #344 ) ) ;
#281 = UNCERTAINTY_MEASURE_WITH_UNIT (LENGTH_MEASURE( 1.000000000000000082E-05 ), #139, 'distance_accuracy_value', 'NONE');
#282 = CIRCLE ( 'NONE', #356, 1.000000000000000888 ) ;
#283 =( GEOMETRIC_REPRESENTATION_CONTEXT ( 3 ) GLOBAL_UNCERTAINTY_ASSIGNED_CONTEXT ( ( #277 ) ) GLOBAL_UNIT_ASSIGNED_CONTEXT ( ( #351, #324, #236 ) ) REPRESENTATION_CONTEXT ( 'NONE', 'WORKASPACE' ) );
#284 = CARTESIAN_POINT ( 'NONE',  ( -9.999999999999987566, 40.00000000000000000, 0.000000000000000000 ) ) ;
#285 = EDGE_LOOP ( 'NONE', ( #204, #79 ) ) ;
#286 = FACE_OUTER_BOUND ( 'NONE', #105, .T. ) ;
#287 = MANIFOLD_SOLID_BREP ( 'Revolve - Tool Body (Straight Shanked)', #328 ) ;
#288 = LINE ( 'NONE', #130, #230 ) ;
#289 = EDGE_CURVE ( 'NONE', #106, #246, #309, .T. ) ;
#290 = CARTESIAN_POINT ( 'NONE',  ( -10.00000000000000533, 100.0000000000000000, 0.000000000000000000 ) ) ;
#291 = CYLINDRICAL_SURFACE ( 'NONE', #179, 9.999999999999998224 ) ;
#292 = APPLICATION_PROTOCOL_DEFINITION ( 'draft international standard', 'automotive_design', 1998, #136 ) ;
#293 = SURFACE_STYLE_USAGE ( .BOTH. , #218 ) ;
#294 = COLOUR_RGB ( '',1.000000000000000000, 0.000000000000000000, 0.000000000000000000 ) ;
#295 = CLOSED_SHELL ( 'NONE', ( #200, #89, #178, #185, #64, #150 ) ) ;
#296 = VERTEX_POINT ( 'NONE', #253 ) ;
#297 = EDGE_CURVE ( 'NONE', #242, #173, #288, .T. ) ;
#298 = FACE_OUTER_BOUND ( 'NONE', #361, .T. ) ;
#299 = DIRECTION ( 'NONE',  ( 1.000000000000000000, 1.236440607496819135E-16, 0.000000000000000000 ) ) ;
#300 = ORIENTED_EDGE ( 'NONE', *, *, #226, .F. ) ;
#301 =( GEOMETRIC_REPRESENTATION_CONTEXT ( 3 ) GLOBAL_UNCERTAINTY_ASSIGNED_CONTEXT ( ( #107 ) ) GLOBAL_UNIT_ASSIGNED_CONTEXT ( ( #83, #163, #325 ) ) REPRESENTATION_CONTEXT ( 'NONE', 'WORKASPACE' ) );
#302 = SURFACE_SIDE_STYLE ('',( #117 ) ) ;
#303 = STYLED_ITEM ( 'NONE', ( #267 ), #38 ) ;
#304 = ADVANCED_FACE ( 'NONE', ( #126 ), #129, .T. ) ;
#305 = EDGE_LOOP ( 'NONE', ( #57, #35, #98, #300 ) ) ;
#306 =( NAMED_UNIT ( * ) SI_UNIT ( $, .STERADIAN. ) SOLID_ANGLE_UNIT ( ) );
#307 = DIRECTION ( 'NONE',  ( -1.224646799147353454E-16, 0.000000000000000000, -1.000000000000000000 ) ) ;
#308 = AXIS2_PLACEMENT_3D ( 'NONE', #39, #233, #346 ) ;
#309 = CIRCLE ( 'NONE', #349, 10.00000000000000000 ) ;
#310 = VERTEX_POINT ( 'NONE', #231 ) ;
#311 = SURFACE_STYLE_USAGE ( .BOTH. , #71 ) ;
#312 = ORIENTED_EDGE ( 'NONE', *, *, #272, .T. ) ;
#313 = EDGE_CURVE ( 'NONE', #242, #196, #257, .T. ) ;
#314 = PLANE ( 'NONE',  #308 ) ;
#315 = CARTESIAN_POINT ( 'NONE',  ( 0.000000000000000000, 40.00000000000000000, 0.000000000000000000 ) ) ;
#316 = TOROIDAL_SURFACE ( 'NONE', #181, 9.000000000000001776, 1.000000000000000444 ) ;
#317 = PRESENTATION_LAYER_ASSIGNMENT (  '', '', ( #303 ) ) ;
#318 =( LENGTH_UNIT ( ) NAMED_UNIT ( * ) SI_UNIT ( .MILLI., .METRE. ) );
#319 = AXIS2_PLACEMENT_3D ( 'NONE', #13, #111, #137 ) ;
#320 = PRESENTATION_LAYER_ASSIGNMENT (  '', '', ( #276 ) ) ;
#321 =( NAMED_UNIT ( * ) SI_UNIT ( $, .STERADIAN. ) SOLID_ANGLE_UNIT ( ) );
#322 = CARTESIAN_POINT ( 'NONE',  ( 10.00000000000000178, 100.0000000000000000, 0.000000000000000000 ) ) ;
#323 = ORIENTED_EDGE ( 'NONE', *, *, #289, .F. ) ;
#324 =( NAMED_UNIT ( * ) PLANE_ANGLE_UNIT ( ) SI_UNIT ( $, .RADIAN. ) );
#325 =( NAMED_UNIT ( * ) SI_UNIT ( $, .STERADIAN. ) SOLID_ANGLE_UNIT ( ) );
#326 = ORIENTED_EDGE ( 'NONE', *, *, #243, .F. ) ;
#327 = CIRCLE ( 'NONE', #6, 10.00000000000000178 ) ;
#328 = CLOSED_SHELL ( 'NONE', ( #9, #247, #304, #46 ) ) ;
#329 =( NAMED_UNIT ( * ) PLANE_ANGLE_UNIT ( ) SI_UNIT ( $, .RADIAN. ) );
#330 = SURFACE_STYLE_USAGE ( .BOTH. , #61 ) ;
#331 =( NAMED_UNIT ( * ) PLANE_ANGLE_UNIT ( ) SI_UNIT ( $, .RADIAN. ) );
#332 = DIRECTION ( 'NONE',  ( 0.000000000000000000, 0.000000000000000000, -1.000000000000000000 ) ) ;
#333 = SURFACE_STYLE_FILL_AREA ( #172 ) ;
#334 = EDGE_CURVE ( 'NONE', #196, #255, #197, .T. ) ;
#335 = COLOUR_RGB ( '',0.7921568627450980005, 0.8196078431372548767, 0.9333333333333333481 ) ;
#336 = DIRECTION ( 'NONE',  ( 1.236440607496819135E-16, -1.000000000000000000, 0.000000000000000000 ) ) ;
#337 = ORIENTED_EDGE ( 'NONE', *, *, #266, .F. ) ;
#338 = DIRECTION ( 'NONE',  ( -0.000000000000000000, -1.000000000000000000, -0.000000000000000000 ) ) ;
#339 =( LENGTH_UNIT ( ) NAMED_UNIT ( * ) SI_UNIT ( .MILLI., .METRE. ) );
#340 = DIRECTION ( 'NONE',  ( 1.000000000000000000, 0.000000000000000000, -1.224646799147353207E-16 ) ) ;
#341 = FACE_OUTER_BOUND ( 'NONE', #159, .T. ) ;
#342 = SURFACE_STYLE_FILL_AREA ( #345 ) ;
#343 = COLOUR_RGB ( '',1.000000000000000000, 0.000000000000000000, 0.000000000000000000 ) ;
#344 = ORIENTED_EDGE ( 'NONE', *, *, #21, .F. ) ;
#345 = FILL_AREA_STYLE ('',( #258 ) ) ;
#346 = DIRECTION ( 'NONE',  ( -1.000000000000000000, -1.236440607496819135E-16, 0.000000000000000000 ) ) ;
#347 = CARTESIAN_POINT ( 'NONE',  ( -1.347111479062089982E-15, 100.0000000000000000, 0.000000000000000000 ) ) ;
#348 = MECHANICAL_DESIGN_GEOMETRIC_PRESENTATION_REPRESENTATION (  '', ( #30 ), #229 ) ;
#349 = AXIS2_PLACEMENT_3D ( 'NONE', #315, #151, #4 ) ;
#350 = EDGE_LOOP ( 'NONE', ( #3, #212 ) ) ;
#351 =( LENGTH_UNIT ( ) NAMED_UNIT ( * ) SI_UNIT ( .MILLI., .METRE. ) );
#352 = SURFACE_STYLE_USAGE ( .BOTH. , #110 ) ;
#353 = ORIENTED_EDGE ( 'NONE', *, *, #334, .T. ) ;
#354 = PLANE ( 'NONE',  #66 ) ;
#355 = ORIENTED_EDGE ( 'NONE', *, *, #115, .F. ) ;
#356 = AXIS2_PLACEMENT_3D ( 'NONE', #42, #340, #307 ) ;
#357 = CARTESIAN_POINT ( 'NONE',  ( 1.224646799147353454E-15, 0.000000000000000000, 10.00000000000000178 ) ) ;
#358 = DIRECTION ( 'NONE',  ( -0.000000000000000000, -1.000000000000000000, -0.000000000000000000 ) ) ;
#359 = DIRECTION ( 'NONE',  ( -1.236440607496819135E-16, 1.000000000000000000, -0.000000000000000000 ) ) ;
#360 = PRESENTATION_STYLE_ASSIGNMENT (( #330 ) ) ;
#361 = EDGE_LOOP ( 'NONE', ( #50, #259, #15, #148 ) ) ;
#362 =( NAMED_UNIT ( * ) PLANE_ANGLE_UNIT ( ) SI_UNIT ( $, .RADIAN. ) );
#363 = CARTESIAN_POINT ( 'NONE',  ( 0.000000000000000000, 0.000000000000000000, 0.000000000000000000 ) ) ;
#364 = DIRECTION ( 'NONE',  ( -1.000000000000000000, 0.000000000000000000, 0.000000000000000000 ) ) ;
#365 = CARTESIAN_POINT ( 'NONE',  ( 0.000000000000000000, 1.000000000000000000, 0.000000000000000000 ) ) ;
#366 = PRODUCT_DEFINITION_SHAPE ( 'NONE', 'NONE',  #45 ) ;
#367 = AXIS2_PLACEMENT_3D ( 'NONE', #145, #275, #278 ) ;
#368 = MECHANICAL_DESIGN_GEOMETRIC_PRESENTATION_REPRESENTATION (  '', ( #19 ), #239 ) ;
#369 = DIRECTION ( 'NONE',  ( 0.000000000000000000, 0.000000000000000000, 1.000000000000000000 ) ) ;
#370 = DIRECTION ( 'NONE',  ( 0.000000000000000000, 0.000000000000000000, -1.000000000000000000 ) ) ;
ENDSEC;
END-ISO-10303-21;
