ISO-10303-21;
HEADER;
FILE_DESCRIPTION (( 'STEP AP214' ),
    '1' );
FILE_NAME ('84047.STEP',
    '2023-06-23T10:59:13',
    ( '' ),
    ( '' ),
    'SwSTEP 2.0',
    'SolidWorks 2023',
    '' );
FILE_SCHEMA (( 'AUTOMOTIVE_DESIGN' ));
ENDSEC;

DATA;
#1 = CIRCLE ( 'NONE', #311, 0.1250000000000000555 ) ;
#2 = FACE_OUTER_BOUND ( 'NONE', #185, .T. ) ;
#3 = ORIENTED_EDGE ( 'NONE', *, *, #262, .T. ) ;
#4 = PRESENTATION_STYLE_ASSIGNMENT (( #137 ) ) ;
#5 = ORIENTED_EDGE ( 'NONE', *, *, #10, .T. ) ;
#6 = CARTESIAN_POINT ( 'NONE',  ( 0.000000000000000000, 0.000000000000000000, -0.03905000000000000138 ) ) ;
#7 = SURFACE_STYLE_FILL_AREA ( #151 ) ;
#8 = CIRCLE ( 'NONE', #220, 0.1250000000000000278 ) ;
#9 = FACE_OUTER_BOUND ( 'NONE', #249, .T. ) ;
#10 = EDGE_CURVE ( 'NONE', #60, #164, #279, .T. ) ;
#11 = DIRECTION ( 'NONE',  ( -0.000000000000000000, -1.000000000000000000, -0.000000000000000000 ) ) ;
#12 =( LENGTH_UNIT ( ) NAMED_UNIT ( * ) SI_UNIT ( $, .METRE. ) );
#13 = DIRECTION ( 'NONE',  ( -2.881521880346713429E-17, 1.000000000000000000, -0.000000000000000000 ) ) ;
#14 = CARTESIAN_POINT ( 'NONE',  ( -6.123233995736766036E-17, 2.500000000000000000, 0.000000000000000000 ) ) ;
#15 = VERTEX_POINT ( 'NONE', #284 ) ;
#16 = DIRECTION ( 'NONE',  ( 2.881521880346713429E-17, -1.000000000000000000, 0.000000000000000000 ) ) ;
#17 = ADVANCED_FACE ( 'NONE', ( #195 ), #83, .T. ) ;
#18 =( NAMED_UNIT ( * ) PLANE_ANGLE_UNIT ( ) SI_UNIT ( $, .RADIAN. ) );
#19 =( LENGTH_UNIT ( ) NAMED_UNIT ( * ) SI_UNIT ( $, .METRE. ) );
#20 = COLOUR_RGB ( '',0.7921568627450980005, 0.8196078431372548767, 0.9333333333333333481 ) ;
#21 =( GEOMETRIC_REPRESENTATION_CONTEXT ( 3 ) GLOBAL_UNCERTAINTY_ASSIGNED_CONTEXT ( ( #59 ) ) GLOBAL_UNIT_ASSIGNED_CONTEXT ( ( #28, #256, #135 ) ) REPRESENTATION_CONTEXT ( 'NONE', 'WORKASPACE' ) );
#22 = EDGE_CURVE ( 'NONE', #164, #161, #326, .T. ) ;
#23 = DIMENSIONAL_EXPONENTS ( 1.000000000000000000, 0.000000000000000000, 0.000000000000000000, 0.000000000000000000, 0.000000000000000000, 0.000000000000000000, 0.000000000000000000 ) ;
#24 = DIRECTION ( 'NONE',  ( 1.000000000000000000, 2.881521880346713429E-17, 0.000000000000000000 ) ) ;
#25 = EDGE_LOOP ( 'NONE', ( #183, #96 ) ) ;
#26 = CARTESIAN_POINT ( 'NONE',  ( 0.000000000000000000, 0.3750000000000000555, 0.000000000000000000 ) ) ;
#27 = ORIENTED_EDGE ( 'NONE', *, *, #218, .F. ) ;
#28 =( CONVERSION_BASED_UNIT ( 'INCH', #81 ) LENGTH_UNIT ( ) NAMED_UNIT ( #250 ) );
#29 = EDGE_LOOP ( 'NONE', ( #42, #133 ) ) ;
#30 = CLOSED_SHELL ( 'NONE', ( #48, #358, #102, #17 ) ) ;
#31 = CARTESIAN_POINT ( 'NONE',  ( -0.1250000000000000555, 0.6957697669105442628, 0.000000000000000000 ) ) ;
#32 = PRESENTATION_LAYER_ASSIGNMENT (  '', '', ( #186 ) ) ;
#33 = PRESENTATION_LAYER_ASSIGNMENT (  '', '', ( #154 ) ) ;
#34 = SURFACE_SIDE_STYLE ('',( #285 ) ) ;
#35 = LENGTH_MEASURE_WITH_UNIT ( LENGTH_MEASURE( 0.02539999999999999897 ), #123 );
#36 = PRESENTATION_STYLE_ASSIGNMENT (( #267 ) ) ;
#37 = PRESENTATION_STYLE_ASSIGNMENT (( #234 ) ) ;
#38 = SURFACE_SIDE_STYLE ('',( #7 ) ) ;
#39 = FILL_AREA_STYLE ('',( #64 ) ) ;
#40 = CARTESIAN_POINT ( 'NONE',  ( -6.123233995736766036E-17, 2.500000000000000000, 0.000000000000000000 ) ) ;
#41 = DIRECTION ( 'NONE',  ( 0.000000000000000000, 0.000000000000000000, -1.000000000000000000 ) ) ;
#42 = ORIENTED_EDGE ( 'NONE', *, *, #187, .F. ) ;
#43 = DIRECTION ( 'NONE',  ( 0.000000000000000000, 0.000000000000000000, -1.000000000000000000 ) ) ;
#44 = DIRECTION ( 'NONE',  ( -2.881521880346713429E-17, 1.000000000000000000, -0.000000000000000000 ) ) ;
#45 = ORIENTED_EDGE ( 'NONE', *, *, #218, .T. ) ;
#46 = DIRECTION ( 'NONE',  ( -0.000000000000000000, -1.000000000000000000, -0.000000000000000000 ) ) ;
#47 = DIRECTION ( 'NONE',  ( 0.000000000000000000, -0.000000000000000000, 1.000000000000000000 ) ) ;
#48 = ADVANCED_FACE ( 'NONE', ( #9 ), #344, .T. ) ;
#49 =( GEOMETRIC_REPRESENTATION_CONTEXT ( 3 ) GLOBAL_UNCERTAINTY_ASSIGNED_CONTEXT ( ( #253 ) ) GLOBAL_UNIT_ASSIGNED_CONTEXT ( ( #258, #98, #246 ) ) REPRESENTATION_CONTEXT ( 'NONE', 'WORKASPACE' ) );
#50 = UNCERTAINTY_MEASURE_WITH_UNIT (LENGTH_MEASURE( 1.000000000000000082E-05 ), #230, 'distance_accuracy_value', 'NONE');
#51 = ORIENTED_EDGE ( 'NONE', *, *, #136, .F. ) ;
#52 = PRODUCT_DEFINITION ( 'UNKNOWN', '', #339, #89 ) ;
#53 = CIRCLE ( 'NONE', #304, 0.03905000000000000138 ) ;
#54 = SURFACE_STYLE_USAGE ( .BOTH. , #34 ) ;
#55 = EDGE_CURVE ( 'NONE', #85, #60, #53, .T. ) ;
#56 = VERTEX_POINT ( 'NONE', #292 ) ;
#57 =( GEOMETRIC_REPRESENTATION_CONTEXT ( 3 ) GLOBAL_UNCERTAINTY_ASSIGNED_CONTEXT ( ( #281 ) ) GLOBAL_UNIT_ASSIGNED_CONTEXT ( ( #101, #76, #353 ) ) REPRESENTATION_CONTEXT ( 'NONE', 'WORKASPACE' ) );
#58 = DIRECTION ( 'NONE',  ( -0.000000000000000000, -1.000000000000000000, -0.000000000000000000 ) ) ;
#59 = UNCERTAINTY_MEASURE_WITH_UNIT (LENGTH_MEASURE( 1.000000000000000082E-05 ), #28, 'distance_accuracy_value', 'NONE');
#60 = VERTEX_POINT ( 'NONE', #94 ) ;
#61 = DIRECTION ( 'NONE',  ( -2.881521880346713429E-17, 1.000000000000000000, -0.000000000000000000 ) ) ;
#62 = FILL_AREA_STYLE_COLOUR ( '', #219 ) ;
#63 = DIRECTION ( 'NONE',  ( -2.881521880346713429E-17, 1.000000000000000000, -0.000000000000000000 ) ) ;
#64 = FILL_AREA_STYLE_COLOUR ( '', #117 ) ;
#65 =( GEOMETRIC_REPRESENTATION_CONTEXT ( 3 ) GLOBAL_UNCERTAINTY_ASSIGNED_CONTEXT ( ( #307 ) ) GLOBAL_UNIT_ASSIGNED_CONTEXT ( ( #84, #108, #227 ) ) REPRESENTATION_CONTEXT ( 'NONE', 'WORKASPACE' ) );
#66 = DIRECTION ( 'NONE',  ( 0.2588190451025212946, 0.9659258262890682012, 3.169619151431772337E-17 ) ) ;
#67 = MECHANICAL_DESIGN_GEOMETRIC_PRESENTATION_REPRESENTATION (  '', ( #166 ), #21 ) ;
#68 = SURFACE_STYLE_FILL_AREA ( #39 ) ;
#69 = LINE ( 'NONE', #202, #261 ) ;
#70 = CARTESIAN_POINT ( 'NONE',  ( -9.243051019064479102E-18, 0.6957697669105442628, 0.000000000000000000 ) ) ;
#71 = ORIENTED_EDGE ( 'NONE', *, *, #262, .F. ) ;
#72 = ORIENTED_EDGE ( 'NONE', *, *, #136, .T. ) ;
#73 = CARTESIAN_POINT ( 'NONE',  ( 4.782245750670414162E-18, 0.000000000000000000, 0.03905000000000000138 ) ) ;
#74 = PRODUCT_CONTEXT ( 'NONE', #126, 'mechanical' ) ;
#75 = EDGE_CURVE ( 'NONE', #245, #15, #259, .T. ) ;
#76 =( NAMED_UNIT ( * ) PLANE_ANGLE_UNIT ( ) SI_UNIT ( $, .RADIAN. ) );
#77 =( NAMED_UNIT ( * ) SI_UNIT ( $, .STERADIAN. ) SOLID_ANGLE_UNIT ( ) );
#78 = DIMENSIONAL_EXPONENTS ( 1.000000000000000000, 0.000000000000000000, 0.000000000000000000, 0.000000000000000000, 0.000000000000000000, 0.000000000000000000, 0.000000000000000000 ) ;
#79 = DIMENSIONAL_EXPONENTS ( 1.000000000000000000, 0.000000000000000000, 0.000000000000000000, 0.000000000000000000, 0.000000000000000000, 0.000000000000000000, 0.000000000000000000 ) ;
#80 = EDGE_CURVE ( 'NONE', #15, #245, #105, .T. ) ;
#81 = LENGTH_MEASURE_WITH_UNIT ( LENGTH_MEASURE( 0.02539999999999999897 ), #356 );
#82 = CARTESIAN_POINT ( 'NONE',  ( 4.782245750670414162E-18, 0.000000000000000000, 0.03905000000000000138 ) ) ;
#83 = PLANE ( 'NONE',  #215 ) ;
#84 =( CONVERSION_BASED_UNIT ( 'INCH', #336 ) LENGTH_UNIT ( ) NAMED_UNIT ( #79 ) );
#85 = VERTEX_POINT ( 'NONE', #212 ) ;
#86 = AXIS2_PLACEMENT_3D ( 'NONE', #90, #179, #119 ) ;
#87 = MECHANICAL_DESIGN_GEOMETRIC_PRESENTATION_REPRESENTATION (  '', ( #154 ), #49 ) ;
#88 = CARTESIAN_POINT ( 'NONE',  ( 0.1250000000000000278, 2.500000000000000000, 1.530808498934192125E-17 ) ) ;
#89 = PRODUCT_DEFINITION_CONTEXT ( 'detailed design', #277, 'design' ) ;
#90 = CARTESIAN_POINT ( 'NONE',  ( 0.000000000000000000, 0.000000000000000000, 0.000000000000000000 ) ) ;
#91 = EDGE_CURVE ( 'NONE', #330, #319, #350, .T. ) ;
#92 = CYLINDRICAL_SURFACE ( 'NONE', #132, 0.03905000000000000138 ) ;
#93 = FACE_OUTER_BOUND ( 'NONE', #129, .T. ) ;
#94 = CARTESIAN_POINT ( 'NONE',  ( -0.03905000000000000138, 0.3749999999999999445, 0.000000000000000000 ) ) ;
#95 = DIRECTION ( 'NONE',  ( 0.000000000000000000, 0.000000000000000000, -1.000000000000000000 ) ) ;
#96 = ORIENTED_EDGE ( 'NONE', *, *, #91, .T. ) ;
#97 = DIRECTION ( 'NONE',  ( -0.000000000000000000, -1.000000000000000000, -0.000000000000000000 ) ) ;
#98 =( NAMED_UNIT ( * ) PLANE_ANGLE_UNIT ( ) SI_UNIT ( $, .RADIAN. ) );
#99 = DIRECTION ( 'NONE',  ( -0.000000000000000000, -1.000000000000000000, -0.000000000000000000 ) ) ;
#100 = APPLICATION_PROTOCOL_DEFINITION ( 'draft international standard', 'automotive_design', 1998, #126 ) ;
#101 =( CONVERSION_BASED_UNIT ( 'INCH', #160 ) LENGTH_UNIT ( ) NAMED_UNIT ( #23 ) );
#102 = ADVANCED_FACE ( 'NONE', ( #342 ), #92, .T. ) ;
#103 = APPLICATION_PROTOCOL_DEFINITION ( 'draft international standard', 'automotive_design', 1998, #277 ) ;
#104 = EDGE_LOOP ( 'NONE', ( #275, #293, #352, #110 ) ) ;
#105 = CIRCLE ( 'NONE', #143, 0.03905000000000000138 ) ;
#106 = PRESENTATION_LAYER_ASSIGNMENT (  '', '', ( #166 ) ) ;
#107 = SURFACE_SIDE_STYLE ('',( #225 ) ) ;
#108 =( NAMED_UNIT ( * ) PLANE_ANGLE_UNIT ( ) SI_UNIT ( $, .RADIAN. ) );
#109 = CARTESIAN_POINT ( 'NONE',  ( 7.582401355855259480E-33, 0.3749999999999999445, 0.000000000000000000 ) ) ;
#110 = ORIENTED_EDGE ( 'NONE', *, *, #10, .F. ) ;
#111 = CONICAL_SURFACE ( 'NONE', #255, 0.03905000000000000138, 0.2617993877991500740 ) ;
#112 =( NAMED_UNIT ( * ) PLANE_ANGLE_UNIT ( ) SI_UNIT ( $, .RADIAN. ) );
#113 = CARTESIAN_POINT ( 'NONE',  ( -0.03905000000000000138, 0.3749999999999999445, 0.000000000000000000 ) ) ;
#114 = UNCERTAINTY_MEASURE_WITH_UNIT (LENGTH_MEASURE( 1.000000000000000082E-05 ), #254, 'distance_accuracy_value', 'NONE');
#115 = LINE ( 'NONE', #208, #236 ) ;
#116 = ADVANCED_FACE ( 'NONE', ( #300 ), #271, .F. ) ;
#117 = COLOUR_RGB ( '',1.000000000000000000, 0.000000000000000000, 0.000000000000000000 ) ;
#118 = CARTESIAN_POINT ( 'NONE',  ( 7.582401355855259480E-33, 0.3749999999999999445, 0.000000000000000000 ) ) ;
#119 = DIRECTION ( 'NONE',  ( 0.000000000000000000, 0.000000000000000000, -1.000000000000000000 ) ) ;
#120 = DIRECTION ( 'NONE',  ( -1.000000000000000000, 0.000000000000000000, 0.000000000000000000 ) ) ;
#121 = EDGE_CURVE ( 'NONE', #245, #170, #324, .T. ) ;
#122 = DIRECTION ( 'NONE',  ( -2.881521880346713429E-17, 1.000000000000000000, -0.000000000000000000 ) ) ;
#123 =( LENGTH_UNIT ( ) NAMED_UNIT ( * ) SI_UNIT ( $, .METRE. ) );
#124 = DIRECTION ( 'NONE',  ( 0.000000000000000000, -1.000000000000000000, -0.000000000000000000 ) ) ;
#125 = ORIENTED_EDGE ( 'NONE', *, *, #80, .F. ) ;
#126 = APPLICATION_CONTEXT ( 'automotive_design' ) ;
#127 = PRESENTATION_LAYER_ASSIGNMENT (  '', '', ( #177 ) ) ;
#128 = CONICAL_SURFACE ( 'NONE', #247, 0.03905000000000000138, 0.2617993877991500740 ) ;
#129 = EDGE_LOOP ( 'NONE', ( #51, #3, #45, #194 ) ) ;
#130 = ORIENTED_EDGE ( 'NONE', *, *, #80, .T. ) ;
#131 = DIMENSIONAL_EXPONENTS ( 1.000000000000000000, 0.000000000000000000, 0.000000000000000000, 0.000000000000000000, 0.000000000000000000, 0.000000000000000000, 0.000000000000000000 ) ;
#132 = AXIS2_PLACEMENT_3D ( 'NONE', #190, #99, #214 ) ;
#133 = ORIENTED_EDGE ( 'NONE', *, *, #55, .F. ) ;
#134 = AXIS2_PLACEMENT_3D ( 'NONE', #244, #327, #216 ) ;
#135 =( NAMED_UNIT ( * ) SI_UNIT ( $, .STERADIAN. ) SOLID_ANGLE_UNIT ( ) );
#136 = EDGE_CURVE ( 'NONE', #161, #330, #328, .T. ) ;
#137 = SURFACE_STYLE_USAGE ( .BOTH. , #334 ) ;
#138 = ORIENTED_EDGE ( 'NONE', *, *, #121, .F. ) ;
#139 = LENGTH_MEASURE_WITH_UNIT ( LENGTH_MEASURE( 0.02539999999999999897 ), #198 );
#140 = DIRECTION ( 'NONE',  ( -2.881521880346713429E-17, 1.000000000000000000, -0.000000000000000000 ) ) ;
#141 =( LENGTH_UNIT ( ) NAMED_UNIT ( * ) SI_UNIT ( $, .METRE. ) );
#142 = MANIFOLD_SOLID_BREP ( 'Revolve - Cutting Edge', #30 ) ;
#143 = AXIS2_PLACEMENT_3D ( 'NONE', #204, #97, #149 ) ;
#144 = AXIS2_PLACEMENT_3D ( 'NONE', #118, #61, #120 ) ;
#145 = FACE_OUTER_BOUND ( 'NONE', #104, .T. ) ;
#146 = CARTESIAN_POINT ( 'NONE',  ( 0.000000000000000000, 0.000000000000000000, 0.000000000000000000 ) ) ;
#147 = PRODUCT_RELATED_PRODUCT_CATEGORY ( 'part', '', ( #167 ) ) ;
#148 = PLANE ( 'NONE',  #243 ) ;
#149 = DIRECTION ( 'NONE',  ( 0.000000000000000000, 0.000000000000000000, -1.000000000000000000 ) ) ;
#150 = MANIFOLD_SOLID_BREP ( 'Revolve - Tool Body (Reduced Cut Diameter)', #191 ) ;
#151 = FILL_AREA_STYLE ('',( #341 ) ) ;
#152 = PRESENTATION_LAYER_ASSIGNMENT (  '', '', ( #272 ) ) ;
#153 = DIRECTION ( 'NONE',  ( 0.000000000000000000, 1.000000000000000000, 0.000000000000000000 ) ) ;
#154 = STYLED_ITEM ( 'NONE', ( #36 ), #358 ) ;
#155 = PRESENTATION_STYLE_ASSIGNMENT (( #302 ) ) ;
#156 =( CONVERSION_BASED_UNIT ( 'INCH', #240 ) LENGTH_UNIT ( ) NAMED_UNIT ( #189 ) );
#157 =( LENGTH_UNIT ( ) NAMED_UNIT ( * ) SI_UNIT ( $, .METRE. ) );
#158 = COLOUR_RGB ( '',1.000000000000000000, 0.000000000000000000, 0.000000000000000000 ) ;
#159 = CIRCLE ( 'NONE', #283, 0.03905000000000000138 ) ;
#160 = LENGTH_MEASURE_WITH_UNIT ( LENGTH_MEASURE( 0.02539999999999999897 ), #19 );
#161 = VERTEX_POINT ( 'NONE', #278 ) ;
#162 = SURFACE_SIDE_STYLE ('',( #193 ) ) ;
#163 = ORIENTED_EDGE ( 'NONE', *, *, #55, .T. ) ;
#164 = VERTEX_POINT ( 'NONE', #31 ) ;
#165 = DIMENSIONAL_EXPONENTS ( 1.000000000000000000, 0.000000000000000000, 0.000000000000000000, 0.000000000000000000, 0.000000000000000000, 0.000000000000000000, 0.000000000000000000 ) ;
#166 = STYLED_ITEM ( 'NONE', ( #223 ), #150 ) ;
#167 = PRODUCT ( '84047', '84047', '', ( #74 ) ) ;
#168 = ADVANCED_FACE ( 'NONE', ( #2 ), #128, .T. ) ;
#169 = PRESENTATION_STYLE_ASSIGNMENT (( #54 ) ) ;
#170 = VERTEX_POINT ( 'NONE', #82 ) ;
#171 = VECTOR ( 'NONE', #196, 39.37007874015747433 ) ;
#172 = DIRECTION ( 'NONE',  ( -1.000000000000000000, 0.000000000000000000, 0.000000000000000000 ) ) ;
#173 = PRODUCT_DEFINITION_SHAPE ( 'NONE', 'NONE',  #52 ) ;
#174 = DIRECTION ( 'NONE',  ( -1.000000000000000000, 0.000000000000000000, 0.000000000000000000 ) ) ;
#175 = DIRECTION ( 'NONE',  ( -1.000000000000000000, 0.000000000000000000, 0.000000000000000000 ) ) ;
#176 = DIRECTION ( 'NONE',  ( 0.000000000000000000, 0.000000000000000000, -1.000000000000000000 ) ) ;
#177 = STYLED_ITEM ( 'NONE', ( #37 ), #48 ) ;
#178 = FACE_OUTER_BOUND ( 'NONE', #29, .T. ) ;
#179 = DIRECTION ( 'NONE',  ( -0.000000000000000000, -1.000000000000000000, -0.000000000000000000 ) ) ;
#180 = ORIENTED_EDGE ( 'NONE', *, *, #22, .T. ) ;
#181 = CARTESIAN_POINT ( 'NONE',  ( 7.582401355855259480E-33, 0.3749999999999999445, 0.000000000000000000 ) ) ;
#182 =( NAMED_UNIT ( * ) PLANE_ANGLE_UNIT ( ) SI_UNIT ( $, .RADIAN. ) );
#183 = ORIENTED_EDGE ( 'NONE', *, *, #337, .T. ) ;
#184 = FILL_AREA_STYLE ('',( #62 ) ) ;
#185 = EDGE_LOOP ( 'NONE', ( #349, #163, #5, #71 ) ) ;
#186 = STYLED_ITEM ( 'NONE', ( #169 ), #17 ) ;
#187 = EDGE_CURVE ( 'NONE', #60, #85, #305, .T. ) ;
#188 = DIRECTION ( 'NONE',  ( -0.000000000000000000, -1.000000000000000000, -0.000000000000000000 ) ) ;
#189 = DIMENSIONAL_EXPONENTS ( 1.000000000000000000, 0.000000000000000000, 0.000000000000000000, 0.000000000000000000, 0.000000000000000000, 0.000000000000000000, 0.000000000000000000 ) ;
#190 = CARTESIAN_POINT ( 'NONE',  ( 0.000000000000000000, 0.000000000000000000, 0.000000000000000000 ) ) ;
#191 = CLOSED_SHELL ( 'NONE', ( #280, #266, #351, #168, #299, #116 ) ) ;
#192 = AXIS2_PLACEMENT_3D ( 'NONE', #211, #13, #338 ) ;
#193 = SURFACE_STYLE_FILL_AREA ( #184 ) ;
#194 = ORIENTED_EDGE ( 'NONE', *, *, #91, .F. ) ;
#195 = FACE_OUTER_BOUND ( 'NONE', #210, .T. ) ;
#196 = DIRECTION ( 'NONE',  ( -0.2588190451025214611, 0.9659258262890682012, 0.000000000000000000 ) ) ;
#197 = FILL_AREA_STYLE_COLOUR ( '', #158 ) ;
#198 =( LENGTH_UNIT ( ) NAMED_UNIT ( * ) SI_UNIT ( $, .METRE. ) );
#199 = MECHANICAL_DESIGN_GEOMETRIC_PRESENTATION_REPRESENTATION (  '', ( #272 ), #290 ) ;
#200 = CARTESIAN_POINT ( 'NONE',  ( 0.000000000000000000, 0.000000000000000000, 0.000000000000000000 ) ) ;
#201 = DIRECTION ( 'NONE',  ( -1.000000000000000000, 0.000000000000000000, 0.000000000000000000 ) ) ;
#202 = CARTESIAN_POINT ( 'NONE',  ( -0.1250000000000001110, 2.500000000000000000, 0.000000000000000000 ) ) ;
#203 = DIRECTION ( 'NONE',  ( -1.000000000000000000, -2.881521880346713429E-17, 0.000000000000000000 ) ) ;
#204 = CARTESIAN_POINT ( 'NONE',  ( 0.000000000000000000, 0.3750000000000000555, 0.000000000000000000 ) ) ;
#205 = AXIS2_PLACEMENT_3D ( 'NONE', #209, #46, #41 ) ;
#206 = COLOUR_RGB ( '',1.000000000000000000, 0.000000000000000000, 0.000000000000000000 ) ;
#207 = ORIENTED_EDGE ( 'NONE', *, *, #121, .T. ) ;
#208 = CARTESIAN_POINT ( 'NONE',  ( 0.03905000000000000138, 0.3749999999999999445, 4.782245750670414162E-18 ) ) ;
#209 = CARTESIAN_POINT ( 'NONE',  ( 0.000000000000000000, 0.3750000000000000555, 0.000000000000000000 ) ) ;
#210 = EDGE_LOOP ( 'NONE', ( #323, #357 ) ) ;
#211 = CARTESIAN_POINT ( 'NONE',  ( -6.123233995736766036E-17, 2.500000000000000000, 0.000000000000000000 ) ) ;
#212 = CARTESIAN_POINT ( 'NONE',  ( 0.03905000000000000138, 0.3749999999999999445, 1.004516537000616463E-17 ) ) ;
#213 = ORIENTED_EDGE ( 'NONE', *, *, #75, .T. ) ;
#214 = DIRECTION ( 'NONE',  ( 0.000000000000000000, 0.000000000000000000, -1.000000000000000000 ) ) ;
#215 = AXIS2_PLACEMENT_3D ( 'NONE', #146, #124, #176 ) ;
#216 = DIRECTION ( 'NONE',  ( 1.000000000000000000, 0.000000000000000000, 0.000000000000000000 ) ) ;
#217 = SHAPE_DEFINITION_REPRESENTATION ( #173, #251 ) ;
#218 = EDGE_CURVE ( 'NONE', #164, #319, #69, .T. ) ;
#219 = COLOUR_RGB ( '',1.000000000000000000, 0.000000000000000000, 0.000000000000000000 ) ;
#220 = AXIS2_PLACEMENT_3D ( 'NONE', #312, #320, #174 ) ;
#221 = FILL_AREA_STYLE_COLOUR ( '', #20 ) ;
#222 = UNCERTAINTY_MEASURE_WITH_UNIT (LENGTH_MEASURE( 1.000000000000000082E-05 ), #156, 'distance_accuracy_value', 'NONE');
#223 = PRESENTATION_STYLE_ASSIGNMENT (( #335 ) ) ;
#224 = AXIS2_PLACEMENT_3D ( 'NONE', #200, #11, #95 ) ;
#225 = SURFACE_STYLE_FILL_AREA ( #306 ) ;
#226 = DIRECTION ( 'NONE',  ( -0.000000000000000000, -1.000000000000000000, -0.000000000000000000 ) ) ;
#227 =( NAMED_UNIT ( * ) SI_UNIT ( $, .STERADIAN. ) SOLID_ANGLE_UNIT ( ) );
#228 = MECHANICAL_DESIGN_GEOMETRIC_PRESENTATION_REPRESENTATION (  '', ( #186 ), #65 ) ;
#229 = CYLINDRICAL_SURFACE ( 'NONE', #346, 0.1250000000000000278 ) ;
#230 =( CONVERSION_BASED_UNIT ( 'INCH', #340 ) LENGTH_UNIT ( ) NAMED_UNIT ( #131 ) );
#231 = EDGE_CURVE ( 'NONE', #170, #56, #354, .T. ) ;
#232 = CARTESIAN_POINT ( 'NONE',  ( -6.123233995736766036E-17, 2.500000000000000000, 0.000000000000000000 ) ) ;
#233 = DIRECTION ( 'NONE',  ( -2.881521880346713429E-17, 1.000000000000000000, -0.000000000000000000 ) ) ;
#234 = SURFACE_STYLE_USAGE ( .BOTH. , #264 ) ;
#235 = AXIS2_PLACEMENT_3D ( 'NONE', #70, #44, #317 ) ;
#236 = VECTOR ( 'NONE', #66, 39.37007874015748854 ) ;
#237 = ORIENTED_EDGE ( 'NONE', *, *, #75, .F. ) ;
#238 =( NAMED_UNIT ( * ) SI_UNIT ( $, .STERADIAN. ) SOLID_ANGLE_UNIT ( ) );
#239 = EDGE_LOOP ( 'NONE', ( #125, #237 ) ) ;
#240 = LENGTH_MEASURE_WITH_UNIT ( LENGTH_MEASURE( 0.02539999999999999897 ), #157 );
#241 = PRESENTATION_LAYER_ASSIGNMENT (  '', '', ( #282 ) ) ;
#242 = EDGE_CURVE ( 'NONE', #85, #161, #115, .T. ) ;
#243 = AXIS2_PLACEMENT_3D ( 'NONE', #26, #153, #47 ) ;
#244 = CARTESIAN_POINT ( 'NONE',  ( 0.000000000000000000, 0.000000000000000000, 0.000000000000000000 ) ) ;
#245 = VERTEX_POINT ( 'NONE', #265 ) ;
#246 =( NAMED_UNIT ( * ) SI_UNIT ( $, .STERADIAN. ) SOLID_ANGLE_UNIT ( ) );
#247 = AXIS2_PLACEMENT_3D ( 'NONE', #109, #252, #359 ) ;
#248 = EDGE_CURVE ( 'NONE', #15, #56, #315, .T. ) ;
#249 = EDGE_LOOP ( 'NONE', ( #130, #207, #347, #295 ) ) ;
#250 = DIMENSIONAL_EXPONENTS ( 1.000000000000000000, 0.000000000000000000, 0.000000000000000000, 0.000000000000000000, 0.000000000000000000, 0.000000000000000000, 0.000000000000000000 ) ;
#251 = ADVANCED_BREP_SHAPE_REPRESENTATION ( '84047', ( #142, #150, #134 ), #297 ) ;
#252 = DIRECTION ( 'NONE',  ( -2.881521880346713429E-17, 1.000000000000000000, -0.000000000000000000 ) ) ;
#253 = UNCERTAINTY_MEASURE_WITH_UNIT (LENGTH_MEASURE( 1.000000000000000082E-05 ), #258, 'distance_accuracy_value', 'NONE');
#254 =( CONVERSION_BASED_UNIT ( 'INCH', #139 ) LENGTH_UNIT ( ) NAMED_UNIT ( #78 ) );
#255 = AXIS2_PLACEMENT_3D ( 'NONE', #181, #233, #286 ) ;
#256 =( NAMED_UNIT ( * ) PLANE_ANGLE_UNIT ( ) SI_UNIT ( $, .RADIAN. ) );
#257 = FILL_AREA_STYLE ('',( #197 ) ) ;
#258 =( CONVERSION_BASED_UNIT ( 'INCH', #35 ) LENGTH_UNIT ( ) NAMED_UNIT ( #165 ) );
#259 = CIRCLE ( 'NONE', #205, 0.03905000000000000138 ) ;
#260 = DIRECTION ( 'NONE',  ( -2.881521880346713429E-17, 1.000000000000000000, -0.000000000000000000 ) ) ;
#261 = VECTOR ( 'NONE', #140, 39.37007874015748143 ) ;
#262 = EDGE_CURVE ( 'NONE', #161, #164, #8, .T. ) ;
#263 = CARTESIAN_POINT ( 'NONE',  ( 0.000000000000000000, 0.000000000000000000, 0.000000000000000000 ) ) ;
#264 = SURFACE_SIDE_STYLE ('',( #68 ) ) ;
#265 = CARTESIAN_POINT ( 'NONE',  ( 4.782245750670414162E-18, 0.3750000000000000555, 0.03905000000000000138 ) ) ;
#266 = ADVANCED_FACE ( 'NONE', ( #145 ), #111, .T. ) ;
#267 = SURFACE_STYLE_USAGE ( .BOTH. , #38 ) ;
#268 = CARTESIAN_POINT ( 'NONE',  ( 7.582401355855259480E-33, 0.3749999999999999445, 0.000000000000000000 ) ) ;
#269 =( GEOMETRIC_REPRESENTATION_CONTEXT ( 3 ) GLOBAL_UNCERTAINTY_ASSIGNED_CONTEXT ( ( #50 ) ) GLOBAL_UNIT_ASSIGNED_CONTEXT ( ( #230, #182, #238 ) ) REPRESENTATION_CONTEXT ( 'NONE', 'WORKASPACE' ) );
#270 = AXIS2_PLACEMENT_3D ( 'NONE', #343, #288, #203 ) ;
#271 = PLANE ( 'NONE',  #289 ) ;
#272 = STYLED_ITEM ( 'NONE', ( #4 ), #142 ) ;
#273 = VECTOR ( 'NONE', #58, 39.37007874015748143 ) ;
#274 = CARTESIAN_POINT ( 'NONE',  ( 0.1250000000000000000, 2.500000000000000000, 0.000000000000000000 ) ) ;
#275 = ORIENTED_EDGE ( 'NONE', *, *, #187, .T. ) ;
#276 = EDGE_LOOP ( 'NONE', ( #180, #72, #303, #27 ) ) ;
#277 = APPLICATION_CONTEXT ( 'automotive_design' ) ;
#278 = CARTESIAN_POINT ( 'NONE',  ( 0.1249999999999999861, 0.6957697669105442628, 1.530808498934191817E-17 ) ) ;
#279 = LINE ( 'NONE', #113, #171 ) ;
#280 = ADVANCED_FACE ( 'NONE', ( #294 ), #348, .T. ) ;
#281 = UNCERTAINTY_MEASURE_WITH_UNIT (LENGTH_MEASURE( 1.000000000000000082E-05 ), #101, 'distance_accuracy_value', 'NONE');
#282 = STYLED_ITEM ( 'NONE', ( #155 ), #102 ) ;
#283 = AXIS2_PLACEMENT_3D ( 'NONE', #263, #226, #43 ) ;
#284 = CARTESIAN_POINT ( 'NONE',  ( 0.000000000000000000, 0.3750000000000000555, -0.03905000000000000138 ) ) ;
#285 = SURFACE_STYLE_FILL_AREA ( #257 ) ;
#286 = DIRECTION ( 'NONE',  ( -1.000000000000000000, 0.000000000000000000, 0.000000000000000000 ) ) ;
#287 = EDGE_CURVE ( 'NONE', #56, #170, #159, .T. ) ;
#288 = DIRECTION ( 'NONE',  ( -2.881521880346713429E-17, 1.000000000000000000, 0.000000000000000000 ) ) ;
#289 = AXIS2_PLACEMENT_3D ( 'NONE', #274, #16, #24 ) ;
#290 =( GEOMETRIC_REPRESENTATION_CONTEXT ( 3 ) GLOBAL_UNCERTAINTY_ASSIGNED_CONTEXT ( ( #114 ) ) GLOBAL_UNIT_ASSIGNED_CONTEXT ( ( #254, #112, #331 ) ) REPRESENTATION_CONTEXT ( 'NONE', 'WORKASPACE' ) );
#291 = FACE_OUTER_BOUND ( 'NONE', #239, .T. ) ;
#292 = CARTESIAN_POINT ( 'NONE',  ( 0.000000000000000000, 0.000000000000000000, -0.03905000000000000138 ) ) ;
#293 = ORIENTED_EDGE ( 'NONE', *, *, #242, .T. ) ;
#294 = FACE_OUTER_BOUND ( 'NONE', #276, .T. ) ;
#295 = ORIENTED_EDGE ( 'NONE', *, *, #248, .F. ) ;
#296 = AXIS2_PLACEMENT_3D ( 'NONE', #14, #313, #322 ) ;
#297 =( GEOMETRIC_REPRESENTATION_CONTEXT ( 3 ) GLOBAL_UNCERTAINTY_ASSIGNED_CONTEXT ( ( #222 ) ) GLOBAL_UNIT_ASSIGNED_CONTEXT ( ( #156, #18, #77 ) ) REPRESENTATION_CONTEXT ( 'NONE', 'WORKASPACE' ) );
#298 = CARTESIAN_POINT ( 'NONE',  ( 0.1249999999999999584, 2.500000000000000000, 1.530808498934191817E-17 ) ) ;
#299 = ADVANCED_FACE ( 'NONE', ( #93 ), #229, .T. ) ;
#300 = FACE_OUTER_BOUND ( 'NONE', #25, .T. ) ;
#301 = ORIENTED_EDGE ( 'NONE', *, *, #231, .F. ) ;
#302 = SURFACE_STYLE_USAGE ( .BOTH. , #162 ) ;
#303 = ORIENTED_EDGE ( 'NONE', *, *, #337, .F. ) ;
#304 = AXIS2_PLACEMENT_3D ( 'NONE', #268, #260, #201 ) ;
#305 = CIRCLE ( 'NONE', #144, 0.03905000000000000138 ) ;
#306 = FILL_AREA_STYLE ('',( #332 ) ) ;
#307 = UNCERTAINTY_MEASURE_WITH_UNIT (LENGTH_MEASURE( 1.000000000000000082E-05 ), #84, 'distance_accuracy_value', 'NONE');
#308 = FILL_AREA_STYLE ('',( #221 ) ) ;
#309 = SURFACE_STYLE_FILL_AREA ( #308 ) ;
#310 = VECTOR ( 'NONE', #355, 39.37007874015748143 ) ;
#311 = AXIS2_PLACEMENT_3D ( 'NONE', #232, #63, #175 ) ;
#312 = CARTESIAN_POINT ( 'NONE',  ( -9.243051019064479102E-18, 0.6957697669105442628, 0.000000000000000000 ) ) ;
#313 = DIRECTION ( 'NONE',  ( -2.881521880346713429E-17, 1.000000000000000000, -0.000000000000000000 ) ) ;
#314 = CARTESIAN_POINT ( 'NONE',  ( -0.1250000000000001388, 2.500000000000000000, 0.000000000000000000 ) ) ;
#315 = LINE ( 'NONE', #6, #273 ) ;
#316 = MECHANICAL_DESIGN_GEOMETRIC_PRESENTATION_REPRESENTATION (  '', ( #282 ), #57 ) ;
#317 = DIRECTION ( 'NONE',  ( -1.000000000000000000, 0.000000000000000000, 0.000000000000000000 ) ) ;
#318 = COLOUR_RGB ( '',0.7921568627450980005, 0.8196078431372548767, 0.9333333333333333481 ) ;
#319 = VERTEX_POINT ( 'NONE', #314 ) ;
#320 = DIRECTION ( 'NONE',  ( -2.881521880346713429E-17, 1.000000000000000000, -0.000000000000000000 ) ) ;
#321 = EDGE_LOOP ( 'NONE', ( #138, #213, #329, #301 ) ) ;
#322 = DIRECTION ( 'NONE',  ( -1.000000000000000000, 0.000000000000000000, 0.000000000000000000 ) ) ;
#323 = ORIENTED_EDGE ( 'NONE', *, *, #287, .T. ) ;
#324 = LINE ( 'NONE', #73, #333 ) ;
#325 = MECHANICAL_DESIGN_GEOMETRIC_PRESENTATION_REPRESENTATION (  '', ( #177 ), #269 ) ;
#326 = CIRCLE ( 'NONE', #235, 0.1250000000000000278 ) ;
#327 = DIRECTION ( 'NONE',  ( 0.000000000000000000, 0.000000000000000000, 1.000000000000000000 ) ) ;
#328 = LINE ( 'NONE', #298, #310 ) ;
#329 = ORIENTED_EDGE ( 'NONE', *, *, #248, .T. ) ;
#330 = VERTEX_POINT ( 'NONE', #88 ) ;
#331 =( NAMED_UNIT ( * ) SI_UNIT ( $, .STERADIAN. ) SOLID_ANGLE_UNIT ( ) );
#332 = FILL_AREA_STYLE_COLOUR ( '', #318 ) ;
#333 = VECTOR ( 'NONE', #188, 39.37007874015748143 ) ;
#334 = SURFACE_SIDE_STYLE ('',( #309 ) ) ;
#335 = SURFACE_STYLE_USAGE ( .BOTH. , #107 ) ;
#336 = LENGTH_MEASURE_WITH_UNIT ( LENGTH_MEASURE( 0.02539999999999999897 ), #141 );
#337 = EDGE_CURVE ( 'NONE', #319, #330, #1, .T. ) ;
#338 = DIRECTION ( 'NONE',  ( -1.000000000000000000, 0.000000000000000000, 0.000000000000000000 ) ) ;
#339 = PRODUCT_DEFINITION_FORMATION_WITH_SPECIFIED_SOURCE ( 'ANY', '', #167, .NOT_KNOWN. ) ;
#340 = LENGTH_MEASURE_WITH_UNIT ( LENGTH_MEASURE( 0.02539999999999999897 ), #12 );
#341 = FILL_AREA_STYLE_COLOUR ( '', #206 ) ;
#342 = FACE_OUTER_BOUND ( 'NONE', #321, .T. ) ;
#343 = CARTESIAN_POINT ( 'NONE',  ( 1.621193619735516857E-35, 0.3750000000000000555, 0.000000000000000000 ) ) ;
#344 = CYLINDRICAL_SURFACE ( 'NONE', #86, 0.03905000000000000138 ) ;
#345 = PLANE ( 'NONE',  #270 ) ;
#346 = AXIS2_PLACEMENT_3D ( 'NONE', #40, #122, #172 ) ;
#347 = ORIENTED_EDGE ( 'NONE', *, *, #287, .F. ) ;
#348 = CYLINDRICAL_SURFACE ( 'NONE', #192, 0.1250000000000000278 ) ;
#349 = ORIENTED_EDGE ( 'NONE', *, *, #242, .F. ) ;
#350 = CIRCLE ( 'NONE', #296, 0.1250000000000000555 ) ;
#351 = ADVANCED_FACE ( 'NONE', ( #178 ), #345, .F. ) ;
#352 = ORIENTED_EDGE ( 'NONE', *, *, #22, .F. ) ;
#353 =( NAMED_UNIT ( * ) SI_UNIT ( $, .STERADIAN. ) SOLID_ANGLE_UNIT ( ) );
#354 = CIRCLE ( 'NONE', #224, 0.03905000000000000138 ) ;
#355 = DIRECTION ( 'NONE',  ( -2.881521880346713429E-17, 1.000000000000000000, -0.000000000000000000 ) ) ;
#356 =( LENGTH_UNIT ( ) NAMED_UNIT ( * ) SI_UNIT ( $, .METRE. ) );
#357 = ORIENTED_EDGE ( 'NONE', *, *, #231, .T. ) ;
#358 = ADVANCED_FACE ( 'NONE', ( #291 ), #148, .T. ) ;
#359 = DIRECTION ( 'NONE',  ( -1.000000000000000000, 0.000000000000000000, 0.000000000000000000 ) ) ;
ENDSEC;
END-ISO-10303-21;
