ISO-10303-21;
HEADER;
FILE_DESCRIPTION (( 'STEP AP214' ),
    '1' );
FILE_NAME ('84406.STEP',
    '2023-06-30T23:24:40',
    ( '' ),
    ( '' ),
    'SwSTEP 2.0',
    'SolidWorks 2023',
    '' );
FILE_SCHEMA (( 'AUTOMOTIVE_DESIGN' ));
ENDSEC;

DATA;
#1 = CARTESIAN_POINT ( 'NONE',  ( -7.654042494670957545E-18, 0.06250000000000001388, 0.000000000000000000 ) ) ;
#2 = ORIENTED_EDGE ( 'NONE', *, *, #215, .T. ) ;
#3 = FILL_AREA_STYLE ('',( #23 ) ) ;
#4 = MECHANICAL_DESIGN_GEOMETRIC_PRESENTATION_REPRESENTATION (  '', ( #59 ), #107 ) ;
#5 = CARTESIAN_POINT ( 'NONE',  ( 0.06249999999999984734, 1.499999999999999778, 7.654042494670886671E-18 ) ) ;
#6 = ADVANCED_FACE ( 'NONE', ( #80 ), #102, .F. ) ;
#7 = CARTESIAN_POINT ( 'NONE',  ( -7.654042494670957545E-18, 0.06250000000000001388, 0.000000000000000000 ) ) ;
#8 = COLOUR_RGB ( '',1.000000000000000000, 0.000000000000000000, 0.000000000000000000 ) ;
#9 = EDGE_CURVE ( 'NONE', #55, #271, #137, .T. ) ;
#10 = CARTESIAN_POINT ( 'NONE',  ( 0.06249999999999995837, 0.2500000000000000555, 7.654042494670892834E-18 ) ) ;
#11 = DIMENSIONAL_EXPONENTS ( 1.000000000000000000, 0.000000000000000000, 0.000000000000000000, 0.000000000000000000, 0.000000000000000000, 0.000000000000000000, 0.000000000000000000 ) ;
#12 = SURFACE_SIDE_STYLE ('',( #31 ) ) ;
#13 = LENGTH_MEASURE_WITH_UNIT ( LENGTH_MEASURE( 0.02539999999999999897 ), #176 );
#14 =( GEOMETRIC_REPRESENTATION_CONTEXT ( 3 ) GLOBAL_UNCERTAINTY_ASSIGNED_CONTEXT ( ( #316 ) ) GLOBAL_UNIT_ASSIGNED_CONTEXT ( ( #117, #326, #204 ) ) REPRESENTATION_CONTEXT ( 'NONE', 'WORKASPACE' ) );
#15 = PLANE ( 'NONE',  #268 ) ;
#16 = CARTESIAN_POINT ( 'NONE',  ( -0.06249999999999909100, 1.499999999999999778, 0.000000000000000000 ) ) ;
#17 = EDGE_LOOP ( 'NONE', ( #42, #181, #221, #282 ) ) ;
#18 = STYLED_ITEM ( 'NONE', ( #101 ), #151 ) ;
#19 = CARTESIAN_POINT ( 'NONE',  ( 0.000000000000000000, 0.000000000000000000, 0.000000000000000000 ) ) ;
#20 = CIRCLE ( 'NONE', #155, 0.06249999999999931305 ) ;
#21 = SURFACE_STYLE_FILL_AREA ( #252 ) ;
#22 = DIRECTION ( 'NONE',  ( 1.224646799147353207E-16, -0.000000000000000000, 1.000000000000000000 ) ) ;
#23 = FILL_AREA_STYLE_COLOUR ( '', #192 ) ;
#24 = ORIENTED_EDGE ( 'NONE', *, *, #147, .F. ) ;
#25 = CARTESIAN_POINT ( 'NONE',  ( -0.06249999999999899386, 1.499999999999999778, 0.000000000000000000 ) ) ;
#26 =( LENGTH_UNIT ( ) NAMED_UNIT ( * ) SI_UNIT ( $, .METRE. ) );
#27 = ORIENTED_EDGE ( 'NONE', *, *, #35, .T. ) ;
#28 = SPHERICAL_SURFACE ( 'NONE', #270, 0.06250000000000001388 ) ;
#29 =( NAMED_UNIT ( * ) SI_UNIT ( $, .STERADIAN. ) SOLID_ANGLE_UNIT ( ) );
#30 = DIRECTION ( 'NONE',  ( -1.000000000000000000, 0.000000000000000000, 0.000000000000000000 ) ) ;
#31 = SURFACE_STYLE_FILL_AREA ( #110 ) ;
#32 = FACE_OUTER_BOUND ( 'NONE', #17, .T. ) ;
#33 = AXIS2_PLACEMENT_3D ( 'NONE', #257, #250, #98 ) ;
#34 = STYLED_ITEM ( 'NONE', ( #53 ), #152 ) ;
#35 = EDGE_CURVE ( 'NONE', #280, #66, #233, .T. ) ;
#36 = APPLICATION_PROTOCOL_DEFINITION ( 'draft international standard', 'automotive_design', 1998, #360 ) ;
#37 = CLOSED_SHELL ( 'NONE', ( #162, #6, #228, #256 ) ) ;
#38 = CIRCLE ( 'NONE', #230, 0.06249999999999931305 ) ;
#39 = DIMENSIONAL_EXPONENTS ( 1.000000000000000000, 0.000000000000000000, 0.000000000000000000, 0.000000000000000000, 0.000000000000000000, 0.000000000000000000, 0.000000000000000000 ) ;
#40 = CYLINDRICAL_SURFACE ( 'NONE', #90, 0.06249999999999999306 ) ;
#41 = UNCERTAINTY_MEASURE_WITH_UNIT (LENGTH_MEASURE( 1.000000000000000082E-05 ), #65, 'distance_accuracy_value', 'NONE');
#42 = ORIENTED_EDGE ( 'NONE', *, *, #70, .F. ) ;
#43 = DIRECTION ( 'NONE',  ( -1.000000000000000000, 0.000000000000000000, 0.000000000000000000 ) ) ;
#44 = DIRECTION ( 'NONE',  ( 0.000000000000000000, -0.000000000000000000, 1.000000000000000000 ) ) ;
#45 = ORIENTED_EDGE ( 'NONE', *, *, #200, .F. ) ;
#46 = LINE ( 'NONE', #194, #369 ) ;
#47 =( CONVERSION_BASED_UNIT ( 'INCH', #294 ) LENGTH_UNIT ( ) NAMED_UNIT ( #210 ) );
#48 = ORIENTED_EDGE ( 'NONE', *, *, #327, .F. ) ;
#49 = SURFACE_STYLE_USAGE ( .BOTH. , #220 ) ;
#50 = FILL_AREA_STYLE ('',( #370 ) ) ;
#51 = ORIENTED_EDGE ( 'NONE', *, *, #335, .F. ) ;
#52 = FACE_OUTER_BOUND ( 'NONE', #135, .T. ) ;
#53 = PRESENTATION_STYLE_ASSIGNMENT (( #188 ) ) ;
#54 = VERTEX_POINT ( 'NONE', #132 ) ;
#55 = VERTEX_POINT ( 'NONE', #336 ) ;
#56 = DIRECTION ( 'NONE',  ( 1.000000000000000000, 0.000000000000000000, -1.224646799147353207E-16 ) ) ;
#57 = DIRECTION ( 'NONE',  ( -1.000000000000000000, 0.000000000000000000, 0.000000000000000000 ) ) ;
#58 = ADVANCED_BREP_SHAPE_REPRESENTATION ( '84406', ( #152, #154, #179 ), #357 ) ;
#59 = STYLED_ITEM ( 'NONE', ( #185 ), #347 ) ;
#60 =( NAMED_UNIT ( * ) PLANE_ANGLE_UNIT ( ) SI_UNIT ( $, .RADIAN. ) );
#61 = PRESENTATION_STYLE_ASSIGNMENT (( #240 ) ) ;
#62 = DIRECTION ( 'NONE',  ( 0.000000000000000000, 0.000000000000000000, 1.000000000000000000 ) ) ;
#63 = MECHANICAL_DESIGN_GEOMETRIC_PRESENTATION_REPRESENTATION (  '', ( #18 ), #238 ) ;
#64 = COLOUR_RGB ( '',1.000000000000000000, 0.000000000000000000, 0.000000000000000000 ) ;
#65 =( CONVERSION_BASED_UNIT ( 'INCH', #323 ) LENGTH_UNIT ( ) NAMED_UNIT ( #322 ) );
#66 = VERTEX_POINT ( 'NONE', #339 ) ;
#67 = ORIENTED_EDGE ( 'NONE', *, *, #327, .T. ) ;
#68 =( LENGTH_UNIT ( ) NAMED_UNIT ( * ) SI_UNIT ( $, .METRE. ) );
#69 = FACE_OUTER_BOUND ( 'NONE', #86, .T. ) ;
#70 = EDGE_CURVE ( 'NONE', #259, #195, #189, .T. ) ;
#71 = CARTESIAN_POINT ( 'NONE',  ( 0.000000000000000000, 0.06250000000000002776, 0.000000000000000000 ) ) ;
#72 = MECHANICAL_DESIGN_GEOMETRIC_PRESENTATION_REPRESENTATION (  '', ( #84 ), #120 ) ;
#73 = CIRCLE ( 'NONE', #356, 0.06249999999999997918 ) ;
#74 = CARTESIAN_POINT ( 'NONE',  ( -7.654042494670957545E-18, 0.06250000000000001388, 0.000000000000000000 ) ) ;
#75 = ADVANCED_FACE ( 'NONE', ( #372 ), #159, .T. ) ;
#76 = SPHERICAL_SURFACE ( 'NONE', #343, 0.06250000000000001388 ) ;
#77 = VERTEX_POINT ( 'NONE', #16 ) ;
#78 = LINE ( 'NONE', #25, #302 ) ;
#79 = SURFACE_SIDE_STYLE ('',( #334 ) ) ;
#80 = FACE_OUTER_BOUND ( 'NONE', #253, .T. ) ;
#81 = CARTESIAN_POINT ( 'NONE',  ( -0.06249999999999867467, 0.2500000000000000555, 0.000000000000000000 ) ) ;
#82 = SURFACE_STYLE_USAGE ( .BOTH. , #255 ) ;
#83 = DIRECTION ( 'NONE',  ( -0.000000000000000000, -1.000000000000000000, -0.000000000000000000 ) ) ;
#84 = STYLED_ITEM ( 'NONE', ( #153 ), #75 ) ;
#85 = DIRECTION ( 'NONE',  ( 0.000000000000000000, 0.000000000000000000, -1.000000000000000000 ) ) ;
#86 = EDGE_LOOP ( 'NONE', ( #206, #363, #108, #24, #125 ) ) ;
#87 = ORIENTED_EDGE ( 'NONE', *, *, #239, .F. ) ;
#88 = DIRECTION ( 'NONE',  ( 0.000000000000000000, 0.000000000000000000, -1.000000000000000000 ) ) ;
#89 =( CONVERSION_BASED_UNIT ( 'INCH', #138 ) LENGTH_UNIT ( ) NAMED_UNIT ( #92 ) );
#90 = AXIS2_PLACEMENT_3D ( 'NONE', #236, #365, #209 ) ;
#91 = CYLINDRICAL_SURFACE ( 'NONE', #278, 0.06249999999999941713 ) ;
#92 = DIMENSIONAL_EXPONENTS ( 1.000000000000000000, 0.000000000000000000, 0.000000000000000000, 0.000000000000000000, 0.000000000000000000, 0.000000000000000000, 0.000000000000000000 ) ;
#93 = SURFACE_STYLE_USAGE ( .BOTH. , #12 ) ;
#94 = COLOUR_RGB ( '',1.000000000000000000, 0.000000000000000000, 0.000000000000000000 ) ;
#95 = CARTESIAN_POINT ( 'NONE',  ( 4.286263797015735609E-16, 1.499999999999999778, 0.000000000000000000 ) ) ;
#96 =( LENGTH_UNIT ( ) NAMED_UNIT ( * ) SI_UNIT ( $, .METRE. ) );
#97 = VECTOR ( 'NONE', #295, 39.37007874015748143 ) ;
#98 = DIRECTION ( 'NONE',  ( -1.000000000000000000, -1.672049033737079641E-16, 0.000000000000000000 ) ) ;
#99 = FACE_OUTER_BOUND ( 'NONE', #368, .T. ) ;
#100 = CARTESIAN_POINT ( 'NONE',  ( 0.000000000000000000, 0.06250000000000002776, 0.000000000000000000 ) ) ;
#101 = PRESENTATION_STYLE_ASSIGNMENT (( #82 ) ) ;
#102 = PLANE ( 'NONE',  #33 ) ;
#103 = SURFACE_SIDE_STYLE ('',( #133 ) ) ;
#104 = DIRECTION ( 'NONE',  ( -1.672049033737079641E-16, 1.000000000000000000, -0.000000000000000000 ) ) ;
#105 = ORIENTED_EDGE ( 'NONE', *, *, #182, .F. ) ;
#106 = SURFACE_STYLE_FILL_AREA ( #298 ) ;
#107 =( GEOMETRIC_REPRESENTATION_CONTEXT ( 3 ) GLOBAL_UNCERTAINTY_ASSIGNED_CONTEXT ( ( #174 ) ) GLOBAL_UNIT_ASSIGNED_CONTEXT ( ( #258, #301, #127 ) ) REPRESENTATION_CONTEXT ( 'NONE', 'WORKASPACE' ) );
#108 = ORIENTED_EDGE ( 'NONE', *, *, #293, .T. ) ;
#109 = LENGTH_MEASURE_WITH_UNIT ( LENGTH_MEASURE( 0.02539999999999999897 ), #26 );
#110 = FILL_AREA_STYLE ('',( #332 ) ) ;
#111 = CARTESIAN_POINT ( 'NONE',  ( 4.286263797015735609E-16, 1.499999999999999778, 0.000000000000000000 ) ) ;
#112 = PRESENTATION_LAYER_ASSIGNMENT (  '', '', ( #201 ) ) ;
#113 = DIRECTION ( 'NONE',  ( -0.000000000000000000, -1.000000000000000000, -0.000000000000000000 ) ) ;
#114 = UNCERTAINTY_MEASURE_WITH_UNIT (LENGTH_MEASURE( 1.000000000000000082E-05 ), #89, 'distance_accuracy_value', 'NONE');
#115 = FACE_OUTER_BOUND ( 'NONE', #208, .T. ) ;
#116 = VECTOR ( 'NONE', #122, 39.37007874015748143 ) ;
#117 =( CONVERSION_BASED_UNIT ( 'INCH', #13 ) LENGTH_UNIT ( ) NAMED_UNIT ( #39 ) );
#118 = SURFACE_SIDE_STYLE ('',( #320 ) ) ;
#119 = UNCERTAINTY_MEASURE_WITH_UNIT (LENGTH_MEASURE( 1.000000000000000082E-05 ), #47, 'distance_accuracy_value', 'NONE');
#120 =( GEOMETRIC_REPRESENTATION_CONTEXT ( 3 ) GLOBAL_UNCERTAINTY_ASSIGNED_CONTEXT ( ( #41 ) ) GLOBAL_UNIT_ASSIGNED_CONTEXT ( ( #65, #124, #245 ) ) REPRESENTATION_CONTEXT ( 'NONE', 'WORKASPACE' ) );
#121 = AXIS2_PLACEMENT_3D ( 'NONE', #141, #197, #30 ) ;
#122 = DIRECTION ( 'NONE',  ( -0.000000000000000000, -1.000000000000000000, -0.000000000000000000 ) ) ;
#123 = DIRECTION ( 'NONE',  ( -1.000000000000000000, 0.000000000000000000, 0.000000000000000000 ) ) ;
#124 =( NAMED_UNIT ( * ) PLANE_ANGLE_UNIT ( ) SI_UNIT ( $, .RADIAN. ) );
#125 = ORIENTED_EDGE ( 'NONE', *, *, #35, .F. ) ;
#126 = DIMENSIONAL_EXPONENTS ( 1.000000000000000000, 0.000000000000000000, 0.000000000000000000, 0.000000000000000000, 0.000000000000000000, 0.000000000000000000, 0.000000000000000000 ) ;
#127 =( NAMED_UNIT ( * ) SI_UNIT ( $, .STERADIAN. ) SOLID_ANGLE_UNIT ( ) );
#128 = ORIENTED_EDGE ( 'NONE', *, *, #239, .T. ) ;
#129 = FILL_AREA_STYLE_COLOUR ( '', #313 ) ;
#130 = EDGE_CURVE ( 'NONE', #195, #77, #352, .T. ) ;
#131 = DIRECTION ( 'NONE',  ( -0.000000000000000000, -1.000000000000000000, -0.000000000000000000 ) ) ;
#132 = CARTESIAN_POINT ( 'NONE',  ( -3.827021247335478002E-18, 0.000000000000000000, 0.000000000000000000 ) ) ;
#133 = SURFACE_STYLE_FILL_AREA ( #3 ) ;
#134 =( NAMED_UNIT ( * ) SI_UNIT ( $, .STERADIAN. ) SOLID_ANGLE_UNIT ( ) );
#135 = EDGE_LOOP ( 'NONE', ( #27, #67, #87, #224 ) ) ;
#136 = DIRECTION ( 'NONE',  ( -0.000000000000000000, -1.000000000000000000, -0.000000000000000000 ) ) ;
#137 = CIRCLE ( 'NONE', #237, 0.06249999999999997918 ) ;
#138 = LENGTH_MEASURE_WITH_UNIT ( LENGTH_MEASURE( 0.02539999999999999897 ), #205 );
#139 = CIRCLE ( 'NONE', #249, 0.06250000000000000000 ) ;
#140 = STYLED_ITEM ( 'NONE', ( #212 ), #359 ) ;
#141 = CARTESIAN_POINT ( 'NONE',  ( 4.286263797015735609E-16, 1.499999999999999778, 0.000000000000000000 ) ) ;
#142 = CARTESIAN_POINT ( 'NONE',  ( 7.654042494670956004E-18, 0.000000000000000000, 0.06249999999999999306 ) ) ;
#143 = PRESENTATION_LAYER_ASSIGNMENT (  '', '', ( #34 ) ) ;
#144 = APPLICATION_CONTEXT ( 'automotive_design' ) ;
#145 =( CONVERSION_BASED_UNIT ( 'INCH', #109 ) LENGTH_UNIT ( ) NAMED_UNIT ( #11 ) );
#146 = FACE_OUTER_BOUND ( 'NONE', #164, .T. ) ;
#147 = EDGE_CURVE ( 'NONE', #66, #300, #342, .T. ) ;
#148 = CARTESIAN_POINT ( 'NONE',  ( 7.654042494670959086E-18, 0.06250000000000002776, 0.06250000000000001388 ) ) ;
#149 = COLOUR_RGB ( '',1.000000000000000000, 0.000000000000000000, 0.000000000000000000 ) ;
#150 = CARTESIAN_POINT ( 'NONE',  ( -7.654042494670957545E-18, 0.06250000000000001388, 0.000000000000000000 ) ) ;
#151 = ADVANCED_FACE ( 'NONE', ( #99 ), #76, .T. ) ;
#152 = MANIFOLD_SOLID_BREP ( 'Revolve - Cutting Edge', #198 ) ;
#153 = PRESENTATION_STYLE_ASSIGNMENT (( #93 ) ) ;
#154 = MANIFOLD_SOLID_BREP ( 'Revolve - Tool Body (Straight Shanked)', #37 ) ;
#155 = AXIS2_PLACEMENT_3D ( 'NONE', #328, #281, #123 ) ;
#156 = MECHANICAL_DESIGN_GEOMETRIC_PRESENTATION_REPRESENTATION (  '', ( #140 ), #344 ) ;
#157 = CARTESIAN_POINT ( 'NONE',  ( 0.06249999999999995143, 1.499999999999999778, 0.000000000000000000 ) ) ;
#158 =( NAMED_UNIT ( * ) PLANE_ANGLE_UNIT ( ) SI_UNIT ( $, .RADIAN. ) );
#159 = PLANE ( 'NONE',  #214 ) ;
#160 = CARTESIAN_POINT ( 'NONE',  ( 6.376325089187084668E-16, 0.2500000000000000555, 0.000000000000000000 ) ) ;
#161 = EDGE_LOOP ( 'NONE', ( #2, #226, #105, #45, #291 ) ) ;
#162 = ADVANCED_FACE ( 'NONE', ( #146 ), #307, .T. ) ;
#163 = PRESENTATION_LAYER_ASSIGNMENT (  '', '', ( #59 ) ) ;
#164 = EDGE_LOOP ( 'NONE', ( #349, #186, #193, #165 ) ) ;
#165 = ORIENTED_EDGE ( 'NONE', *, *, #355, .F. ) ;
#166 = LENGTH_MEASURE_WITH_UNIT ( LENGTH_MEASURE( 0.02539999999999999897 ), #273 );
#167 = ORIENTED_EDGE ( 'NONE', *, *, #200, .T. ) ;
#168 = APPLICATION_PROTOCOL_DEFINITION ( 'draft international standard', 'automotive_design', 1998, #144 ) ;
#169 = AXIS2_PLACEMENT_3D ( 'NONE', #7, #269, #43 ) ;
#170 =( NAMED_UNIT ( * ) PLANE_ANGLE_UNIT ( ) SI_UNIT ( $, .RADIAN. ) );
#171 = DIRECTION ( 'NONE',  ( 0.000000000000000000, 0.000000000000000000, -1.000000000000000000 ) ) ;
#172 = CARTESIAN_POINT ( 'NONE',  ( 0.000000000000000000, 0.06250000000000002776, 0.000000000000000000 ) ) ;
#173 = MECHANICAL_DESIGN_GEOMETRIC_PRESENTATION_REPRESENTATION (  '', ( #34 ), #183 ) ;
#174 = UNCERTAINTY_MEASURE_WITH_UNIT (LENGTH_MEASURE( 1.000000000000000082E-05 ), #258, 'distance_accuracy_value', 'NONE');
#175 = FILL_AREA_STYLE ('',( #361 ) ) ;
#176 =( LENGTH_UNIT ( ) NAMED_UNIT ( * ) SI_UNIT ( $, .METRE. ) );
#177 = AXIS2_PLACEMENT_3D ( 'NONE', #95, #104, #191 ) ;
#178 = AXIS2_PLACEMENT_3D ( 'NONE', #74, #22, #56 ) ;
#179 = AXIS2_PLACEMENT_3D ( 'NONE', #227, #62, #319 ) ;
#180 = DIMENSIONAL_EXPONENTS ( 1.000000000000000000, 0.000000000000000000, 0.000000000000000000, 0.000000000000000000, 0.000000000000000000, 0.000000000000000000, 0.000000000000000000 ) ;
#181 = ORIENTED_EDGE ( 'NONE', *, *, #310, .T. ) ;
#182 = EDGE_CURVE ( 'NONE', #308, #280, #288, .T. ) ;
#183 =( GEOMETRIC_REPRESENTATION_CONTEXT ( 3 ) GLOBAL_UNCERTAINTY_ASSIGNED_CONTEXT ( ( #277 ) ) GLOBAL_UNIT_ASSIGNED_CONTEXT ( ( #241, #213, #262 ) ) REPRESENTATION_CONTEXT ( 'NONE', 'WORKASPACE' ) );
#184 = DIRECTION ( 'NONE',  ( 1.000000000000000000, 0.000000000000000000, 0.000000000000000000 ) ) ;
#185 = PRESENTATION_STYLE_ASSIGNMENT (( #222 ) ) ;
#186 = ORIENTED_EDGE ( 'NONE', *, *, #70, .T. ) ;
#187 = SURFACE_SIDE_STYLE ('',( #251 ) ) ;
#188 = SURFACE_STYLE_USAGE ( .BOTH. , #79 ) ;
#189 = LINE ( 'NONE', #5, #97 ) ;
#190 = FACE_OUTER_BOUND ( 'NONE', #161, .T. ) ;
#191 = DIRECTION ( 'NONE',  ( -1.000000000000000000, 0.000000000000000000, 0.000000000000000000 ) ) ;
#192 = COLOUR_RGB ( '',0.7921568627450980005, 0.8196078431372548767, 0.9333333333333333481 ) ;
#193 = ORIENTED_EDGE ( 'NONE', *, *, #196, .F. ) ;
#194 = CARTESIAN_POINT ( 'NONE',  ( 0.000000000000000000, 0.000000000000000000, -0.06249999999999999306 ) ) ;
#195 = VERTEX_POINT ( 'NONE', #231 ) ;
#196 = EDGE_CURVE ( 'NONE', #77, #195, #330, .T. ) ;
#197 = DIRECTION ( 'NONE',  ( -1.672049033737079641E-16, 1.000000000000000000, -0.000000000000000000 ) ) ;
#198 = CLOSED_SHELL ( 'NONE', ( #359, #347, #75, #285, #151 ) ) ;
#199 =( NAMED_UNIT ( * ) PLANE_ANGLE_UNIT ( ) SI_UNIT ( $, .RADIAN. ) );
#200 = EDGE_CURVE ( 'NONE', #300, #308, #139, .T. ) ;
#201 = STYLED_ITEM ( 'NONE', ( #348 ), #154 ) ;
#202 = PRODUCT_DEFINITION_FORMATION_WITH_SPECIFIED_SOURCE ( 'ANY', '', #373, .NOT_KNOWN. ) ;
#203 = CARTESIAN_POINT ( 'NONE',  ( 0.000000000000000000, 0.2500000000000000000, -0.06249999999999997918 ) ) ;
#204 =( NAMED_UNIT ( * ) SI_UNIT ( $, .STERADIAN. ) SOLID_ANGLE_UNIT ( ) );
#205 =( LENGTH_UNIT ( ) NAMED_UNIT ( * ) SI_UNIT ( $, .METRE. ) );
#206 = ORIENTED_EDGE ( 'NONE', *, *, #232, .F. ) ;
#207 = LENGTH_MEASURE_WITH_UNIT ( LENGTH_MEASURE( 0.02539999999999999897 ), #244 );
#208 = EDGE_LOOP ( 'NONE', ( #284, #362 ) ) ;
#209 = DIRECTION ( 'NONE',  ( 0.000000000000000000, 0.000000000000000000, -1.000000000000000000 ) ) ;
#210 = DIMENSIONAL_EXPONENTS ( 1.000000000000000000, 0.000000000000000000, 0.000000000000000000, 0.000000000000000000, 0.000000000000000000, 0.000000000000000000, 0.000000000000000000 ) ;
#211 = UNCERTAINTY_MEASURE_WITH_UNIT (LENGTH_MEASURE( 1.000000000000000082E-05 ), #346, 'distance_accuracy_value', 'NONE');
#212 = PRESENTATION_STYLE_ASSIGNMENT (( #49 ) ) ;
#213 =( NAMED_UNIT ( * ) PLANE_ANGLE_UNIT ( ) SI_UNIT ( $, .RADIAN. ) );
#214 = AXIS2_PLACEMENT_3D ( 'NONE', #338, #331, #44 ) ;
#215 = EDGE_CURVE ( 'NONE', #271, #55, #73, .T. ) ;
#216 = MECHANICAL_DESIGN_GEOMETRIC_PRESENTATION_REPRESENTATION (  '', ( #317 ), #14 ) ;
#217 = DIRECTION ( 'NONE',  ( 0.000000000000000000, 0.000000000000000000, -1.000000000000000000 ) ) ;
#218 = CYLINDRICAL_SURFACE ( 'NONE', #364, 0.06249999999999999306 ) ;
#219 = DIRECTION ( 'NONE',  ( 0.000000000000000000, 0.000000000000000000, -1.000000000000000000 ) ) ;
#220 = SURFACE_SIDE_STYLE ('',( #106 ) ) ;
#221 = ORIENTED_EDGE ( 'NONE', *, *, #355, .T. ) ;
#222 = SURFACE_STYLE_USAGE ( .BOTH. , #187 ) ;
#223 = CIRCLE ( 'NONE', #178, 0.06250000000000001388 ) ;
#224 = ORIENTED_EDGE ( 'NONE', *, *, #182, .T. ) ;
#225 =( LENGTH_UNIT ( ) NAMED_UNIT ( * ) SI_UNIT ( $, .METRE. ) );
#226 = ORIENTED_EDGE ( 'NONE', *, *, #232, .T. ) ;
#227 = CARTESIAN_POINT ( 'NONE',  ( 0.000000000000000000, 0.000000000000000000, 0.000000000000000000 ) ) ;
#228 = ADVANCED_FACE ( 'NONE', ( #32 ), #91, .T. ) ;
#229 = PRESENTATION_LAYER_ASSIGNMENT (  '', '', ( #18 ) ) ;
#230 = AXIS2_PLACEMENT_3D ( 'NONE', #160, #367, #305 ) ;
#231 = CARTESIAN_POINT ( 'NONE',  ( 0.06249999999999995837, 1.499999999999999778, 7.654042494670892834E-18 ) ) ;
#232 = EDGE_CURVE ( 'NONE', #55, #280, #287, .T. ) ;
#233 = CIRCLE ( 'NONE', #264, 0.06250000000000000000 ) ;
#234 = AXIS2_PLACEMENT_3D ( 'NONE', #172, #113, #88 ) ;
#235 = SHAPE_DEFINITION_REPRESENTATION ( #304, #58 ) ;
#236 = CARTESIAN_POINT ( 'NONE',  ( 0.000000000000000000, 0.000000000000000000, 0.000000000000000000 ) ) ;
#237 = AXIS2_PLACEMENT_3D ( 'NONE', #371, #136, #217 ) ;
#238 =( GEOMETRIC_REPRESENTATION_CONTEXT ( 3 ) GLOBAL_UNCERTAINTY_ASSIGNED_CONTEXT ( ( #119 ) ) GLOBAL_UNIT_ASSIGNED_CONTEXT ( ( #47, #158, #134 ) ) REPRESENTATION_CONTEXT ( 'NONE', 'WORKASPACE' ) );
#239 = EDGE_CURVE ( 'NONE', #308, #54, #329, .T. ) ;
#240 = SURFACE_STYLE_USAGE ( .BOTH. , #118 ) ;
#241 =( CONVERSION_BASED_UNIT ( 'INCH', #207 ) LENGTH_UNIT ( ) NAMED_UNIT ( #180 ) );
#242 = PRODUCT_DEFINITION_CONTEXT ( 'detailed design', #360, 'design' ) ;
#243 = FILL_AREA_STYLE_COLOUR ( '', #64 ) ;
#244 =( LENGTH_UNIT ( ) NAMED_UNIT ( * ) SI_UNIT ( $, .METRE. ) );
#245 =( NAMED_UNIT ( * ) SI_UNIT ( $, .STERADIAN. ) SOLID_ANGLE_UNIT ( ) );
#246 = ORIENTED_EDGE ( 'NONE', *, *, #9, .F. ) ;
#247 = PRODUCT_RELATED_PRODUCT_CATEGORY ( 'part', '', ( #373 ) ) ;
#248 = PRESENTATION_LAYER_ASSIGNMENT (  '', '', ( #84 ) ) ;
#249 = AXIS2_PLACEMENT_3D ( 'NONE', #286, #314, #171 ) ;
#250 = DIRECTION ( 'NONE',  ( -1.672049033737079641E-16, 1.000000000000000000, 0.000000000000000000 ) ) ;
#251 = SURFACE_STYLE_FILL_AREA ( #340 ) ;
#252 = FILL_AREA_STYLE ('',( #299 ) ) ;
#253 = EDGE_LOOP ( 'NONE', ( #51, #345 ) ) ;
#254 = DIRECTION ( 'NONE',  ( -1.672049033737079641E-16, 1.000000000000000000, -0.000000000000000000 ) ) ;
#255 = SURFACE_SIDE_STYLE ('',( #21 ) ) ;
#256 = ADVANCED_FACE ( 'NONE', ( #115 ), #15, .F. ) ;
#257 = CARTESIAN_POINT ( 'NONE',  ( 6.376325089187084668E-16, 0.2500000000000000555, 0.000000000000000000 ) ) ;
#258 =( CONVERSION_BASED_UNIT ( 'INCH', #166 ) LENGTH_UNIT ( ) NAMED_UNIT ( #126 ) );
#259 = VERTEX_POINT ( 'NONE', #10 ) ;
#260 = PRESENTATION_LAYER_ASSIGNMENT (  '', '', ( #140 ) ) ;
#261 = DIRECTION ( 'NONE',  ( 1.000000000000000000, 0.000000000000000000, 0.000000000000000000 ) ) ;
#262 =( NAMED_UNIT ( * ) SI_UNIT ( $, .STERADIAN. ) SOLID_ANGLE_UNIT ( ) );
#263 = CARTESIAN_POINT ( 'NONE',  ( 4.286263797015735609E-16, 1.499999999999999778, 0.000000000000000000 ) ) ;
#264 = AXIS2_PLACEMENT_3D ( 'NONE', #100, #83, #219 ) ;
#265 = MECHANICAL_DESIGN_GEOMETRIC_PRESENTATION_REPRESENTATION (  '', ( #201 ), #290 ) ;
#266 = CARTESIAN_POINT ( 'NONE',  ( 0.000000000000000000, 0.2500000000000000000, 0.000000000000000000 ) ) ;
#267 = DIRECTION ( 'NONE',  ( -1.672049033737079641E-16, 1.000000000000000000, -0.000000000000000000 ) ) ;
#268 = AXIS2_PLACEMENT_3D ( 'NONE', #157, #358, #366 ) ;
#269 = DIRECTION ( 'NONE',  ( 0.000000000000000000, 0.000000000000000000, -1.000000000000000000 ) ) ;
#270 = AXIS2_PLACEMENT_3D ( 'NONE', #150, #311, #261 ) ;
#271 = VERTEX_POINT ( 'NONE', #203 ) ;
#272 = COLOUR_RGB ( '',0.7921568627450980005, 0.8196078431372548767, 0.9333333333333333481 ) ;
#273 =( LENGTH_UNIT ( ) NAMED_UNIT ( * ) SI_UNIT ( $, .METRE. ) );
#274 = UNCERTAINTY_MEASURE_WITH_UNIT (LENGTH_MEASURE( 1.000000000000000082E-05 ), #145, 'distance_accuracy_value', 'NONE');
#275 = DIRECTION ( 'NONE',  ( 0.000000000000000000, 0.000000000000000000, 1.000000000000000000 ) ) ;
#276 = EDGE_LOOP ( 'NONE', ( #303, #246 ) ) ;
#277 = UNCERTAINTY_MEASURE_WITH_UNIT (LENGTH_MEASURE( 1.000000000000000082E-05 ), #241, 'distance_accuracy_value', 'NONE');
#278 = AXIS2_PLACEMENT_3D ( 'NONE', #263, #351, #57 ) ;
#279 = DIRECTION ( 'NONE',  ( 0.000000000000000000, 0.000000000000000000, -1.000000000000000000 ) ) ;
#280 = VERTEX_POINT ( 'NONE', #148 ) ;
#281 = DIRECTION ( 'NONE',  ( -1.672049033737079641E-16, 1.000000000000000000, -0.000000000000000000 ) ) ;
#282 = ORIENTED_EDGE ( 'NONE', *, *, #130, .F. ) ;
#283 = CARTESIAN_POINT ( 'NONE',  ( 0.06250000000000000000, 0.06250000000000002776, 0.000000000000000000 ) ) ;
#284 = ORIENTED_EDGE ( 'NONE', *, *, #196, .T. ) ;
#285 = ADVANCED_FACE ( 'NONE', ( #69 ), #40, .T. ) ;
#286 = CARTESIAN_POINT ( 'NONE',  ( 0.000000000000000000, 0.06250000000000002776, 0.000000000000000000 ) ) ;
#287 = LINE ( 'NONE', #142, #116 ) ;
#288 = CIRCLE ( 'NONE', #234, 0.06250000000000000000 ) ;
#289 = PRODUCT_CONTEXT ( 'NONE', #144, 'mechanical' ) ;
#290 =( GEOMETRIC_REPRESENTATION_CONTEXT ( 3 ) GLOBAL_UNCERTAINTY_ASSIGNED_CONTEXT ( ( #274 ) ) GLOBAL_UNIT_ASSIGNED_CONTEXT ( ( #145, #199, #318 ) ) REPRESENTATION_CONTEXT ( 'NONE', 'WORKASPACE' ) );
#291 = ORIENTED_EDGE ( 'NONE', *, *, #293, .F. ) ;
#292 = VERTEX_POINT ( 'NONE', #81 ) ;
#293 = EDGE_CURVE ( 'NONE', #271, #300, #46, .T. ) ;
#294 = LENGTH_MEASURE_WITH_UNIT ( LENGTH_MEASURE( 0.02539999999999999897 ), #96 );
#295 = DIRECTION ( 'NONE',  ( -1.672049033737079641E-16, 1.000000000000000000, -0.000000000000000000 ) ) ;
#296 = CARTESIAN_POINT ( 'NONE',  ( 0.000000000000000000, 0.06250000000000002776, -0.06250000000000000000 ) ) ;
#297 = ORIENTED_EDGE ( 'NONE', *, *, #147, .T. ) ;
#298 = FILL_AREA_STYLE ('',( #129 ) ) ;
#299 = FILL_AREA_STYLE_COLOUR ( '', #149 ) ;
#300 = VERTEX_POINT ( 'NONE', #296 ) ;
#301 =( NAMED_UNIT ( * ) PLANE_ANGLE_UNIT ( ) SI_UNIT ( $, .RADIAN. ) );
#302 = VECTOR ( 'NONE', #254, 39.37007874015748143 ) ;
#303 = ORIENTED_EDGE ( 'NONE', *, *, #215, .F. ) ;
#304 = PRODUCT_DEFINITION_SHAPE ( 'NONE', 'NONE',  #306 ) ;
#305 = DIRECTION ( 'NONE',  ( -1.000000000000000000, 0.000000000000000000, 0.000000000000000000 ) ) ;
#306 = PRODUCT_DEFINITION ( 'UNKNOWN', '', #202, #242 ) ;
#307 = CYLINDRICAL_SURFACE ( 'NONE', #324, 0.06249999999999941713 ) ;
#308 = VERTEX_POINT ( 'NONE', #283 ) ;
#309 = DIRECTION ( 'NONE',  ( -0.000000000000000000, -1.000000000000000000, -0.000000000000000000 ) ) ;
#310 = EDGE_CURVE ( 'NONE', #259, #292, #38, .T. ) ;
#311 = DIRECTION ( 'NONE',  ( 0.000000000000000000, 0.000000000000000000, 1.000000000000000000 ) ) ;
#312 = AXIS2_PLACEMENT_3D ( 'NONE', #71, #131, #279 ) ;
#313 = COLOUR_RGB ( '',1.000000000000000000, 0.000000000000000000, 0.000000000000000000 ) ;
#314 = DIRECTION ( 'NONE',  ( -0.000000000000000000, -1.000000000000000000, -0.000000000000000000 ) ) ;
#315 = DIRECTION ( 'NONE',  ( -0.000000000000000000, -1.000000000000000000, -0.000000000000000000 ) ) ;
#316 = UNCERTAINTY_MEASURE_WITH_UNIT (LENGTH_MEASURE( 1.000000000000000082E-05 ), #117, 'distance_accuracy_value', 'NONE');
#317 = STYLED_ITEM ( 'NONE', ( #61 ), #285 ) ;
#318 =( NAMED_UNIT ( * ) SI_UNIT ( $, .STERADIAN. ) SOLID_ANGLE_UNIT ( ) );
#319 = DIRECTION ( 'NONE',  ( 1.000000000000000000, 0.000000000000000000, 0.000000000000000000 ) ) ;
#320 = SURFACE_STYLE_FILL_AREA ( #175 ) ;
#321 =( NAMED_UNIT ( * ) SI_UNIT ( $, .STERADIAN. ) SOLID_ANGLE_UNIT ( ) );
#322 = DIMENSIONAL_EXPONENTS ( 1.000000000000000000, 0.000000000000000000, 0.000000000000000000, 0.000000000000000000, 0.000000000000000000, 0.000000000000000000, 0.000000000000000000 ) ;
#323 = LENGTH_MEASURE_WITH_UNIT ( LENGTH_MEASURE( 0.02539999999999999897 ), #68 );
#324 = AXIS2_PLACEMENT_3D ( 'NONE', #111, #267, #350 ) ;
#325 = DIMENSIONAL_EXPONENTS ( 1.000000000000000000, 0.000000000000000000, 0.000000000000000000, 0.000000000000000000, 0.000000000000000000, 0.000000000000000000, 0.000000000000000000 ) ;
#326 =( NAMED_UNIT ( * ) PLANE_ANGLE_UNIT ( ) SI_UNIT ( $, .RADIAN. ) );
#327 = EDGE_CURVE ( 'NONE', #66, #54, #223, .T. ) ;
#328 = CARTESIAN_POINT ( 'NONE',  ( 6.376325089187084668E-16, 0.2500000000000000555, 0.000000000000000000 ) ) ;
#329 = CIRCLE ( 'NONE', #169, 0.06250000000000001388 ) ;
#330 = CIRCLE ( 'NONE', #121, 0.06249999999999952122 ) ;
#331 = DIRECTION ( 'NONE',  ( 0.000000000000000000, 1.000000000000000000, 0.000000000000000000 ) ) ;
#332 = FILL_AREA_STYLE_COLOUR ( '', #94 ) ;
#333 = DIRECTION ( 'NONE',  ( -0.000000000000000000, -1.000000000000000000, -0.000000000000000000 ) ) ;
#334 = SURFACE_STYLE_FILL_AREA ( #50 ) ;
#335 = EDGE_CURVE ( 'NONE', #292, #259, #20, .T. ) ;
#336 = CARTESIAN_POINT ( 'NONE',  ( 7.654042494670956004E-18, 0.2500000000000000000, 0.06249999999999997918 ) ) ;
#337 = LENGTH_MEASURE_WITH_UNIT ( LENGTH_MEASURE( 0.02539999999999999897 ), #225 );
#338 = CARTESIAN_POINT ( 'NONE',  ( 0.000000000000000000, 0.2500000000000000000, 0.000000000000000000 ) ) ;
#339 = CARTESIAN_POINT ( 'NONE',  ( -0.06250000000000001388, 0.06250000000000002776, 7.654042494670957545E-18 ) ) ;
#340 = FILL_AREA_STYLE ('',( #243 ) ) ;
#341 = SURFACE_STYLE_USAGE ( .BOTH. , #103 ) ;
#342 = CIRCLE ( 'NONE', #312, 0.06250000000000000000 ) ;
#343 = AXIS2_PLACEMENT_3D ( 'NONE', #1, #275, #184 ) ;
#344 =( GEOMETRIC_REPRESENTATION_CONTEXT ( 3 ) GLOBAL_UNCERTAINTY_ASSIGNED_CONTEXT ( ( #211 ) ) GLOBAL_UNIT_ASSIGNED_CONTEXT ( ( #346, #60, #321 ) ) REPRESENTATION_CONTEXT ( 'NONE', 'WORKASPACE' ) );
#345 = ORIENTED_EDGE ( 'NONE', *, *, #310, .F. ) ;
#346 =( CONVERSION_BASED_UNIT ( 'INCH', #337 ) LENGTH_UNIT ( ) NAMED_UNIT ( #325 ) );
#347 = ADVANCED_FACE ( 'NONE', ( #190 ), #218, .T. ) ;
#348 = PRESENTATION_STYLE_ASSIGNMENT (( #341 ) ) ;
#349 = ORIENTED_EDGE ( 'NONE', *, *, #335, .T. ) ;
#350 = DIRECTION ( 'NONE',  ( -1.000000000000000000, 0.000000000000000000, 0.000000000000000000 ) ) ;
#351 = DIRECTION ( 'NONE',  ( -1.672049033737079641E-16, 1.000000000000000000, -0.000000000000000000 ) ) ;
#352 = CIRCLE ( 'NONE', #177, 0.06249999999999952122 ) ;
#353 = PRESENTATION_LAYER_ASSIGNMENT (  '', '', ( #317 ) ) ;
#354 = DIRECTION ( 'NONE',  ( 0.000000000000000000, 0.000000000000000000, -1.000000000000000000 ) ) ;
#355 = EDGE_CURVE ( 'NONE', #292, #77, #78, .T. ) ;
#356 = AXIS2_PLACEMENT_3D ( 'NONE', #266, #315, #354 ) ;
#357 =( GEOMETRIC_REPRESENTATION_CONTEXT ( 3 ) GLOBAL_UNCERTAINTY_ASSIGNED_CONTEXT ( ( #114 ) ) GLOBAL_UNIT_ASSIGNED_CONTEXT ( ( #89, #170, #29 ) ) REPRESENTATION_CONTEXT ( 'NONE', 'WORKASPACE' ) );
#358 = DIRECTION ( 'NONE',  ( 1.672049033737079641E-16, -1.000000000000000000, 0.000000000000000000 ) ) ;
#359 = ADVANCED_FACE ( 'NONE', ( #52 ), #28, .T. ) ;
#360 = APPLICATION_CONTEXT ( 'automotive_design' ) ;
#361 = FILL_AREA_STYLE_COLOUR ( '', #8 ) ;
#362 = ORIENTED_EDGE ( 'NONE', *, *, #130, .T. ) ;
#363 = ORIENTED_EDGE ( 'NONE', *, *, #9, .T. ) ;
#364 = AXIS2_PLACEMENT_3D ( 'NONE', #19, #333, #85 ) ;
#365 = DIRECTION ( 'NONE',  ( -0.000000000000000000, -1.000000000000000000, -0.000000000000000000 ) ) ;
#366 = DIRECTION ( 'NONE',  ( 1.000000000000000000, 1.672049033737079641E-16, 0.000000000000000000 ) ) ;
#367 = DIRECTION ( 'NONE',  ( -1.672049033737079641E-16, 1.000000000000000000, -0.000000000000000000 ) ) ;
#368 = EDGE_LOOP ( 'NONE', ( #48, #297, #167, #128 ) ) ;
#369 = VECTOR ( 'NONE', #309, 39.37007874015748143 ) ;
#370 = FILL_AREA_STYLE_COLOUR ( '', #272 ) ;
#371 = CARTESIAN_POINT ( 'NONE',  ( 0.000000000000000000, 0.2500000000000000000, 0.000000000000000000 ) ) ;
#372 = FACE_OUTER_BOUND ( 'NONE', #276, .T. ) ;
#373 = PRODUCT ( '84406', '84406', '', ( #289 ) ) ;
ENDSEC;
END-ISO-10303-21;
