ISO-10303-21;
HEADER;
FILE_DESCRIPTION (( 'STEP AP214' ),
    '1' );
FILE_NAME ('59826.STEP',
    '2023-07-12T13:06:42',
    ( '' ),
    ( '' ),
    'SwSTEP 2.0',
    'SolidWorks 2023',
    '' );
FILE_SCHEMA (( 'AUTOMOTIVE_DESIGN' ));
ENDSEC;

DATA;
#1 = ORIENTED_EDGE ( 'NONE', *, *, #42, .T. ) ;
#2 = EDGE_LOOP ( 'NONE', ( #209, #213 ) ) ;
#3 = AXIS2_PLACEMENT_3D ( 'NONE', #234, #149, #294 ) ;
#4 = DIRECTION ( 'NONE',  ( 0.000000000000000000, 0.000000000000000000, 1.000000000000000000 ) ) ;
#5 = FILL_AREA_STYLE_COLOUR ( '', #225 ) ;
#6 =( NAMED_UNIT ( * ) SI_UNIT ( $, .STERADIAN. ) SOLID_ANGLE_UNIT ( ) );
#7 = DIRECTION ( 'NONE',  ( 0.7660444431189793457, 0.6427876096865378086, 9.381338752702748037E-17 ) ) ;
#8 = SHAPE_DEFINITION_REPRESENTATION ( #124, #73 ) ;
#9 = FACE_OUTER_BOUND ( 'NONE', #237, .T. ) ;
#10 = EDGE_CURVE ( 'NONE', #43, #241, #230, .T. ) ;
#11 = AXIS2_PLACEMENT_3D ( 'NONE', #287, #114, #187 ) ;
#12 = PLANE ( 'NONE',  #197 ) ;
#13 = DIRECTION ( 'NONE',  ( 1.133125672015518856E-17, 1.000000000000000000, 0.000000000000000000 ) ) ;
#14 =( LENGTH_UNIT ( ) NAMED_UNIT ( * ) SI_UNIT ( $, .METRE. ) );
#15 = ADVANCED_FACE ( 'NONE', ( #68 ), #86, .F. ) ;
#16 = DIRECTION ( 'NONE',  ( -1.000000000000000000, 0.000000000000000000, 0.000000000000000000 ) ) ;
#17 = CLOSED_SHELL ( 'NONE', ( #291, #15, #147, #300 ) ) ;
#18 = DIRECTION ( 'NONE',  ( -1.133125672015518856E-17, -1.000000000000000000, -0.000000000000000000 ) ) ;
#19 = PRESENTATION_LAYER_ASSIGNMENT (  '', '', ( #54 ) ) ;
#20 = ORIENTED_EDGE ( 'NONE', *, *, #220, .F. ) ;
#21 =( LENGTH_UNIT ( ) NAMED_UNIT ( * ) SI_UNIT ( $, .METRE. ) );
#22 = DIRECTION ( 'NONE',  ( -1.000000000000000000, 0.000000000000000000, 0.000000000000000000 ) ) ;
#23 = UNCERTAINTY_MEASURE_WITH_UNIT (LENGTH_MEASURE( 1.000000000000000082E-05 ), #29, 'distance_accuracy_value', 'NONE');
#24 = ORIENTED_EDGE ( 'NONE', *, *, #10, .T. ) ;
#25 = LINE ( 'NONE', #65, #96 ) ;
#26 = DIRECTION ( 'NONE',  ( 9.554239632590802510E-17, -1.000000000000000000, 0.000000000000000000 ) ) ;
#27 =( GEOMETRIC_REPRESENTATION_CONTEXT ( 3 ) GLOBAL_UNCERTAINTY_ASSIGNED_CONTEXT ( ( #309 ) ) GLOBAL_UNIT_ASSIGNED_CONTEXT ( ( #269, #295, #56 ) ) REPRESENTATION_CONTEXT ( 'NONE', 'WORKASPACE' ) );
#28 = DIRECTION ( 'NONE',  ( -0.7660444431189793457, 0.6427876096865378086, 0.000000000000000000 ) ) ;
#29 =( CONVERSION_BASED_UNIT ( 'INCH', #249 ) LENGTH_UNIT ( ) NAMED_UNIT ( #85 ) );
#30 = VECTOR ( 'NONE', #7, 39.37007874015748143 ) ;
#31 =( CONVERSION_BASED_UNIT ( 'INCH', #217 ) LENGTH_UNIT ( ) NAMED_UNIT ( #106 ) );
#32 = FACE_OUTER_BOUND ( 'NONE', #138, .T. ) ;
#33 = SURFACE_STYLE_FILL_AREA ( #270 ) ;
#34 = DIRECTION ( 'NONE',  ( -1.000000000000000000, -9.106159978880893419E-17, 0.000000000000000000 ) ) ;
#35 = PRESENTATION_STYLE_ASSIGNMENT (( #252 ) ) ;
#36 = CIRCLE ( 'NONE', #3, 0.1874999999999999167 ) ;
#37 =( CONVERSION_BASED_UNIT ( 'INCH', #254 ) LENGTH_UNIT ( ) NAMED_UNIT ( #202 ) );
#38 =( NAMED_UNIT ( * ) PLANE_ANGLE_UNIT ( ) SI_UNIT ( $, .RADIAN. ) );
#39 = ORIENTED_EDGE ( 'NONE', *, *, #191, .T. ) ;
#40 =( GEOMETRIC_REPRESENTATION_CONTEXT ( 3 ) GLOBAL_UNCERTAINTY_ASSIGNED_CONTEXT ( ( #195 ) ) GLOBAL_UNIT_ASSIGNED_CONTEXT ( ( #31, #169, #100 ) ) REPRESENTATION_CONTEXT ( 'NONE', 'WORKASPACE' ) );
#41 = ORIENTED_EDGE ( 'NONE', *, *, #48, .T. ) ;
#42 = EDGE_CURVE ( 'NONE', #241, #93, #307, .T. ) ;
#43 = VERTEX_POINT ( 'NONE', #168 ) ;
#44 = SURFACE_STYLE_FILL_AREA ( #208 ) ;
#45 = EDGE_LOOP ( 'NONE', ( #137, #236 ) ) ;
#46 = CARTESIAN_POINT ( 'NONE',  ( -0.03500000000000000333, 7.931879704108632378E-19, 0.000000000000000000 ) ) ;
#47 = VECTOR ( 'NONE', #203, 39.37007874015748143 ) ;
#48 = EDGE_CURVE ( 'NONE', #223, #132, #25, .T. ) ;
#49 = ORIENTED_EDGE ( 'NONE', *, *, #48, .F. ) ;
#50 = CARTESIAN_POINT ( 'NONE',  ( 0.1874999999999999722, 2.500000000000000000, 2.296212748401286185E-17 ) ) ;
#51 = MECHANICAL_DESIGN_GEOMETRIC_PRESENTATION_REPRESENTATION (  '', ( #54 ), #308 ) ;
#52 = FILL_AREA_STYLE ('',( #5 ) ) ;
#53 = PRESENTATION_STYLE_ASSIGNMENT (( #263 ) ) ;
#54 = STYLED_ITEM ( 'NONE', ( #77 ), #130 ) ;
#55 = CARTESIAN_POINT ( 'NONE',  ( -0.1874999999999993894, 0.1279626937545346732, 0.000000000000000000 ) ) ;
#56 =( NAMED_UNIT ( * ) SI_UNIT ( $, .STERADIAN. ) SOLID_ANGLE_UNIT ( ) );
#57 = COLOUR_RGB ( '',1.000000000000000000, 0.000000000000000000, 0.000000000000000000 ) ;
#58 = UNCERTAINTY_MEASURE_WITH_UNIT (LENGTH_MEASURE( 1.000000000000000082E-05 ), #66, 'distance_accuracy_value', 'NONE');
#59 = CARTESIAN_POINT ( 'NONE',  ( 1.449978133535231439E-18, 0.1279626937545346732, 0.000000000000000000 ) ) ;
#60 =( CONVERSION_BASED_UNIT ( 'INCH', #205 ) LENGTH_UNIT ( ) NAMED_UNIT ( #129 ) );
#61 = ORIENTED_EDGE ( 'NONE', *, *, #133, .F. ) ;
#62 = MECHANICAL_DESIGN_GEOMETRIC_PRESENTATION_REPRESENTATION (  '', ( #289 ), #40 ) ;
#63 = VERTEX_POINT ( 'NONE', #238 ) ;
#64 = AXIS2_PLACEMENT_3D ( 'NONE', #201, #189, #165 ) ;
#65 = CARTESIAN_POINT ( 'NONE',  ( 0.1874999999999998890, 2.500000000000000000, 2.296212748401284952E-17 ) ) ;
#66 =( CONVERSION_BASED_UNIT ( 'INCH', #284 ) LENGTH_UNIT ( ) NAMED_UNIT ( #271 ) );
#67 = EDGE_LOOP ( 'NONE', ( #39, #41, #61, #260 ) ) ;
#68 = FACE_OUTER_BOUND ( 'NONE', #91, .T. ) ;
#69 = PRESENTATION_LAYER_ASSIGNMENT (  '', '', ( #154 ) ) ;
#70 =( LENGTH_UNIT ( ) NAMED_UNIT ( * ) SI_UNIT ( $, .METRE. ) );
#71 = DIRECTION ( 'NONE',  ( -1.000000000000000000, 1.133125672015518856E-17, 0.000000000000000000 ) ) ;
#72 = PRODUCT ( '59826', '59826', '', ( #247 ) ) ;
#73 = ADVANCED_BREP_SHAPE_REPRESENTATION ( '59826', ( #130, #243, #155 ), #231 ) ;
#74 = FILL_AREA_STYLE ('',( #121 ) ) ;
#75 = CIRCLE ( 'NONE', #159, 0.1874999999999999167 ) ;
#76 = CARTESIAN_POINT ( 'NONE',  ( 0.000000000000000000, 0.000000000000000000, 0.000000000000000000 ) ) ;
#77 = PRESENTATION_STYLE_ASSIGNMENT (( #174 ) ) ;
#78 = LINE ( 'NONE', #242, #30 ) ;
#79 = PRODUCT_DEFINITION ( 'UNKNOWN', '', #204, #262 ) ;
#80 = DIMENSIONAL_EXPONENTS ( 1.000000000000000000, 0.000000000000000000, 0.000000000000000000, 0.000000000000000000, 0.000000000000000000, 0.000000000000000000, 0.000000000000000000 ) ;
#81 =( LENGTH_UNIT ( ) NAMED_UNIT ( * ) SI_UNIT ( $, .METRE. ) );
#82 =( GEOMETRIC_REPRESENTATION_CONTEXT ( 3 ) GLOBAL_UNCERTAINTY_ASSIGNED_CONTEXT ( ( #214 ) ) GLOBAL_UNIT_ASSIGNED_CONTEXT ( ( #37, #38, #226 ) ) REPRESENTATION_CONTEXT ( 'NONE', 'WORKASPACE' ) );
#83 = COLOUR_RGB ( '',0.7921568627450980005, 0.8196078431372548767, 0.9333333333333333481 ) ;
#84 = FILL_AREA_STYLE_COLOUR ( '', #57 ) ;
#85 = DIMENSIONAL_EXPONENTS ( 1.000000000000000000, 0.000000000000000000, 0.000000000000000000, 0.000000000000000000, 0.000000000000000000, 0.000000000000000000, 0.000000000000000000 ) ;
#86 = PLANE ( 'NONE',  #11 ) ;
#87 = PRODUCT_RELATED_PRODUCT_CATEGORY ( 'part', '', ( #72 ) ) ;
#88 = FILL_AREA_STYLE_COLOUR ( '', #83 ) ;
#89 = EDGE_LOOP ( 'NONE', ( #143, #184, #116, #166 ) ) ;
#90 = CIRCLE ( 'NONE', #111, 0.1874999999999996669 ) ;
#91 = EDGE_LOOP ( 'NONE', ( #140, #20 ) ) ;
#92 =( NAMED_UNIT ( * ) SI_UNIT ( $, .STERADIAN. ) SOLID_ANGLE_UNIT ( ) );
#93 = VERTEX_POINT ( 'NONE', #305 ) ;
#94 = APPLICATION_PROTOCOL_DEFINITION ( 'draft international standard', 'automotive_design', 1998, #131 ) ;
#95 =( LENGTH_UNIT ( ) NAMED_UNIT ( * ) SI_UNIT ( $, .METRE. ) );
#96 = VECTOR ( 'NONE', #261, 39.37007874015748143 ) ;
#97 = CYLINDRICAL_SURFACE ( 'NONE', #167, 0.1874999999999998057 ) ;
#98 = SURFACE_STYLE_FILL_AREA ( #52 ) ;
#99 = AXIS2_PLACEMENT_3D ( 'NONE', #135, #120, #119 ) ;
#100 =( NAMED_UNIT ( * ) SI_UNIT ( $, .STERADIAN. ) SOLID_ANGLE_UNIT ( ) );
#101 = DIRECTION ( 'NONE',  ( -9.554239632590802510E-17, 1.000000000000000000, -0.000000000000000000 ) ) ;
#102 = DIRECTION ( 'NONE',  ( 1.000000000000000000, -1.133125672015518856E-17, 0.000000000000000000 ) ) ;
#103 = AXIS2_PLACEMENT_3D ( 'NONE', #148, #13, #107 ) ;
#104 =( GEOMETRIC_REPRESENTATION_CONTEXT ( 3 ) GLOBAL_UNCERTAINTY_ASSIGNED_CONTEXT ( ( #58 ) ) GLOBAL_UNIT_ASSIGNED_CONTEXT ( ( #66, #255, #233 ) ) REPRESENTATION_CONTEXT ( 'NONE', 'WORKASPACE' ) );
#105 = DIRECTION ( 'NONE',  ( -9.554239632590802510E-17, 1.000000000000000000, -0.000000000000000000 ) ) ;
#106 = DIMENSIONAL_EXPONENTS ( 1.000000000000000000, 0.000000000000000000, 0.000000000000000000, 0.000000000000000000, 0.000000000000000000, 0.000000000000000000, 0.000000000000000000 ) ;
#107 = DIRECTION ( 'NONE',  ( -1.000000000000000000, 1.133125672015518856E-17, 0.000000000000000000 ) ) ;
#108 = EDGE_CURVE ( 'NONE', #93, #63, #200, .T. ) ;
#109 = SURFACE_STYLE_FILL_AREA ( #219 ) ;
#110 = APPLICATION_CONTEXT ( 'automotive_design' ) ;
#111 = AXIS2_PLACEMENT_3D ( 'NONE', #299, #101, #34 ) ;
#112 = DIRECTION ( 'NONE',  ( 1.000000000000000000, -1.133125672015518856E-17, 0.000000000000000000 ) ) ;
#113 = EDGE_CURVE ( 'NONE', #132, #210, #75, .T. ) ;
#114 = DIRECTION ( 'NONE',  ( -9.554239632590802510E-17, 1.000000000000000000, 0.000000000000000000 ) ) ;
#115 = DIRECTION ( 'NONE',  ( -1.133125672015518856E-17, -1.000000000000000000, -0.000000000000000000 ) ) ;
#116 = ORIENTED_EDGE ( 'NONE', *, *, #275, .T. ) ;
#117 = AXIS2_PLACEMENT_3D ( 'NONE', #276, #240, #16 ) ;
#118 = FILL_AREA_STYLE ('',( #84 ) ) ;
#119 = DIRECTION ( 'NONE',  ( 1.000000000000000000, 0.000000000000000000, 0.000000000000000000 ) ) ;
#120 = DIRECTION ( 'NONE',  ( -1.133125672015518856E-17, -1.000000000000000000, -0.000000000000000000 ) ) ;
#121 = FILL_AREA_STYLE_COLOUR ( '', #193 ) ;
#122 = STYLED_ITEM ( 'NONE', ( #227 ), #228 ) ;
#123 = STYLED_ITEM ( 'NONE', ( #188 ), #243 ) ;
#124 = PRODUCT_DEFINITION_SHAPE ( 'NONE', 'NONE',  #79 ) ;
#125 = FILL_AREA_STYLE_COLOUR ( '', #245 ) ;
#126 = EDGE_CURVE ( 'NONE', #241, #43, #272, .T. ) ;
#127 = AXIS2_PLACEMENT_3D ( 'NONE', #286, #162, #283 ) ;
#128 = DIRECTION ( 'NONE',  ( -1.133125672015518856E-17, -1.000000000000000000, 0.000000000000000000 ) ) ;
#129 = DIMENSIONAL_EXPONENTS ( 1.000000000000000000, 0.000000000000000000, 0.000000000000000000, 0.000000000000000000, 0.000000000000000000, 0.000000000000000000, 0.000000000000000000 ) ;
#130 = MANIFOLD_SOLID_BREP ( 'Revolve - Cutting Edge', #192 ) ;
#131 = APPLICATION_CONTEXT ( 'automotive_design' ) ;
#132 = VERTEX_POINT ( 'NONE', #50 ) ;
#133 = EDGE_CURVE ( 'NONE', #210, #132, #36, .T. ) ;
#134 = VECTOR ( 'NONE', #28, 39.37007874015748143 ) ;
#135 = CARTESIAN_POINT ( 'NONE',  ( 1.449978133535231439E-18, 0.1279626937545346732, 0.000000000000000000 ) ) ;
#136 =( LENGTH_UNIT ( ) NAMED_UNIT ( * ) SI_UNIT ( $, .METRE. ) );
#137 = ORIENTED_EDGE ( 'NONE', *, *, #133, .T. ) ;
#138 = EDGE_LOOP ( 'NONE', ( #49, #281, #278, #285 ) ) ;
#139 = CARTESIAN_POINT ( 'NONE',  ( 0.1874999999999999722, 2.500000000000000000, 0.000000000000000000 ) ) ;
#140 = ORIENTED_EDGE ( 'NONE', *, *, #191, .F. ) ;
#141 = EDGE_CURVE ( 'NONE', #43, #63, #78, .T. ) ;
#142 = DIRECTION ( 'NONE',  ( 1.000000000000000000, 0.000000000000000000, 0.000000000000000000 ) ) ;
#143 = ORIENTED_EDGE ( 'NONE', *, *, #10, .F. ) ;
#144 = CARTESIAN_POINT ( 'NONE',  ( 4.493908260032174185E-36, 3.965939852054316189E-19, 0.000000000000000000 ) ) ;
#145 = UNCERTAINTY_MEASURE_WITH_UNIT (LENGTH_MEASURE( 1.000000000000000082E-05 ), #60, 'distance_accuracy_value', 'NONE');
#146 =( NAMED_UNIT ( * ) SI_UNIT ( $, .STERADIAN. ) SOLID_ANGLE_UNIT ( ) );
#147 = ADVANCED_FACE ( 'NONE', ( #32 ), #97, .T. ) ;
#148 = CARTESIAN_POINT ( 'NONE',  ( 4.493908260032174185E-36, 3.965939852054316189E-19, 0.000000000000000000 ) ) ;
#149 = DIRECTION ( 'NONE',  ( -9.554239632590802510E-17, 1.000000000000000000, -0.000000000000000000 ) ) ;
#150 = FACE_OUTER_BOUND ( 'NONE', #207, .T. ) ;
#151 = PRESENTATION_LAYER_ASSIGNMENT (  '', '', ( #289 ) ) ;
#152 = SURFACE_SIDE_STYLE ('',( #33 ) ) ;
#153 = CARTESIAN_POINT ( 'NONE',  ( 0.1874999999999999445, 0.1279626937545347010, 2.296212748401285260E-17 ) ) ;
#154 = STYLED_ITEM ( 'NONE', ( #35 ), #180 ) ;
#155 = AXIS2_PLACEMENT_3D ( 'NONE', #76, #4, #196 ) ;
#156 = CARTESIAN_POINT ( 'NONE',  ( -0.1874999999999997502, 2.500000000000000000, 0.000000000000000000 ) ) ;
#157 =( LENGTH_UNIT ( ) NAMED_UNIT ( * ) SI_UNIT ( $, .METRE. ) );
#158 = ORIENTED_EDGE ( 'NONE', *, *, #126, .T. ) ;
#159 = AXIS2_PLACEMENT_3D ( 'NONE', #216, #190, #22 ) ;
#160 = MECHANICAL_DESIGN_GEOMETRIC_PRESENTATION_REPRESENTATION (  '', ( #123 ), #265 ) ;
#161 = SURFACE_STYLE_FILL_AREA ( #118 ) ;
#162 = DIRECTION ( 'NONE',  ( -1.133125672015518856E-17, -1.000000000000000000, -0.000000000000000000 ) ) ;
#163 =( NAMED_UNIT ( * ) PLANE_ANGLE_UNIT ( ) SI_UNIT ( $, .RADIAN. ) );
#164 = ORIENTED_EDGE ( 'NONE', *, *, #141, .F. ) ;
#165 = DIRECTION ( 'NONE',  ( -1.000000000000000000, 1.133125672015518856E-17, 0.000000000000000000 ) ) ;
#166 = ORIENTED_EDGE ( 'NONE', *, *, #42, .F. ) ;
#167 = AXIS2_PLACEMENT_3D ( 'NONE', #221, #244, #268 ) ;
#168 = CARTESIAN_POINT ( 'NONE',  ( 0.03500000000000000333, 0.000000000000000000, 1.362419564051430200E-17 ) ) ;
#169 =( NAMED_UNIT ( * ) PLANE_ANGLE_UNIT ( ) SI_UNIT ( $, .RADIAN. ) );
#170 =( NAMED_UNIT ( * ) PLANE_ANGLE_UNIT ( ) SI_UNIT ( $, .RADIAN. ) );
#171 = SURFACE_SIDE_STYLE ('',( #98 ) ) ;
#172 = AXIS2_PLACEMENT_3D ( 'NONE', #194, #292, #71 ) ;
#173 = APPLICATION_PROTOCOL_DEFINITION ( 'draft international standard', 'automotive_design', 1998, #110 ) ;
#174 = SURFACE_STYLE_USAGE ( .BOTH. , #290 ) ;
#175 = ADVANCED_FACE ( 'NONE', ( #248 ), #198, .T. ) ;
#176 =( NAMED_UNIT ( * ) PLANE_ANGLE_UNIT ( ) SI_UNIT ( $, .RADIAN. ) );
#177 = CARTESIAN_POINT ( 'NONE',  ( 2.246954130016087093E-36, 1.982969926027158095E-19, 0.000000000000000000 ) ) ;
#178 = MECHANICAL_DESIGN_GEOMETRIC_PRESENTATION_REPRESENTATION (  '', ( #154 ), #82 ) ;
#179 = SURFACE_SIDE_STYLE ('',( #109 ) ) ;
#180 = ADVANCED_FACE ( 'NONE', ( #264 ), #256, .T. ) ;
#181 = SURFACE_STYLE_USAGE ( .BOTH. , #152 ) ;
#182 = EDGE_CURVE ( 'NONE', #206, #210, #199, .T. ) ;
#183 = PRESENTATION_LAYER_ASSIGNMENT (  '', '', ( #239 ) ) ;
#184 = ORIENTED_EDGE ( 'NONE', *, *, #141, .T. ) ;
#185 = AXIS2_PLACEMENT_3D ( 'NONE', #144, #18, #112 ) ;
#186 = FACE_OUTER_BOUND ( 'NONE', #67, .T. ) ;
#187 = DIRECTION ( 'NONE',  ( -1.000000000000000000, -9.554239632590802510E-17, 0.000000000000000000 ) ) ;
#188 = PRESENTATION_STYLE_ASSIGNMENT (( #306 ) ) ;
#189 = DIRECTION ( 'NONE',  ( 1.133125672015518856E-17, 1.000000000000000000, 0.000000000000000000 ) ) ;
#190 = DIRECTION ( 'NONE',  ( -9.554239632590802510E-17, 1.000000000000000000, -0.000000000000000000 ) ) ;
#191 = EDGE_CURVE ( 'NONE', #206, #223, #251, .T. ) ;
#192 = CLOSED_SHELL ( 'NONE', ( #180, #175, #235, #228 ) ) ;
#193 = COLOUR_RGB ( '',0.7921568627450980005, 0.8196078431372548767, 0.9333333333333333481 ) ;
#194 = CARTESIAN_POINT ( 'NONE',  ( 1.449978133535231054E-18, 0.1279626937545346732, 0.000000000000000000 ) ) ;
#195 = UNCERTAINTY_MEASURE_WITH_UNIT (LENGTH_MEASURE( 1.000000000000000082E-05 ), #31, 'distance_accuracy_value', 'NONE');
#196 = DIRECTION ( 'NONE',  ( 1.000000000000000000, 0.000000000000000000, 0.000000000000000000 ) ) ;
#197 = AXIS2_PLACEMENT_3D ( 'NONE', #177, #128, #102 ) ;
#198 = PLANE ( 'NONE',  #172 ) ;
#199 = LINE ( 'NONE', #156, #47 ) ;
#200 = CIRCLE ( 'NONE', #99, 0.1874999999999999722 ) ;
#201 = CARTESIAN_POINT ( 'NONE',  ( 4.493908260032174185E-36, 3.965939852054316189E-19, 0.000000000000000000 ) ) ;
#202 = DIMENSIONAL_EXPONENTS ( 1.000000000000000000, 0.000000000000000000, 0.000000000000000000, 0.000000000000000000, 0.000000000000000000, 0.000000000000000000, 0.000000000000000000 ) ;
#203 = DIRECTION ( 'NONE',  ( -9.554239632590802510E-17, 1.000000000000000000, -0.000000000000000000 ) ) ;
#204 = PRODUCT_DEFINITION_FORMATION_WITH_SPECIFIED_SOURCE ( 'ANY', '', #72, .NOT_KNOWN. ) ;
#205 = LENGTH_MEASURE_WITH_UNIT ( LENGTH_MEASURE( 0.02539999999999999897 ), #21 );
#206 = VERTEX_POINT ( 'NONE', #55 ) ;
#207 = EDGE_LOOP ( 'NONE', ( #158, #24 ) ) ;
#208 = FILL_AREA_STYLE ('',( #88 ) ) ;
#209 = ORIENTED_EDGE ( 'NONE', *, *, #108, .F. ) ;
#210 = VERTEX_POINT ( 'NONE', #273 ) ;
#211 = PRESENTATION_LAYER_ASSIGNMENT (  '', '', ( #122 ) ) ;
#212 = DIRECTION ( 'NONE',  ( 1.000000000000000000, 9.554239632590802510E-17, 0.000000000000000000 ) ) ;
#213 = ORIENTED_EDGE ( 'NONE', *, *, #275, .F. ) ;
#214 = UNCERTAINTY_MEASURE_WITH_UNIT (LENGTH_MEASURE( 1.000000000000000082E-05 ), #37, 'distance_accuracy_value', 'NONE');
#215 = SURFACE_SIDE_STYLE ('',( #161 ) ) ;
#216 = CARTESIAN_POINT ( 'NONE',  ( 6.123233995736772199E-17, 2.500000000000000000, 0.000000000000000000 ) ) ;
#217 = LENGTH_MEASURE_WITH_UNIT ( LENGTH_MEASURE( 0.02539999999999999897 ), #95 );
#218 =( CONVERSION_BASED_UNIT ( 'INCH', #266 ) LENGTH_UNIT ( ) NAMED_UNIT ( #80 ) );
#219 = FILL_AREA_STYLE ('',( #125 ) ) ;
#220 = EDGE_CURVE ( 'NONE', #223, #206, #90, .T. ) ;
#221 = CARTESIAN_POINT ( 'NONE',  ( 6.123233995736772199E-17, 2.500000000000000000, 0.000000000000000000 ) ) ;
#222 = MECHANICAL_DESIGN_GEOMETRIC_PRESENTATION_REPRESENTATION (  '', ( #239 ), #104 ) ;
#223 = VERTEX_POINT ( 'NONE', #153 ) ;
#224 = LENGTH_MEASURE_WITH_UNIT ( LENGTH_MEASURE( 0.02539999999999999897 ), #14 );
#225 = COLOUR_RGB ( '',1.000000000000000000, 0.000000000000000000, 0.000000000000000000 ) ;
#226 =( NAMED_UNIT ( * ) SI_UNIT ( $, .STERADIAN. ) SOLID_ANGLE_UNIT ( ) );
#227 = PRESENTATION_STYLE_ASSIGNMENT (( #181 ) ) ;
#228 = ADVANCED_FACE ( 'NONE', ( #150 ), #12, .T. ) ;
#229 = FACE_OUTER_BOUND ( 'NONE', #45, .T. ) ;
#230 = CIRCLE ( 'NONE', #127, 0.03500000000000000333 ) ;
#231 =( GEOMETRIC_REPRESENTATION_CONTEXT ( 3 ) GLOBAL_UNCERTAINTY_ASSIGNED_CONTEXT ( ( #274 ) ) GLOBAL_UNIT_ASSIGNED_CONTEXT ( ( #218, #170, #6 ) ) REPRESENTATION_CONTEXT ( 'NONE', 'WORKASPACE' ) );
#232 = ORIENTED_EDGE ( 'NONE', *, *, #126, .F. ) ;
#233 =( NAMED_UNIT ( * ) SI_UNIT ( $, .STERADIAN. ) SOLID_ANGLE_UNIT ( ) );
#234 = CARTESIAN_POINT ( 'NONE',  ( 6.123233995736772199E-17, 2.500000000000000000, 0.000000000000000000 ) ) ;
#235 = ADVANCED_FACE ( 'NONE', ( #9 ), #280, .T. ) ;
#236 = ORIENTED_EDGE ( 'NONE', *, *, #113, .T. ) ;
#237 = EDGE_LOOP ( 'NONE', ( #164, #232, #1, #259 ) ) ;
#238 = CARTESIAN_POINT ( 'NONE',  ( 0.1874999999999999722, 0.1279626937545346732, 2.296212748401287109E-17 ) ) ;
#239 = STYLED_ITEM ( 'NONE', ( #277 ), #235 ) ;
#240 = DIRECTION ( 'NONE',  ( -9.554239632590802510E-17, 1.000000000000000000, -0.000000000000000000 ) ) ;
#241 = VERTEX_POINT ( 'NONE', #257 ) ;
#242 = CARTESIAN_POINT ( 'NONE',  ( 0.03500000000000000333, 0.000000000000000000, 4.286263797015735979E-18 ) ) ;
#243 = MANIFOLD_SOLID_BREP ( 'Revolve - Tool Body (Tipped Off)', #17 ) ;
#244 = DIRECTION ( 'NONE',  ( -9.554239632590802510E-17, 1.000000000000000000, -0.000000000000000000 ) ) ;
#245 = COLOUR_RGB ( '',1.000000000000000000, 0.000000000000000000, 0.000000000000000000 ) ;
#246 = SURFACE_STYLE_FILL_AREA ( #74 ) ;
#247 = PRODUCT_CONTEXT ( 'NONE', #131, 'mechanical' ) ;
#248 = FACE_OUTER_BOUND ( 'NONE', #2, .T. ) ;
#249 = LENGTH_MEASURE_WITH_UNIT ( LENGTH_MEASURE( 0.02539999999999999897 ), #70 );
#250 = CIRCLE ( 'NONE', #288, 0.1874999999999999722 ) ;
#251 = CIRCLE ( 'NONE', #279, 0.1874999999999996669 ) ;
#252 = SURFACE_STYLE_USAGE ( .BOTH. , #179 ) ;
#253 = DIMENSIONAL_EXPONENTS ( 1.000000000000000000, 0.000000000000000000, 0.000000000000000000, 0.000000000000000000, 0.000000000000000000, 0.000000000000000000, 0.000000000000000000 ) ;
#254 = LENGTH_MEASURE_WITH_UNIT ( LENGTH_MEASURE( 0.02539999999999999897 ), #81 );
#255 =( NAMED_UNIT ( * ) PLANE_ANGLE_UNIT ( ) SI_UNIT ( $, .RADIAN. ) );
#256 = CONICAL_SURFACE ( 'NONE', #103, 0.03500000000000000333, 0.8726646259971667652 ) ;
#257 = CARTESIAN_POINT ( 'NONE',  ( -0.03500000000000000333, 7.931879704108632378E-19, 0.000000000000000000 ) ) ;
#258 = SURFACE_STYLE_USAGE ( .BOTH. , #215 ) ;
#259 = ORIENTED_EDGE ( 'NONE', *, *, #108, .T. ) ;
#260 = ORIENTED_EDGE ( 'NONE', *, *, #182, .F. ) ;
#261 = DIRECTION ( 'NONE',  ( -9.554239632590802510E-17, 1.000000000000000000, -0.000000000000000000 ) ) ;
#262 = PRODUCT_DEFINITION_CONTEXT ( 'detailed design', #110, 'design' ) ;
#263 = SURFACE_STYLE_USAGE ( .BOTH. , #171 ) ;
#264 = FACE_OUTER_BOUND ( 'NONE', #89, .T. ) ;
#265 =( GEOMETRIC_REPRESENTATION_CONTEXT ( 3 ) GLOBAL_UNCERTAINTY_ASSIGNED_CONTEXT ( ( #145 ) ) GLOBAL_UNIT_ASSIGNED_CONTEXT ( ( #60, #163, #92 ) ) REPRESENTATION_CONTEXT ( 'NONE', 'WORKASPACE' ) );
#266 = LENGTH_MEASURE_WITH_UNIT ( LENGTH_MEASURE( 0.02539999999999999897 ), #157 );
#267 = MECHANICAL_DESIGN_GEOMETRIC_PRESENTATION_REPRESENTATION (  '', ( #122 ), #27 ) ;
#268 = DIRECTION ( 'NONE',  ( -1.000000000000000000, 0.000000000000000000, 0.000000000000000000 ) ) ;
#269 =( CONVERSION_BASED_UNIT ( 'INCH', #224 ) LENGTH_UNIT ( ) NAMED_UNIT ( #253 ) );
#270 = FILL_AREA_STYLE ('',( #301 ) ) ;
#271 = DIMENSIONAL_EXPONENTS ( 1.000000000000000000, 0.000000000000000000, 0.000000000000000000, 0.000000000000000000, 0.000000000000000000, 0.000000000000000000, 0.000000000000000000 ) ;
#272 = CIRCLE ( 'NONE', #185, 0.03500000000000000333 ) ;
#273 = CARTESIAN_POINT ( 'NONE',  ( -0.1874999999999998335, 2.500000000000000000, 0.000000000000000000 ) ) ;
#274 = UNCERTAINTY_MEASURE_WITH_UNIT (LENGTH_MEASURE( 1.000000000000000082E-05 ), #218, 'distance_accuracy_value', 'NONE');
#275 = EDGE_CURVE ( 'NONE', #63, #93, #250, .T. ) ;
#276 = CARTESIAN_POINT ( 'NONE',  ( 6.123233995736772199E-17, 2.500000000000000000, 0.000000000000000000 ) ) ;
#277 = PRESENTATION_STYLE_ASSIGNMENT (( #258 ) ) ;
#278 = ORIENTED_EDGE ( 'NONE', *, *, #182, .T. ) ;
#279 = AXIS2_PLACEMENT_3D ( 'NONE', #297, #105, #302 ) ;
#280 = CONICAL_SURFACE ( 'NONE', #64, 0.03500000000000000333, 0.8726646259971667652 ) ;
#281 = ORIENTED_EDGE ( 'NONE', *, *, #220, .T. ) ;
#282 = SURFACE_SIDE_STYLE ('',( #44 ) ) ;
#283 = DIRECTION ( 'NONE',  ( 1.000000000000000000, -1.133125672015518856E-17, 0.000000000000000000 ) ) ;
#284 = LENGTH_MEASURE_WITH_UNIT ( LENGTH_MEASURE( 0.02539999999999999897 ), #136 );
#285 = ORIENTED_EDGE ( 'NONE', *, *, #113, .F. ) ;
#286 = CARTESIAN_POINT ( 'NONE',  ( 4.493908260032174185E-36, 3.965939852054316189E-19, 0.000000000000000000 ) ) ;
#287 = CARTESIAN_POINT ( 'NONE',  ( 2.878624683705112206E-16, 0.1279626937545346455, 0.000000000000000000 ) ) ;
#288 = AXIS2_PLACEMENT_3D ( 'NONE', #59, #115, #142 ) ;
#289 = STYLED_ITEM ( 'NONE', ( #53 ), #175 ) ;
#290 = SURFACE_SIDE_STYLE ('',( #246 ) ) ;
#291 = ADVANCED_FACE ( 'NONE', ( #186 ), #304, .T. ) ;
#292 = DIRECTION ( 'NONE',  ( 1.133125672015518856E-17, 1.000000000000000000, 0.000000000000000000 ) ) ;
#293 = AXIS2_PLACEMENT_3D ( 'NONE', #139, #26, #212 ) ;
#294 = DIRECTION ( 'NONE',  ( -1.000000000000000000, 0.000000000000000000, 0.000000000000000000 ) ) ;
#295 =( NAMED_UNIT ( * ) PLANE_ANGLE_UNIT ( ) SI_UNIT ( $, .RADIAN. ) );
#296 = COLOUR_RGB ( '',1.000000000000000000, 0.000000000000000000, 0.000000000000000000 ) ;
#297 = CARTESIAN_POINT ( 'NONE',  ( 2.878624683705112206E-16, 0.1279626937545346732, 0.000000000000000000 ) ) ;
#298 = PRESENTATION_LAYER_ASSIGNMENT (  '', '', ( #123 ) ) ;
#299 = CARTESIAN_POINT ( 'NONE',  ( 2.878624683705112206E-16, 0.1279626937545346732, 0.000000000000000000 ) ) ;
#300 = ADVANCED_FACE ( 'NONE', ( #229 ), #303, .F. ) ;
#301 = FILL_AREA_STYLE_COLOUR ( '', #296 ) ;
#302 = DIRECTION ( 'NONE',  ( -1.000000000000000000, -9.106159978880893419E-17, 0.000000000000000000 ) ) ;
#303 = PLANE ( 'NONE',  #293 ) ;
#304 = CYLINDRICAL_SURFACE ( 'NONE', #117, 0.1874999999999998057 ) ;
#305 = CARTESIAN_POINT ( 'NONE',  ( -0.1874999999999999722, 0.1279626937545346732, 0.000000000000000000 ) ) ;
#306 = SURFACE_STYLE_USAGE ( .BOTH. , #282 ) ;
#307 = LINE ( 'NONE', #46, #134 ) ;
#308 =( GEOMETRIC_REPRESENTATION_CONTEXT ( 3 ) GLOBAL_UNCERTAINTY_ASSIGNED_CONTEXT ( ( #23 ) ) GLOBAL_UNIT_ASSIGNED_CONTEXT ( ( #29, #176, #146 ) ) REPRESENTATION_CONTEXT ( 'NONE', 'WORKASPACE' ) );
#309 = UNCERTAINTY_MEASURE_WITH_UNIT (LENGTH_MEASURE( 1.000000000000000082E-05 ), #269, 'distance_accuracy_value', 'NONE');
ENDSEC;
END-ISO-10303-21;
