ISO-10303-21;
HEADER;
FILE_DESCRIPTION (( 'STEP AP214' ),
    '1' );
FILE_NAME ('Micro_AELM-080-4.STEP',
    '2021-09-01T17:06:00',
    ( '' ),
    ( '' ),
    'SwSTEP 2.0',
    'SolidWorks 2020',
    '' );
FILE_SCHEMA (( 'AUTOMOTIVE_DESIGN' ));
ENDSEC;

DATA;
#1 = ORIENTED_EDGE ( 'NONE', *, *, #113, .F. ) ;
#2 = MANIFOLD_SOLID_BREP ( 'Cut-Revolve1', #199 ) ;
#3 = CARTESIAN_POINT ( 'NONE',  ( 1.929671205251539577E-16, 0.0000000000000000000, 1.575696116296593896 ) ) ;
#4 = ADVANCED_FACE ( 'NONE', ( #43 ), #77, .T. ) ;
#5 = VECTOR ( 'NONE', #149, 39.37007874015748143 ) ;
#6 = DIMENSIONAL_EXPONENTS ( 1.000000000000000000, 0.0000000000000000000, 0.0000000000000000000, 0.0000000000000000000, 0.0000000000000000000, 0.0000000000000000000, 0.0000000000000000000 ) ;
#7 = APPLICATION_CONTEXT ( 'automotive_design' ) ;
#8 = AXIS2_PLACEMENT_3D ( 'NONE', #129, #239, #108 ) ;
#9 = CIRCLE ( 'NONE', #288, 0.1573230194999999942 ) ;
#10 = DIRECTION ( 'NONE',  ( 1.000000000000000000, 0.0000000000000000000, 0.0000000000000000000 ) ) ;
#11 = CARTESIAN_POINT ( 'NONE',  ( 0.0000000000000000000, 0.0000000000000000000, 3.922008000000000827 ) ) ;
#12 = CARTESIAN_POINT ( 'NONE',  ( 0.0000000000000000000, 0.0000000000000000000, 0.0000000000000000000 ) ) ;
#13 = DIRECTION ( 'NONE',  ( -0.0000000000000000000, -0.0000000000000000000, -1.000000000000000000 ) ) ;
#14 = EDGE_LOOP ( 'NONE', ( #298, #271, #126, #229 ) ) ;
#15 = EDGE_CURVE ( 'NONE', #124, #35, #221, .T. ) ;
#16 = SURFACE_SIDE_STYLE ('',( #170 ) ) ;
#17 = VERTEX_POINT ( 'NONE', #175 ) ;
#18 = DIRECTION ( 'NONE',  ( 0.0000000000000000000, 0.0000000000000000000, -1.000000000000000000 ) ) ;
#19 = ORIENTED_EDGE ( 'NONE', *, *, #250, .F. ) ;
#20 = PRODUCT_RELATED_PRODUCT_CATEGORY ( 'part', '', ( #162 ) ) ;
#21 = DIRECTION ( 'NONE',  ( -1.224646799147353207E-16, -0.0000000000000000000, -1.000000000000000000 ) ) ;
#22 = DIRECTION ( 'NONE',  ( -1.000000000000000000, 0.0000000000000000000, 0.0000000000000000000 ) ) ;
#23 = DIRECTION ( 'NONE',  ( -0.0000000000000000000, -0.0000000000000000000, -1.000000000000000000 ) ) ;
#24 =( CONVERSION_BASED_UNIT ( 'INCH', #79 ) LENGTH_UNIT ( ) NAMED_UNIT ( #196 ) );
#25 = CARTESIAN_POINT ( 'NONE',  ( 0.1424805000000004540, 1.744882882659150076E-17, 3.937007999999999619 ) ) ;
#26 = AXIS2_PLACEMENT_3D ( 'NONE', #91, #67, #165 ) ;
#27 = DIRECTION ( 'NONE',  ( -0.7071067811865563435, 0.0000000000000000000, -0.7071067811865386910 ) ) ;
#28 = UNCERTAINTY_MEASURE_WITH_UNIT (LENGTH_MEASURE( 1.000000000000000082E-05 ), #24, 'distance_accuracy_value', 'NONE');
#29 = EDGE_CURVE ( 'NONE', #233, #247, #145, .T. ) ;
#30 = CARTESIAN_POINT ( 'NONE',  ( -0.1574804999999997734, 0.0000000000000000000, 1.575696116296593896 ) ) ;
#31 = PRODUCT_DEFINITION_FORMATION_WITH_SPECIFIED_SOURCE ( 'ANY', '', #162, .NOT_KNOWN. ) ;
#32 =( NAMED_UNIT ( * ) PLANE_ANGLE_UNIT ( ) SI_UNIT ( $, .RADIAN. ) );
#33 = ADVANCED_FACE ( 'NONE', ( #260 ), #235, .T. ) ;
#34 = DIRECTION ( 'NONE',  ( -0.0000000000000000000, -0.0000000000000000000, -1.000000000000000000 ) ) ;
#35 = VERTEX_POINT ( 'NONE', #216 ) ;
#36 = AXIS2_PLACEMENT_3D ( 'NONE', #259, #51, #155 ) ;
#37 =( CONVERSION_BASED_UNIT ( 'INCH', #92 ) LENGTH_UNIT ( ) NAMED_UNIT ( #6 ) );
#38 = ORIENTED_EDGE ( 'NONE', *, *, #87, .F. ) ;
#39 = EDGE_LOOP ( 'NONE', ( #158, #280 ) ) ;
#40 = VECTOR ( 'NONE', #46, 39.37007874015748143 ) ;
#41 = ORIENTED_EDGE ( 'NONE', *, *, #87, .T. ) ;
#42 = EDGE_CURVE ( 'NONE', #186, #124, #62, .T. ) ;
#43 = FACE_OUTER_BOUND ( 'NONE', #14, .T. ) ;
#44 = DIRECTION ( 'NONE',  ( 0.0000000000000000000, 0.0000000000000000000, 1.000000000000000000 ) ) ;
#45 = EDGE_CURVE ( 'NONE', #293, #141, #276, .T. ) ;
#46 = DIRECTION ( 'NONE',  ( 0.1736481776669314969, 0.0000000000000000000, 0.9848077530122077983 ) ) ;
#47 =( LENGTH_UNIT ( ) NAMED_UNIT ( * ) SI_UNIT ( $, .METRE. ) );
#48 = DIRECTION ( 'NONE',  ( -1.224646799147353207E-16, -0.0000000000000000000, -1.000000000000000000 ) ) ;
#49 = AXIS2_PLACEMENT_3D ( 'NONE', #273, #101, #68 ) ;
#50 = CONICAL_SURFACE ( 'NONE', #26, 0.1573230195000000220, 0.1745329251994340025 ) ;
#51 = DIRECTION ( 'NONE',  ( -1.224646799147353207E-16, -0.0000000000000000000, -1.000000000000000000 ) ) ;
#52 = DIRECTION ( 'NONE',  ( 1.000000000000000000, 0.0000000000000000000, 0.0000000000000000000 ) ) ;
#53 = PRODUCT_DEFINITION_CONTEXT ( 'detailed design', #7, 'design' ) ;
#54 = DIRECTION ( 'NONE',  ( 0.0000000000000000000, 0.0000000000000000000, 1.000000000000000000 ) ) ;
#55 = AXIS2_PLACEMENT_3D ( 'NONE', #138, #59, #287 ) ;
#56 = VECTOR ( 'NONE', #34, 39.37007874015748143 ) ;
#57 = EDGE_CURVE ( 'NONE', #124, #186, #111, .T. ) ;
#58 = ORIENTED_EDGE ( 'NONE', *, *, #45, .T. ) ;
#59 = DIRECTION ( 'NONE',  ( 1.224646799147353207E-16, 0.0000000000000000000, 1.000000000000000000 ) ) ;
#60 = DIRECTION ( 'NONE',  ( -1.000000000000000000, 0.0000000000000000000, 1.224646799147353454E-16 ) ) ;
#61 = ORIENTED_EDGE ( 'NONE', *, *, #151, .T. ) ;
#62 = CIRCLE ( 'NONE', #268, 0.1574804999999999955 ) ;
#63 = CYLINDRICAL_SURFACE ( 'NONE', #230, 0.1573230195000000220 ) ;
#64 = ORIENTED_EDGE ( 'NONE', *, *, #250, .T. ) ;
#65 =( LENGTH_UNIT ( ) NAMED_UNIT ( * ) SI_UNIT ( $, .METRE. ) );
#66 = DIRECTION ( 'NONE',  ( -1.000000000000000000, 0.0000000000000000000, 0.0000000000000000000 ) ) ;
#67 = DIRECTION ( 'NONE',  ( 1.224646799147353207E-16, 0.0000000000000000000, 1.000000000000000000 ) ) ;
#68 = DIRECTION ( 'NONE',  ( -1.000000000000000000, 0.0000000000000000000, 0.0000000000000000000 ) ) ;
#69 = EDGE_LOOP ( 'NONE', ( #38, #201, #100, #231 ) ) ;
#70 = FILL_AREA_STYLE_COLOUR ( '', #192 ) ;
#71 = SURFACE_STYLE_USAGE ( .BOTH. , #188 ) ;
#72 = EDGE_LOOP ( 'NONE', ( #253, #58 ) ) ;
#73 = VERTEX_POINT ( 'NONE', #30 ) ;
#74 = CARTESIAN_POINT ( 'NONE',  ( 0.0000000000000000000, 0.0000000000000000000, 3.937007999999999619 ) ) ;
#75 = AXIS2_PLACEMENT_3D ( 'NONE', #261, #48, #134 ) ;
#76 = FILL_AREA_STYLE ('',( #150 ) ) ;
#77 = CYLINDRICAL_SURFACE ( 'NONE', #265, 0.1573230195000000220 ) ;
#78 = DIRECTION ( 'NONE',  ( -1.224646799147353207E-16, -0.0000000000000000000, -1.000000000000000000 ) ) ;
#79 = LENGTH_MEASURE_WITH_UNIT ( LENGTH_MEASURE( 0.02539999999999999897 ), #47 );
#80 = SHAPE_DEFINITION_REPRESENTATION ( #118, #218 ) ;
#81 = PRODUCT_DEFINITION ( 'UNKNOWN', '', #31, #53 ) ;
#82 = DIRECTION ( 'NONE',  ( 0.0000000000000000000, 0.0000000000000000000, -1.000000000000000000 ) ) ;
#83 = ADVANCED_FACE ( 'NONE', ( #184 ), #154, .T. ) ;
#84 = CIRCLE ( 'NONE', #297, 0.1574804999999999955 ) ;
#85 = ADVANCED_FACE ( 'NONE', ( #289 ), #127, .T. ) ;
#86 = DIRECTION ( 'NONE',  ( 0.0000000000000000000, 0.0000000000000000000, 1.000000000000000000 ) ) ;
#87 = EDGE_CURVE ( 'NONE', #278, #73, #209, .T. ) ;
#88 = LINE ( 'NONE', #117, #56 ) ;
#89 = AXIS2_PLACEMENT_3D ( 'NONE', #282, #23, #132 ) ;
#90 =( GEOMETRIC_REPRESENTATION_CONTEXT ( 3 ) GLOBAL_UNCERTAINTY_ASSIGNED_CONTEXT ( ( #110 ) ) GLOBAL_UNIT_ASSIGNED_CONTEXT ( ( #112, #286, #185 ) ) REPRESENTATION_CONTEXT ( 'NONE', 'WORKASPACE' ) );
#91 = CARTESIAN_POINT ( 'NONE',  ( 1.928577453237649374E-16, 0.0000000000000000000, 1.574802999999999953 ) ) ;
#92 = LENGTH_MEASURE_WITH_UNIT ( LENGTH_MEASURE( 0.02539999999999999897 ), #65 );
#93 = DIRECTION ( 'NONE',  ( -1.000000000000000000, 0.0000000000000000000, 1.224646799147353454E-16 ) ) ;
#94 = DIRECTION ( 'NONE',  ( -0.1736481776669312749, 2.126576849575784241E-17, 0.9848077530122077983 ) ) ;
#95 = DIRECTION ( 'NONE',  ( 1.000000000000000000, 0.0000000000000000000, -0.0000000000000000000 ) ) ;
#96 = ORIENTED_EDGE ( 'NONE', *, *, #187, .T. ) ;
#97 =( NAMED_UNIT ( * ) SI_UNIT ( $, .STERADIAN. ) SOLID_ANGLE_UNIT ( ) );
#98 = ORIENTED_EDGE ( 'NONE', *, *, #136, .F. ) ;
#99 = AXIS2_PLACEMENT_3D ( 'NONE', #74, #44, #103 ) ;
#100 = ORIENTED_EDGE ( 'NONE', *, *, #136, .T. ) ;
#101 = DIRECTION ( 'NONE',  ( -1.224646799147353207E-16, -0.0000000000000000000, -1.000000000000000000 ) ) ;
#102 = ORIENTED_EDGE ( 'NONE', *, *, #15, .F. ) ;
#103 = DIRECTION ( 'NONE',  ( 1.000000000000000000, 0.0000000000000000000, 0.0000000000000000000 ) ) ;
#104 = PRESENTATION_STYLE_ASSIGNMENT (( #71 ) ) ;
#105 = CARTESIAN_POINT ( 'NONE',  ( 0.0000000000000000000, 0.0000000000000000000, 3.922008000000000827 ) ) ;
#106 = DIRECTION ( 'NONE',  ( 1.000000000000000000, 0.0000000000000000000, 0.0000000000000000000 ) ) ;
#107 =( GEOMETRIC_REPRESENTATION_CONTEXT ( 3 ) GLOBAL_UNCERTAINTY_ASSIGNED_CONTEXT ( ( #28 ) ) GLOBAL_UNIT_ASSIGNED_CONTEXT ( ( #24, #135, #197 ) ) REPRESENTATION_CONTEXT ( 'NONE', 'WORKASPACE' ) );
#108 = DIRECTION ( 'NONE',  ( 1.000000000000000000, 0.0000000000000000000, -0.0000000000000000000 ) ) ;
#109 = DIMENSIONAL_EXPONENTS ( 1.000000000000000000, 0.0000000000000000000, 0.0000000000000000000, 0.0000000000000000000, 0.0000000000000000000, 0.0000000000000000000, 0.0000000000000000000 ) ;
#110 = UNCERTAINTY_MEASURE_WITH_UNIT (LENGTH_MEASURE( 1.000000000000000082E-05 ), #112, 'distance_accuracy_value', 'NONE');
#111 = CIRCLE ( 'NONE', #245, 0.1574804999999999955 ) ;
#112 =( CONVERSION_BASED_UNIT ( 'INCH', #156 ) LENGTH_UNIT ( ) NAMED_UNIT ( #109 ) );
#113 = EDGE_CURVE ( 'NONE', #278, #17, #161, .T. ) ;
#114 = ORIENTED_EDGE ( 'NONE', *, *, #160, .T. ) ;
#115 = STYLED_ITEM ( 'NONE', ( #104 ), #2 ) ;
#116 = VECTOR ( 'NONE', #202, 39.37007874015748143 ) ;
#117 = CARTESIAN_POINT ( 'NONE',  ( -0.1574804999999999955, 0.0000000000000000000, 3.937007999999999619 ) ) ;
#118 = PRODUCT_DEFINITION_SHAPE ( 'NONE', 'NONE',  #81 ) ;
#119 = CARTESIAN_POINT ( 'NONE',  ( 0.0000000000000000000, 0.0000000000000000000, 0.0000000000000000000 ) ) ;
#120 = AXIS2_PLACEMENT_3D ( 'NONE', #226, #86, #285 ) ;
#121 = CARTESIAN_POINT ( 'NONE',  ( -0.1573230194999998277, 1.927615612579982019E-17, 1.574802999999999953 ) ) ;
#122 = ORIENTED_EDGE ( 'NONE', *, *, #164, .T. ) ;
#123 = CARTESIAN_POINT ( 'NONE',  ( 0.0000000000000000000, 0.0000000000000000000, 3.937007999999999619 ) ) ;
#124 = VERTEX_POINT ( 'NONE', #232 ) ;
#125 = SURFACE_STYLE_USAGE ( .BOTH. , #16 ) ;
#126 = ORIENTED_EDGE ( 'NONE', *, *, #29, .F. ) ;
#127 = CONICAL_SURFACE ( 'NONE', #227, 0.1424805000000004540, 0.7853981633974608245 ) ;
#128 = ORIENTED_EDGE ( 'NONE', *, *, #42, .F. ) ;
#129 = CARTESIAN_POINT ( 'NONE',  ( 0.0000000000000000000, 0.0000000000000000000, 3.937007999999999619 ) ) ;
#130 = ORIENTED_EDGE ( 'NONE', *, *, #200, .T. ) ;
#131 = CARTESIAN_POINT ( 'NONE',  ( 0.1574804999999999955, 1.928579902531247412E-17, 3.937007999999999619 ) ) ;
#132 = DIRECTION ( 'NONE',  ( -1.000000000000000000, 0.0000000000000000000, 0.0000000000000000000 ) ) ;
#133 = DIRECTION ( 'NONE',  ( 1.000000000000000000, 0.0000000000000000000, 0.0000000000000000000 ) ) ;
#134 = DIRECTION ( 'NONE',  ( -1.000000000000000000, 0.0000000000000000000, 0.0000000000000000000 ) ) ;
#135 =( NAMED_UNIT ( * ) PLANE_ANGLE_UNIT ( ) SI_UNIT ( $, .RADIAN. ) );
#136 = EDGE_CURVE ( 'NONE', #17, #35, #146, .T. ) ;
#137 = DIRECTION ( 'NONE',  ( 1.000000000000000000, 0.0000000000000000000, 0.0000000000000000000 ) ) ;
#138 = CARTESIAN_POINT ( 'NONE',  ( 1.928577453237649374E-16, 0.0000000000000000000, 1.574802999999999953 ) ) ;
#139 = EDGE_CURVE ( 'NONE', #141, #293, #180, .T. ) ;
#140 = DIRECTION ( 'NONE',  ( 0.0000000000000000000, 0.0000000000000000000, 1.000000000000000000 ) ) ;
#141 = VERTEX_POINT ( 'NONE', #195 ) ;
#142 = CARTESIAN_POINT ( 'NONE',  ( 2.359467375330272285E-33, 0.0000000000000000000, 1.926651322628716627E-17 ) ) ;
#143 = ORIENTED_EDGE ( 'NONE', *, *, #164, .F. ) ;
#144 = FILL_AREA_STYLE ('',( #70 ) ) ;
#145 = CIRCLE ( 'NONE', #36, 0.1573230194999999942 ) ;
#146 = LINE ( 'NONE', #277, #40 ) ;
#147 = ORIENTED_EDGE ( 'NONE', *, *, #160, .F. ) ;
#148 = VECTOR ( 'NONE', #94, 39.37007874015748143 ) ;
#149 = DIRECTION ( 'NONE',  ( 0.7071067811865563435, 8.659560562355041327E-17, -0.7071067811865386910 ) ) ;
#150 = FILL_AREA_STYLE_COLOUR ( '', #242 ) ;
#151 = EDGE_CURVE ( 'NONE', #278, #233, #179, .T. ) ;
#152 = CARTESIAN_POINT ( 'NONE',  ( -0.1574804999999999955, 0.0000000000000000000, 3.922008000000000827 ) ) ;
#153 = CARTESIAN_POINT ( 'NONE',  ( -0.1573230195000000220, 0.0000000000000000000, 1.926651322628716935E-17 ) ) ;
#154 = CONICAL_SURFACE ( 'NONE', #55, 0.1573230195000000220, 0.1745329251994340025 ) ;
#155 = DIRECTION ( 'NONE',  ( -1.000000000000000000, 0.0000000000000000000, 1.224646799147353454E-16 ) ) ;
#156 = LENGTH_MEASURE_WITH_UNIT ( LENGTH_MEASURE( 0.02539999999999999897 ), #167 );
#157 = VECTOR ( 'NONE', #172, 39.37007874015748143 ) ;
#158 = ORIENTED_EDGE ( 'NONE', *, *, #29, .T. ) ;
#159 = LINE ( 'NONE', #163, #116 ) ;
#160 = EDGE_CURVE ( 'NONE', #141, #186, #255, .T. ) ;
#161 = CIRCLE ( 'NONE', #49, 0.1573230195000000220 ) ;
#162 = PRODUCT ( 'Micro_AELM-080-4', 'Micro_AELM-080-4', '', ( #183 ) ) ;
#163 = CARTESIAN_POINT ( 'NONE',  ( 0.1573230195000000220, 1.926651322628716935E-17, -1.926651322628716935E-17 ) ) ;
#164 = EDGE_CURVE ( 'NONE', #293, #124, #217, .T. ) ;
#165 = DIRECTION ( 'NONE',  ( 1.000000000000000000, 0.0000000000000000000, 0.0000000000000000000 ) ) ;
#166 = CARTESIAN_POINT ( 'NONE',  ( 0.1424805000000004540, 1.836731392595198898E-17, 3.937007999999999619 ) ) ;
#167 =( LENGTH_UNIT ( ) NAMED_UNIT ( * ) SI_UNIT ( $, .METRE. ) );
#168 =( GEOMETRIC_REPRESENTATION_CONTEXT ( 3 ) GLOBAL_UNCERTAINTY_ASSIGNED_CONTEXT ( ( #182 ) ) GLOBAL_UNIT_ASSIGNED_CONTEXT ( ( #37, #32, #97 ) ) REPRESENTATION_CONTEXT ( 'NONE', 'WORKASPACE' ) );
#169 = ORIENTED_EDGE ( 'NONE', *, *, #15, .T. ) ;
#170 = SURFACE_STYLE_FILL_AREA ( #144 ) ;
#171 = EDGE_LOOP ( 'NONE', ( #270, #130, #61, #190 ) ) ;
#172 = DIRECTION ( 'NONE',  ( -1.224646799147353207E-16, -0.0000000000000000000, -1.000000000000000000 ) ) ;
#173 = ORIENTED_EDGE ( 'NONE', *, *, #57, .F. ) ;
#174 = EDGE_CURVE ( 'NONE', #35, #73, #224, .T. ) ;
#175 = CARTESIAN_POINT ( 'NONE',  ( 0.1573230195000002440, 0.0000000000000000000, 1.574802999999999953 ) ) ;
#176 = AXIS2_PLACEMENT_3D ( 'NONE', #244, #238, #22 ) ;
#177 = AXIS2_PLACEMENT_3D ( 'NONE', #12, #140, #95 ) ;
#178 = CYLINDRICAL_SURFACE ( 'NONE', #89, 0.1574804999999999955 ) ;
#179 = LINE ( 'NONE', #153, #157 ) ;
#180 = CIRCLE ( 'NONE', #99, 0.1424805000000004540 ) ;
#181 = CARTESIAN_POINT ( 'NONE',  ( 0.0000000000000000000, 0.0000000000000000000, 0.0000000000000000000 ) ) ;
#182 = UNCERTAINTY_MEASURE_WITH_UNIT (LENGTH_MEASURE( 1.000000000000000082E-05 ), #37, 'distance_accuracy_value', 'NONE');
#183 = PRODUCT_CONTEXT ( 'NONE', #254, 'mechanical' ) ;
#184 = FACE_OUTER_BOUND ( 'NONE', #69, .T. ) ;
#185 =( NAMED_UNIT ( * ) SI_UNIT ( $, .STERADIAN. ) SOLID_ANGLE_UNIT ( ) );
#186 = VERTEX_POINT ( 'NONE', #152 ) ;
#187 = EDGE_CURVE ( 'NONE', #73, #35, #84, .T. ) ;
#188 = SURFACE_SIDE_STYLE ('',( #237 ) ) ;
#189 = ADVANCED_FACE ( 'NONE', ( #236 ), #220, .T. ) ;
#190 = ORIENTED_EDGE ( 'NONE', *, *, #274, .F. ) ;
#191 = VECTOR ( 'NONE', #262, 39.37007874015748143 ) ;
#192 = COLOUR_RGB ( '',0.7921568627450980005, 0.8196078431372548767, 0.9333333333333333481 ) ;
#193 = FACE_OUTER_BOUND ( 'NONE', #234, .T. ) ;
#194 = ADVANCED_FACE ( 'NONE', ( #193 ), #178, .T. ) ;
#195 = CARTESIAN_POINT ( 'NONE',  ( -0.1424805000000004540, 0.0000000000000000000, 3.937007999999999619 ) ) ;
#196 = DIMENSIONAL_EXPONENTS ( 1.000000000000000000, 0.0000000000000000000, 0.0000000000000000000, 0.0000000000000000000, 0.0000000000000000000, 0.0000000000000000000, 0.0000000000000000000 ) ;
#197 =( NAMED_UNIT ( * ) SI_UNIT ( $, .STERADIAN. ) SOLID_ANGLE_UNIT ( ) );
#198 = CARTESIAN_POINT ( 'NONE',  ( 0.0000000000000000000, 0.0000000000000000000, 0.0000000000000000000 ) ) ;
#199 = CLOSED_SHELL ( 'NONE', ( #4, #208, #85, #194, #281, #189, #33, #83, #291, #248 ) ) ;
#200 = EDGE_CURVE ( 'NONE', #17, #278, #257, .T. ) ;
#201 = ORIENTED_EDGE ( 'NONE', *, *, #200, .F. ) ;
#202 = DIRECTION ( 'NONE',  ( -1.224646799147353207E-16, -0.0000000000000000000, -1.000000000000000000 ) ) ;
#203 = CYLINDRICAL_SURFACE ( 'NONE', #246, 0.1574804999999999955 ) ;
#204 = ORIENTED_EDGE ( 'NONE', *, *, #45, .F. ) ;
#205 = AXIS2_PLACEMENT_3D ( 'NONE', #279, #78, #106 ) ;
#206 = CARTESIAN_POINT ( 'NONE',  ( -0.1573230194999998277, 1.926651322628716935E-17, 1.574802999999999953 ) ) ;
#207 = CARTESIAN_POINT ( 'NONE',  ( 0.0000000000000000000, 0.0000000000000000000, 3.937007999999999619 ) ) ;
#208 = ADVANCED_FACE ( 'NONE', ( #222 ), #50, .T. ) ;
#209 = LINE ( 'NONE', #206, #148 ) ;
#210 = FACE_OUTER_BOUND ( 'NONE', #39, .T. ) ;
#211 = ORIENTED_EDGE ( 'NONE', *, *, #139, .F. ) ;
#212 = EDGE_LOOP ( 'NONE', ( #143, #211, #114, #173 ) ) ;
#213 = MECHANICAL_DESIGN_GEOMETRIC_PRESENTATION_REPRESENTATION (  '', ( #115 ), #107 ) ;
#214 = EDGE_LOOP ( 'NONE', ( #204, #122, #128, #147 ) ) ;
#215 = ORIENTED_EDGE ( 'NONE', *, *, #57, .T. ) ;
#216 = CARTESIAN_POINT ( 'NONE',  ( 0.1574805000000001898, 1.928579902531250185E-17, 1.575696116296593896 ) ) ;
#217 = LINE ( 'NONE', #25, #5 ) ;
#218 = ADVANCED_BREP_SHAPE_REPRESENTATION ( 'Micro_AELM-080-4', ( #2, #243 ), #168 ) ;
#219 = DIRECTION ( 'NONE',  ( 0.0000000000000000000, 0.0000000000000000000, -1.000000000000000000 ) ) ;
#220 = PLANE ( 'NONE',  #8 ) ;
#221 = LINE ( 'NONE', #131, #191 ) ;
#222 = FACE_OUTER_BOUND ( 'NONE', #296, .T. ) ;
#223 = APPLICATION_PROTOCOL_DEFINITION ( 'draft international standard', 'automotive_design', 1998, #254 ) ;
#224 = CIRCLE ( 'NONE', #205, 0.1574804999999999955 ) ;
#225 = STYLED_ITEM ( 'NONE', ( #272 ), #218 ) ;
#226 = CARTESIAN_POINT ( 'NONE',  ( 0.0000000000000000000, 0.0000000000000000000, 3.937007999999999619 ) ) ;
#227 = AXIS2_PLACEMENT_3D ( 'NONE', #123, #18, #66 ) ;
#228 = PLANE ( 'NONE',  #177 ) ;
#229 = ORIENTED_EDGE ( 'NONE', *, *, #151, .F. ) ;
#230 = AXIS2_PLACEMENT_3D ( 'NONE', #119, #294, #93 ) ;
#231 = ORIENTED_EDGE ( 'NONE', *, *, #174, .T. ) ;
#232 = CARTESIAN_POINT ( 'NONE',  ( 0.1574804999999999955, 1.928579902531247412E-17, 3.922008000000000827 ) ) ;
#233 = VERTEX_POINT ( 'NONE', #266 ) ;
#234 = EDGE_LOOP ( 'NONE', ( #249, #169, #275, #19 ) ) ;
#235 = CONICAL_SURFACE ( 'NONE', #176, 0.1424805000000004540, 0.7853981633974608245 ) ;
#236 = FACE_OUTER_BOUND ( 'NONE', #72, .T. ) ;
#237 = SURFACE_STYLE_FILL_AREA ( #76 ) ;
#238 = DIRECTION ( 'NONE',  ( 0.0000000000000000000, 0.0000000000000000000, -1.000000000000000000 ) ) ;
#239 = DIRECTION ( 'NONE',  ( 0.0000000000000000000, 0.0000000000000000000, 1.000000000000000000 ) ) ;
#240 = DIRECTION ( 'NONE',  ( -1.224646799147353207E-16, -0.0000000000000000000, -1.000000000000000000 ) ) ;
#241 = CARTESIAN_POINT ( 'NONE',  ( -0.1424805000000004540, 0.0000000000000000000, 3.937007999999999619 ) ) ;
#242 = COLOUR_RGB ( '',0.7921568627450980005, 0.8196078431372548767, 0.9333333333333333481 ) ;
#243 = AXIS2_PLACEMENT_3D ( 'NONE', #198, #54, #52 ) ;
#244 = CARTESIAN_POINT ( 'NONE',  ( 0.0000000000000000000, 0.0000000000000000000, 3.937007999999999619 ) ) ;
#245 = AXIS2_PLACEMENT_3D ( 'NONE', #11, #82, #10 ) ;
#246 = AXIS2_PLACEMENT_3D ( 'NONE', #207, #13, #251 ) ;
#247 = VERTEX_POINT ( 'NONE', #290 ) ;
#248 = ADVANCED_FACE ( 'NONE', ( #210 ), #228, .F. ) ;
#249 = ORIENTED_EDGE ( 'NONE', *, *, #42, .T. ) ;
#250 = EDGE_CURVE ( 'NONE', #186, #73, #88, .T. ) ;
#251 = DIRECTION ( 'NONE',  ( -1.000000000000000000, 0.0000000000000000000, 0.0000000000000000000 ) ) ;
#252 = EDGE_CURVE ( 'NONE', #17, #247, #159, .T. ) ;
#253 = ORIENTED_EDGE ( 'NONE', *, *, #139, .T. ) ;
#254 = APPLICATION_CONTEXT ( 'automotive_design' ) ;
#255 = LINE ( 'NONE', #241, #263 ) ;
#256 = ORIENTED_EDGE ( 'NONE', *, *, #174, .F. ) ;
#257 = CIRCLE ( 'NONE', #75, 0.1573230195000000220 ) ;
#258 = PRESENTATION_LAYER_ASSIGNMENT (  '', '', ( #225 ) ) ;
#259 = CARTESIAN_POINT ( 'NONE',  ( 2.359467375330272285E-33, 0.0000000000000000000, 1.926651322628716627E-17 ) ) ;
#260 = FACE_OUTER_BOUND ( 'NONE', #212, .T. ) ;
#261 = CARTESIAN_POINT ( 'NONE',  ( 1.928577453237649374E-16, 0.0000000000000000000, 1.574802999999999953 ) ) ;
#262 = DIRECTION ( 'NONE',  ( -0.0000000000000000000, -0.0000000000000000000, -1.000000000000000000 ) ) ;
#263 = VECTOR ( 'NONE', #27, 39.37007874015748143 ) ;
#264 = MECHANICAL_DESIGN_GEOMETRIC_PRESENTATION_REPRESENTATION (  '', ( #225 ), #90 ) ;
#265 = AXIS2_PLACEMENT_3D ( 'NONE', #181, #240, #299 ) ;
#266 = CARTESIAN_POINT ( 'NONE',  ( -0.1573230194999999942, 0.0000000000000000000, 3.853302645257433254E-17 ) ) ;
#267 = EDGE_LOOP ( 'NONE', ( #102, #215, #64, #256 ) ) ;
#268 = AXIS2_PLACEMENT_3D ( 'NONE', #105, #219, #137 ) ;
#269 = FACE_OUTER_BOUND ( 'NONE', #267, .T. ) ;
#270 = ORIENTED_EDGE ( 'NONE', *, *, #252, .F. ) ;
#271 = ORIENTED_EDGE ( 'NONE', *, *, #252, .T. ) ;
#272 = PRESENTATION_STYLE_ASSIGNMENT (( #125 ) ) ;
#273 = CARTESIAN_POINT ( 'NONE',  ( 1.928577453237649374E-16, 0.0000000000000000000, 1.574802999999999953 ) ) ;
#274 = EDGE_CURVE ( 'NONE', #247, #233, #9, .T. ) ;
#275 = ORIENTED_EDGE ( 'NONE', *, *, #187, .F. ) ;
#276 = CIRCLE ( 'NONE', #120, 0.1424805000000004540 ) ;
#277 = CARTESIAN_POINT ( 'NONE',  ( 0.1573230195000002440, 0.0000000000000000000, 1.574802999999999953 ) ) ;
#278 = VERTEX_POINT ( 'NONE', #121 ) ;
#279 = CARTESIAN_POINT ( 'NONE',  ( 1.929671205251539577E-16, 0.0000000000000000000, 1.575696116296593896 ) ) ;
#280 = ORIENTED_EDGE ( 'NONE', *, *, #274, .T. ) ;
#281 = ADVANCED_FACE ( 'NONE', ( #269 ), #203, .T. ) ;
#282 = CARTESIAN_POINT ( 'NONE',  ( 0.0000000000000000000, 0.0000000000000000000, 3.937007999999999619 ) ) ;
#283 = PRESENTATION_LAYER_ASSIGNMENT (  '', '', ( #115 ) ) ;
#284 = APPLICATION_PROTOCOL_DEFINITION ( 'draft international standard', 'automotive_design', 1998, #7 ) ;
#285 = DIRECTION ( 'NONE',  ( 1.000000000000000000, 0.0000000000000000000, 0.0000000000000000000 ) ) ;
#286 =( NAMED_UNIT ( * ) PLANE_ANGLE_UNIT ( ) SI_UNIT ( $, .RADIAN. ) );
#287 = DIRECTION ( 'NONE',  ( 1.000000000000000000, 0.0000000000000000000, 0.0000000000000000000 ) ) ;
#288 = AXIS2_PLACEMENT_3D ( 'NONE', #142, #292, #60 ) ;
#289 = FACE_OUTER_BOUND ( 'NONE', #214, .T. ) ;
#290 = CARTESIAN_POINT ( 'NONE',  ( 0.1573230194999999942, 1.926651322628716627E-17, 3.791200677927629740E-33 ) ) ;
#291 = ADVANCED_FACE ( 'NONE', ( #295 ), #63, .T. ) ;
#292 = DIRECTION ( 'NONE',  ( -1.224646799147353207E-16, -0.0000000000000000000, -1.000000000000000000 ) ) ;
#293 = VERTEX_POINT ( 'NONE', #166 ) ;
#294 = DIRECTION ( 'NONE',  ( -1.224646799147353207E-16, -0.0000000000000000000, -1.000000000000000000 ) ) ;
#295 = FACE_OUTER_BOUND ( 'NONE', #171, .T. ) ;
#296 = EDGE_LOOP ( 'NONE', ( #1, #41, #96, #98 ) ) ;
#297 = AXIS2_PLACEMENT_3D ( 'NONE', #3, #21, #133 ) ;
#298 = ORIENTED_EDGE ( 'NONE', *, *, #113, .T. ) ;
#299 = DIRECTION ( 'NONE',  ( -1.000000000000000000, 0.0000000000000000000, 1.224646799147353454E-16 ) ) ;
ENDSEC;
END-ISO-10303-21;
