ISO-10303-21;
HEADER;
FILE_DESCRIPTION (( 'STEP AP214' ),
    '1' );
FILE_NAME ('59836.STEP',
    '2023-06-22T23:00:05',
    ( '' ),
    ( '' ),
    'SwSTEP 2.0',
    'SolidWorks 2023',
    '' );
FILE_SCHEMA (( 'AUTOMOTIVE_DESIGN' ));
ENDSEC;

DATA;
#1 =( LENGTH_UNIT ( ) NAMED_UNIT ( * ) SI_UNIT ( $, .METRE. ) );
#2 =( CONVERSION_BASED_UNIT ( 'INCH', #281 ) LENGTH_UNIT ( ) NAMED_UNIT ( #199 ) );
#3 =( LENGTH_UNIT ( ) NAMED_UNIT ( * ) SI_UNIT ( $, .METRE. ) );
#4 =( NAMED_UNIT ( * ) SI_UNIT ( $, .STERADIAN. ) SOLID_ANGLE_UNIT ( ) );
#5 = CARTESIAN_POINT ( 'NONE',  ( 0.000000000000000000, 0.3749999999999999445, 0.000000000000000000 ) ) ;
#6 = ORIENTED_EDGE ( 'NONE', *, *, #149, .F. ) ;
#7 = AXIS2_PLACEMENT_3D ( 'NONE', #39, #66, #249 ) ;
#8 = SURFACE_SIDE_STYLE ('',( #208 ) ) ;
#9 = DIRECTION ( 'NONE',  ( 0.000000000000000000, 0.000000000000000000, -1.000000000000000000 ) ) ;
#10 = ORIENTED_EDGE ( 'NONE', *, *, #44, .T. ) ;
#11 = SURFACE_STYLE_FILL_AREA ( #211 ) ;
#12 = VERTEX_POINT ( 'NONE', #257 ) ;
#13 = PRESENTATION_STYLE_ASSIGNMENT (( #60 ) ) ;
#14 =( CONVERSION_BASED_UNIT ( 'INCH', #214 ) LENGTH_UNIT ( ) NAMED_UNIT ( #179 ) );
#15 = CIRCLE ( 'NONE', #81, 0.1250000000000000000 ) ;
#16 = COLOUR_RGB ( '',1.000000000000000000, 0.000000000000000000, 0.000000000000000000 ) ;
#17 = DIMENSIONAL_EXPONENTS ( 1.000000000000000000, 0.000000000000000000, 0.000000000000000000, 0.000000000000000000, 0.000000000000000000, 0.000000000000000000, 0.000000000000000000 ) ;
#18 =( LENGTH_UNIT ( ) NAMED_UNIT ( * ) SI_UNIT ( $, .METRE. ) );
#19 = CYLINDRICAL_SURFACE ( 'NONE', #277, 0.1249999999999999584 ) ;
#20 =( NAMED_UNIT ( * ) SI_UNIT ( $, .STERADIAN. ) SOLID_ANGLE_UNIT ( ) );
#21 = COLOUR_RGB ( '',0.7921568627450980005, 0.8196078431372548767, 0.9333333333333333481 ) ;
#22 = CARTESIAN_POINT ( 'NONE',  ( 1.530808498934191509E-17, 0.000000000000000000, 0.1250000000000000000 ) ) ;
#23 = AXIS2_PLACEMENT_3D ( 'NONE', #46, #148, #121 ) ;
#24 =( GEOMETRIC_REPRESENTATION_CONTEXT ( 3 ) GLOBAL_UNCERTAINTY_ASSIGNED_CONTEXT ( ( #295 ) ) GLOBAL_UNIT_ASSIGNED_CONTEXT ( ( #14, #198, #297 ) ) REPRESENTATION_CONTEXT ( 'NONE', 'WORKASPACE' ) );
#25 = SURFACE_STYLE_USAGE ( .BOTH. , #118 ) ;
#26 = CYLINDRICAL_SURFACE ( 'NONE', #163, 0.1250000000000000000 ) ;
#27 = SURFACE_STYLE_FILL_AREA ( #150 ) ;
#28 = DIRECTION ( 'NONE',  ( -1.000000000000000000, 0.000000000000000000, 0.000000000000000000 ) ) ;
#29 = CARTESIAN_POINT ( 'NONE',  ( 0.000000000000000000, 0.000000000000000000, 0.000000000000000000 ) ) ;
#30 = EDGE_CURVE ( 'NONE', #111, #172, #57, .T. ) ;
#31 = LINE ( 'NONE', #134, #154 ) ;
#32 = FACE_OUTER_BOUND ( 'NONE', #160, .T. ) ;
#33 = FACE_OUTER_BOUND ( 'NONE', #97, .T. ) ;
#34 = ORIENTED_EDGE ( 'NONE', *, *, #221, .F. ) ;
#35 = AXIS2_PLACEMENT_3D ( 'NONE', #94, #182, #256 ) ;
#36 = ORIENTED_EDGE ( 'NONE', *, *, #125, .F. ) ;
#37 = STYLED_ITEM ( 'NONE', ( #51 ), #274 ) ;
#38 =( NAMED_UNIT ( * ) PLANE_ANGLE_UNIT ( ) SI_UNIT ( $, .RADIAN. ) );
#39 = CARTESIAN_POINT ( 'NONE',  ( 0.000000000000000000, 0.000000000000000000, 0.000000000000000000 ) ) ;
#40 = LENGTH_MEASURE_WITH_UNIT ( LENGTH_MEASURE( 0.02539999999999999897 ), #18 );
#41 = APPLICATION_PROTOCOL_DEFINITION ( 'draft international standard', 'automotive_design', 1998, #116 ) ;
#42 = PLANE ( 'NONE',  #183 ) ;
#43 = CARTESIAN_POINT ( 'NONE',  ( 0.000000000000000000, 0.000000000000000000, 0.000000000000000000 ) ) ;
#44 = EDGE_CURVE ( 'NONE', #233, #98, #71, .T. ) ;
#45 =( GEOMETRIC_REPRESENTATION_CONTEXT ( 3 ) GLOBAL_UNCERTAINTY_ASSIGNED_CONTEXT ( ( #202 ) ) GLOBAL_UNIT_ASSIGNED_CONTEXT ( ( #74, #157, #239 ) ) REPRESENTATION_CONTEXT ( 'NONE', 'WORKASPACE' ) );
#46 = CARTESIAN_POINT ( 'NONE',  ( 0.000000000000000000, 0.3749999999999999445, 0.000000000000000000 ) ) ;
#47 = PRODUCT_DEFINITION ( 'UNKNOWN', '', #188, #301 ) ;
#48 =( CONVERSION_BASED_UNIT ( 'INCH', #40 ) LENGTH_UNIT ( ) NAMED_UNIT ( #114 ) );
#49 = DIRECTION ( 'NONE',  ( 3.768143997376471359E-17, 1.000000000000000000, -0.000000000000000000 ) ) ;
#50 = COLOUR_RGB ( '',1.000000000000000000, 0.000000000000000000, 0.000000000000000000 ) ;
#51 = PRESENTATION_STYLE_ASSIGNMENT (( #99 ) ) ;
#52 =( NAMED_UNIT ( * ) PLANE_ANGLE_UNIT ( ) SI_UNIT ( $, .RADIAN. ) );
#53 = CIRCLE ( 'NONE', #96, 0.1250000000000000000 ) ;
#54 =( GEOMETRIC_REPRESENTATION_CONTEXT ( 3 ) GLOBAL_UNCERTAINTY_ASSIGNED_CONTEXT ( ( #112 ) ) GLOBAL_UNIT_ASSIGNED_CONTEXT ( ( #48, #123, #4 ) ) REPRESENTATION_CONTEXT ( 'NONE', 'WORKASPACE' ) );
#55 = DIRECTION ( 'NONE',  ( 3.768143997376471359E-17, 1.000000000000000000, -0.000000000000000000 ) ) ;
#56 = ORIENTED_EDGE ( 'NONE', *, *, #270, .F. ) ;
#57 = CIRCLE ( 'NONE', #298, 0.1249999999999999306 ) ;
#58 = COLOUR_RGB ( '',1.000000000000000000, 0.000000000000000000, 0.000000000000000000 ) ;
#59 = CARTESIAN_POINT ( 'NONE',  ( 6.123233995736766036E-17, 2.000000000000000000, 0.000000000000000000 ) ) ;
#60 = SURFACE_STYLE_USAGE ( .BOTH. , #63 ) ;
#61 = ORIENTED_EDGE ( 'NONE', *, *, #223, .T. ) ;
#62 = DIRECTION ( 'NONE',  ( -0.000000000000000000, -1.000000000000000000, -0.000000000000000000 ) ) ;
#63 = SURFACE_SIDE_STYLE ('',( #11 ) ) ;
#64 = ADVANCED_FACE ( 'NONE', ( #280 ), #167, .F. ) ;
#65 = PRODUCT_CONTEXT ( 'NONE', #116, 'mechanical' ) ;
#66 = DIRECTION ( 'NONE',  ( -0.000000000000000000, -1.000000000000000000, -0.000000000000000000 ) ) ;
#67 = CARTESIAN_POINT ( 'NONE',  ( 0.000000000000000000, 0.000000000000000000, -0.1250000000000000000 ) ) ;
#68 = CLOSED_SHELL ( 'NONE', ( #279, #253, #232, #274 ) ) ;
#69 = CIRCLE ( 'NONE', #229, 0.1250000000000000000 ) ;
#70 = FILL_AREA_STYLE_COLOUR ( '', #21 ) ;
#71 = CIRCLE ( 'NONE', #228, 0.1250000000000000000 ) ;
#72 = AXIS2_PLACEMENT_3D ( 'NONE', #77, #231, #237 ) ;
#73 =( NAMED_UNIT ( * ) PLANE_ANGLE_UNIT ( ) SI_UNIT ( $, .RADIAN. ) );
#74 =( CONVERSION_BASED_UNIT ( 'INCH', #184 ) LENGTH_UNIT ( ) NAMED_UNIT ( #224 ) );
#75 = SURFACE_STYLE_USAGE ( .BOTH. , #8 ) ;
#76 = PRODUCT ( '59836', '59836', '', ( #65 ) ) ;
#77 = CARTESIAN_POINT ( 'NONE',  ( 0.000000000000000000, 0.3750000000000000555, 0.000000000000000000 ) ) ;
#78 = DIRECTION ( 'NONE',  ( 3.768143997376471359E-17, 1.000000000000000000, -0.000000000000000000 ) ) ;
#79 = DIRECTION ( 'NONE',  ( 0.000000000000000000, 0.000000000000000000, -1.000000000000000000 ) ) ;
#80 = FILL_AREA_STYLE_COLOUR ( '', #16 ) ;
#81 = AXIS2_PLACEMENT_3D ( 'NONE', #5, #78, #104 ) ;
#82 =( GEOMETRIC_REPRESENTATION_CONTEXT ( 3 ) GLOBAL_UNCERTAINTY_ASSIGNED_CONTEXT ( ( #164 ) ) GLOBAL_UNIT_ASSIGNED_CONTEXT ( ( #153, #52, #151 ) ) REPRESENTATION_CONTEXT ( 'NONE', 'WORKASPACE' ) );
#83 = CARTESIAN_POINT ( 'NONE',  ( 8.874318240602707505E-35, 0.3750000000000000555, 0.000000000000000000 ) ) ;
#84 = EDGE_LOOP ( 'NONE', ( #36, #162 ) ) ;
#85 = PLANE ( 'NONE',  #307 ) ;
#86 = ORIENTED_EDGE ( 'NONE', *, *, #30, .F. ) ;
#87 = SURFACE_STYLE_FILL_AREA ( #217 ) ;
#88 = DIRECTION ( 'NONE',  ( 3.768143997376471359E-17, 1.000000000000000000, -0.000000000000000000 ) ) ;
#89 = CARTESIAN_POINT ( 'NONE',  ( 0.000000000000000000, 0.000000000000000000, -0.1250000000000000000 ) ) ;
#90 = ORIENTED_EDGE ( 'NONE', *, *, #105, .F. ) ;
#91 = EDGE_CURVE ( 'NONE', #137, #12, #276, .T. ) ;
#92 = MECHANICAL_DESIGN_GEOMETRIC_PRESENTATION_REPRESENTATION (  '', ( #37 ), #142 ) ;
#93 = EDGE_LOOP ( 'NONE', ( #159, #293, #201, #56 ) ) ;
#94 = CARTESIAN_POINT ( 'NONE',  ( 0.1250000000000000000, 2.000000000000000000, 0.000000000000000000 ) ) ;
#95 = CARTESIAN_POINT ( 'NONE',  ( 6.123233995736766036E-17, 2.000000000000000000, 0.000000000000000000 ) ) ;
#96 = AXIS2_PLACEMENT_3D ( 'NONE', #29, #133, #9 ) ;
#97 = EDGE_LOOP ( 'NONE', ( #90, #296, #209, #6 ) ) ;
#98 = VERTEX_POINT ( 'NONE', #22 ) ;
#99 = SURFACE_STYLE_USAGE ( .BOTH. , #240 ) ;
#100 = MECHANICAL_DESIGN_GEOMETRIC_PRESENTATION_REPRESENTATION (  '', ( #187 ), #45 ) ;
#101 =( LENGTH_UNIT ( ) NAMED_UNIT ( * ) SI_UNIT ( $, .METRE. ) );
#102 = DIRECTION ( 'NONE',  ( 3.768143997376471359E-17, 1.000000000000000000, -0.000000000000000000 ) ) ;
#103 = VERTEX_POINT ( 'NONE', #238 ) ;
#104 = DIRECTION ( 'NONE',  ( -1.000000000000000000, 0.000000000000000000, 0.000000000000000000 ) ) ;
#105 = EDGE_CURVE ( 'NONE', #275, #98, #31, .T. ) ;
#106 = MECHANICAL_DESIGN_GEOMETRIC_PRESENTATION_REPRESENTATION (  '', ( #130 ), #24 ) ;
#107 = SURFACE_SIDE_STYLE ('',( #87 ) ) ;
#108 = LINE ( 'NONE', #244, #263 ) ;
#109 = ORIENTED_EDGE ( 'NONE', *, *, #155, .F. ) ;
#110 = DIMENSIONAL_EXPONENTS ( 1.000000000000000000, 0.000000000000000000, 0.000000000000000000, 0.000000000000000000, 0.000000000000000000, 0.000000000000000000, 0.000000000000000000 ) ;
#111 = VERTEX_POINT ( 'NONE', #189 ) ;
#112 = UNCERTAINTY_MEASURE_WITH_UNIT (LENGTH_MEASURE( 1.000000000000000082E-05 ), #48, 'distance_accuracy_value', 'NONE');
#113 = FILL_AREA_STYLE_COLOUR ( '', #58 ) ;
#114 = DIMENSIONAL_EXPONENTS ( 1.000000000000000000, 0.000000000000000000, 0.000000000000000000, 0.000000000000000000, 0.000000000000000000, 0.000000000000000000, 0.000000000000000000 ) ;
#115 = PRESENTATION_LAYER_ASSIGNMENT (  '', '', ( #37 ) ) ;
#116 = APPLICATION_CONTEXT ( 'automotive_design' ) ;
#117 = UNCERTAINTY_MEASURE_WITH_UNIT (LENGTH_MEASURE( 1.000000000000000082E-05 ), #210, 'distance_accuracy_value', 'NONE');
#118 = SURFACE_SIDE_STYLE ('',( #27 ) ) ;
#119 =( GEOMETRIC_REPRESENTATION_CONTEXT ( 3 ) GLOBAL_UNCERTAINTY_ASSIGNED_CONTEXT ( ( #144 ) ) GLOBAL_UNIT_ASSIGNED_CONTEXT ( ( #227, #73, #284 ) ) REPRESENTATION_CONTEXT ( 'NONE', 'WORKASPACE' ) );
#120 = CARTESIAN_POINT ( 'NONE',  ( 0.000000000000000000, 0.000000000000000000, 0.000000000000000000 ) ) ;
#121 = DIRECTION ( 'NONE',  ( -1.000000000000000000, 0.000000000000000000, 0.000000000000000000 ) ) ;
#122 = MECHANICAL_DESIGN_GEOMETRIC_PRESENTATION_REPRESENTATION (  '', ( #306 ), #54 ) ;
#123 =( NAMED_UNIT ( * ) PLANE_ANGLE_UNIT ( ) SI_UNIT ( $, .RADIAN. ) );
#124 = MECHANICAL_DESIGN_GEOMETRIC_PRESENTATION_REPRESENTATION (  '', ( #218 ), #82 ) ;
#125 = EDGE_CURVE ( 'NONE', #12, #137, #15, .T. ) ;
#126 = CARTESIAN_POINT ( 'NONE',  ( 0.000000000000000000, 0.000000000000000000, 0.000000000000000000 ) ) ;
#127 = LINE ( 'NONE', #171, #241 ) ;
#128 = ORIENTED_EDGE ( 'NONE', *, *, #213, .F. ) ;
#129 = DIRECTION ( 'NONE',  ( -1.000000000000000000, 3.768143997376471359E-17, 0.000000000000000000 ) ) ;
#130 = STYLED_ITEM ( 'NONE', ( #200 ), #253 ) ;
#131 = EDGE_LOOP ( 'NONE', ( #235, #212, #128, #190 ) ) ;
#132 =( GEOMETRIC_REPRESENTATION_CONTEXT ( 3 ) GLOBAL_UNCERTAINTY_ASSIGNED_CONTEXT ( ( #117 ) ) GLOBAL_UNIT_ASSIGNED_CONTEXT ( ( #210, #38, #178 ) ) REPRESENTATION_CONTEXT ( 'NONE', 'WORKASPACE' ) );
#133 = DIRECTION ( 'NONE',  ( -0.000000000000000000, -1.000000000000000000, -0.000000000000000000 ) ) ;
#134 = CARTESIAN_POINT ( 'NONE',  ( 1.530808498934191509E-17, 0.000000000000000000, 0.1250000000000000000 ) ) ;
#135 = FILL_AREA_STYLE ('',( #80 ) ) ;
#136 = CARTESIAN_POINT ( 'NONE',  ( 0.1250000000000000278, 0.3749999999999999445, 1.530808498934191509E-17 ) ) ;
#137 = VERTEX_POINT ( 'NONE', #136 ) ;
#138 = AXIS2_PLACEMENT_3D ( 'NONE', #265, #55, #28 ) ;
#139 = SURFACE_STYLE_USAGE ( .BOTH. , #107 ) ;
#140 = PRODUCT_RELATED_PRODUCT_CATEGORY ( 'part', '', ( #76 ) ) ;
#141 = COLOUR_RGB ( '',0.7921568627450980005, 0.8196078431372548767, 0.9333333333333333481 ) ;
#142 =( GEOMETRIC_REPRESENTATION_CONTEXT ( 3 ) GLOBAL_UNCERTAINTY_ASSIGNED_CONTEXT ( ( #219 ) ) GLOBAL_UNIT_ASSIGNED_CONTEXT ( ( #2, #278, #20 ) ) REPRESENTATION_CONTEXT ( 'NONE', 'WORKASPACE' ) );
#143 = DIRECTION ( 'NONE',  ( -1.000000000000000000, 0.000000000000000000, 0.000000000000000000 ) ) ;
#144 = UNCERTAINTY_MEASURE_WITH_UNIT (LENGTH_MEASURE( 1.000000000000000082E-05 ), #227, 'distance_accuracy_value', 'NONE');
#145 = FILL_AREA_STYLE_COLOUR ( '', #141 ) ;
#146 = APPLICATION_PROTOCOL_DEFINITION ( 'draft international standard', 'automotive_design', 1998, #246 ) ;
#147 = SHAPE_DEFINITION_REPRESENTATION ( #262, #252 ) ;
#148 = DIRECTION ( 'NONE',  ( 3.768143997376471359E-17, 1.000000000000000000, -0.000000000000000000 ) ) ;
#149 = EDGE_CURVE ( 'NONE', #98, #233, #53, .T. ) ;
#150 = FILL_AREA_STYLE ('',( #308 ) ) ;
#151 =( NAMED_UNIT ( * ) SI_UNIT ( $, .STERADIAN. ) SOLID_ANGLE_UNIT ( ) );
#152 = CARTESIAN_POINT ( 'NONE',  ( 1.530808498934191509E-17, 0.3750000000000000555, 0.1250000000000000000 ) ) ;
#153 =( CONVERSION_BASED_UNIT ( 'INCH', #206 ) LENGTH_UNIT ( ) NAMED_UNIT ( #110 ) );
#154 = VECTOR ( 'NONE', #196, 39.37007874015748143 ) ;
#155 = EDGE_CURVE ( 'NONE', #137, #111, #108, .T. ) ;
#156 = DIRECTION ( 'NONE',  ( -1.000000000000000000, 0.000000000000000000, 0.000000000000000000 ) ) ;
#157 =( NAMED_UNIT ( * ) PLANE_ANGLE_UNIT ( ) SI_UNIT ( $, .RADIAN. ) );
#158 =( LENGTH_UNIT ( ) NAMED_UNIT ( * ) SI_UNIT ( $, .METRE. ) );
#159 = ORIENTED_EDGE ( 'NONE', *, *, #250, .T. ) ;
#160 = EDGE_LOOP ( 'NONE', ( #109, #255, #61, #86 ) ) ;
#161 = SURFACE_STYLE_FILL_AREA ( #266 ) ;
#162 = ORIENTED_EDGE ( 'NONE', *, *, #91, .F. ) ;
#163 = AXIS2_PLACEMENT_3D ( 'NONE', #291, #242, #79 ) ;
#164 = UNCERTAINTY_MEASURE_WITH_UNIT (LENGTH_MEASURE( 1.000000000000000082E-05 ), #153, 'distance_accuracy_value', 'NONE');
#165 = ORIENTED_EDGE ( 'NONE', *, *, #30, .T. ) ;
#166 = FILL_AREA_STYLE ('',( #70 ) ) ;
#167 = PLANE ( 'NONE',  #35 ) ;
#168 = LENGTH_MEASURE_WITH_UNIT ( LENGTH_MEASURE( 0.02539999999999999897 ), #1 );
#169 = PRESENTATION_LAYER_ASSIGNMENT (  '', '', ( #193 ) ) ;
#170 = DIRECTION ( 'NONE',  ( 0.000000000000000000, -1.000000000000000000, -0.000000000000000000 ) ) ;
#171 = CARTESIAN_POINT ( 'NONE',  ( -0.1249999999999999029, 2.000000000000000000, 0.000000000000000000 ) ) ;
#172 = VERTEX_POINT ( 'NONE', #251 ) ;
#173 = DIRECTION ( 'NONE',  ( 3.768143997376471359E-17, 1.000000000000000000, -0.000000000000000000 ) ) ;
#174 =( LENGTH_UNIT ( ) NAMED_UNIT ( * ) SI_UNIT ( $, .METRE. ) );
#175 = FILL_AREA_STYLE_COLOUR ( '', #50 ) ;
#176 = SURFACE_SIDE_STYLE ('',( #216 ) ) ;
#177 = EDGE_LOOP ( 'NONE', ( #309, #165 ) ) ;
#178 =( NAMED_UNIT ( * ) SI_UNIT ( $, .STERADIAN. ) SOLID_ANGLE_UNIT ( ) );
#179 = DIMENSIONAL_EXPONENTS ( 1.000000000000000000, 0.000000000000000000, 0.000000000000000000, 0.000000000000000000, 0.000000000000000000, 0.000000000000000000, 0.000000000000000000 ) ;
#180 = DIRECTION ( 'NONE',  ( 0.000000000000000000, 1.000000000000000000, 0.000000000000000000 ) ) ;
#181 = EDGE_LOOP ( 'NONE', ( #299, #34 ) ) ;
#182 = DIRECTION ( 'NONE',  ( -3.768143997376471359E-17, -1.000000000000000000, 0.000000000000000000 ) ) ;
#183 = AXIS2_PLACEMENT_3D ( 'NONE', #83, #173, #129 ) ;
#184 = LENGTH_MEASURE_WITH_UNIT ( LENGTH_MEASURE( 0.02539999999999999897 ), #158 );
#185 = CYLINDRICAL_SURFACE ( 'NONE', #7, 0.1250000000000000000 ) ;
#186 = DIRECTION ( 'NONE',  ( 0.000000000000000000, 0.000000000000000000, -1.000000000000000000 ) ) ;
#187 = STYLED_ITEM ( 'NONE', ( #285 ), #292 ) ;
#188 = PRODUCT_DEFINITION_FORMATION_WITH_SPECIFIED_SOURCE ( 'ANY', '', #76, .NOT_KNOWN. ) ;
#189 = CARTESIAN_POINT ( 'NONE',  ( 0.1250000000000000278, 2.000000000000000000, 1.530808498934191509E-17 ) ) ;
#190 = ORIENTED_EDGE ( 'NONE', *, *, #223, .F. ) ;
#191 = MANIFOLD_SOLID_BREP ( 'Revolve - Cutting Edge', #68 ) ;
#192 = ADVANCED_FACE ( 'NONE', ( #288 ), #42, .F. ) ;
#193 = STYLED_ITEM ( 'NONE', ( #303 ), #279 ) ;
#194 = CYLINDRICAL_SURFACE ( 'NONE', #248, 0.1249999999999999584 ) ;
#195 = PLANE ( 'NONE',  #268 ) ;
#196 = DIRECTION ( 'NONE',  ( -0.000000000000000000, -1.000000000000000000, -0.000000000000000000 ) ) ;
#197 = DIRECTION ( 'NONE',  ( 0.000000000000000000, 0.000000000000000000, -1.000000000000000000 ) ) ;
#198 =( NAMED_UNIT ( * ) PLANE_ANGLE_UNIT ( ) SI_UNIT ( $, .RADIAN. ) );
#199 = DIMENSIONAL_EXPONENTS ( 1.000000000000000000, 0.000000000000000000, 0.000000000000000000, 0.000000000000000000, 0.000000000000000000, 0.000000000000000000, 0.000000000000000000 ) ;
#200 = PRESENTATION_STYLE_ASSIGNMENT (( #139 ) ) ;
#201 = ORIENTED_EDGE ( 'NONE', *, *, #44, .F. ) ;
#202 = UNCERTAINTY_MEASURE_WITH_UNIT (LENGTH_MEASURE( 1.000000000000000082E-05 ), #74, 'distance_accuracy_value', 'NONE');
#203 = MECHANICAL_DESIGN_GEOMETRIC_PRESENTATION_REPRESENTATION (  '', ( #193 ), #119 ) ;
#204 = PRESENTATION_LAYER_ASSIGNMENT (  '', '', ( #130 ) ) ;
#205 = FACE_OUTER_BOUND ( 'NONE', #93, .T. ) ;
#206 = LENGTH_MEASURE_WITH_UNIT ( LENGTH_MEASURE( 0.02539999999999999897 ), #3 );
#207 = VECTOR ( 'NONE', #222, 39.37007874015748143 ) ;
#208 = SURFACE_STYLE_FILL_AREA ( #135 ) ;
#209 = ORIENTED_EDGE ( 'NONE', *, *, #270, .T. ) ;
#210 =( CONVERSION_BASED_UNIT ( 'INCH', #234 ) LENGTH_UNIT ( ) NAMED_UNIT ( #17 ) );
#211 = FILL_AREA_STYLE ('',( #145 ) ) ;
#212 = ORIENTED_EDGE ( 'NONE', *, *, #155, .T. ) ;
#213 = EDGE_CURVE ( 'NONE', #172, #111, #282, .T. ) ;
#214 = LENGTH_MEASURE_WITH_UNIT ( LENGTH_MEASURE( 0.02539999999999999897 ), #243 );
#215 = DIRECTION ( 'NONE',  ( 3.768143997376471359E-17, 1.000000000000000000, -0.000000000000000000 ) ) ;
#216 = SURFACE_STYLE_FILL_AREA ( #166 ) ;
#217 = FILL_AREA_STYLE ('',( #113 ) ) ;
#218 = STYLED_ITEM ( 'NONE', ( #283 ), #232 ) ;
#219 = UNCERTAINTY_MEASURE_WITH_UNIT (LENGTH_MEASURE( 1.000000000000000082E-05 ), #2, 'distance_accuracy_value', 'NONE');
#220 = DIRECTION ( 'NONE',  ( 1.000000000000000000, 0.000000000000000000, 0.000000000000000000 ) ) ;
#221 = EDGE_CURVE ( 'NONE', #275, #103, #254, .T. ) ;
#222 = DIRECTION ( 'NONE',  ( -0.000000000000000000, -1.000000000000000000, -0.000000000000000000 ) ) ;
#223 = EDGE_CURVE ( 'NONE', #12, #172, #127, .T. ) ;
#224 = DIMENSIONAL_EXPONENTS ( 1.000000000000000000, 0.000000000000000000, 0.000000000000000000, 0.000000000000000000, 0.000000000000000000, 0.000000000000000000, 0.000000000000000000 ) ;
#225 = PRESENTATION_LAYER_ASSIGNMENT (  '', '', ( #187 ) ) ;
#226 = DIRECTION ( 'NONE',  ( -0.000000000000000000, -1.000000000000000000, -0.000000000000000000 ) ) ;
#227 =( CONVERSION_BASED_UNIT ( 'INCH', #168 ) LENGTH_UNIT ( ) NAMED_UNIT ( #290 ) );
#228 = AXIS2_PLACEMENT_3D ( 'NONE', #120, #226, #186 ) ;
#229 = AXIS2_PLACEMENT_3D ( 'NONE', #245, #62, #197 ) ;
#230 = DIRECTION ( 'NONE',  ( -1.000000000000000000, 0.000000000000000000, 0.000000000000000000 ) ) ;
#231 = DIRECTION ( 'NONE',  ( -0.000000000000000000, -1.000000000000000000, -0.000000000000000000 ) ) ;
#232 = ADVANCED_FACE ( 'NONE', ( #33 ), #185, .T. ) ;
#233 = VERTEX_POINT ( 'NONE', #89 ) ;
#234 = LENGTH_MEASURE_WITH_UNIT ( LENGTH_MEASURE( 0.02539999999999999897 ), #174 );
#235 = ORIENTED_EDGE ( 'NONE', *, *, #125, .T. ) ;
#236 = FACE_OUTER_BOUND ( 'NONE', #131, .T. ) ;
#237 = DIRECTION ( 'NONE',  ( 0.000000000000000000, 0.000000000000000000, -1.000000000000000000 ) ) ;
#238 = CARTESIAN_POINT ( 'NONE',  ( 0.000000000000000000, 0.3750000000000000555, -0.1250000000000000000 ) ) ;
#239 =( NAMED_UNIT ( * ) SI_UNIT ( $, .STERADIAN. ) SOLID_ANGLE_UNIT ( ) );
#240 = SURFACE_SIDE_STYLE ('',( #161 ) ) ;
#241 = VECTOR ( 'NONE', #261, 39.37007874015748143 ) ;
#242 = DIRECTION ( 'NONE',  ( -0.000000000000000000, -1.000000000000000000, -0.000000000000000000 ) ) ;
#243 =( LENGTH_UNIT ( ) NAMED_UNIT ( * ) SI_UNIT ( $, .METRE. ) );
#244 = CARTESIAN_POINT ( 'NONE',  ( 0.1250000000000000278, 2.000000000000000000, 1.530808498934191201E-17 ) ) ;
#245 = CARTESIAN_POINT ( 'NONE',  ( 0.000000000000000000, 0.3750000000000000555, 0.000000000000000000 ) ) ;
#246 = APPLICATION_CONTEXT ( 'automotive_design' ) ;
#247 = PRESENTATION_LAYER_ASSIGNMENT (  '', '', ( #306 ) ) ;
#248 = AXIS2_PLACEMENT_3D ( 'NONE', #300, #88, #143 ) ;
#249 = DIRECTION ( 'NONE',  ( 0.000000000000000000, 0.000000000000000000, -1.000000000000000000 ) ) ;
#250 = EDGE_CURVE ( 'NONE', #103, #275, #69, .T. ) ;
#251 = CARTESIAN_POINT ( 'NONE',  ( -0.1249999999999998612, 2.000000000000000000, 0.000000000000000000 ) ) ;
#252 = ADVANCED_BREP_SHAPE_REPRESENTATION ( '59836', ( #191, #292, #272 ), #132 ) ;
#253 = ADVANCED_FACE ( 'NONE', ( #267 ), #195, .T. ) ;
#254 = CIRCLE ( 'NONE', #72, 0.1250000000000000000 ) ;
#255 = ORIENTED_EDGE ( 'NONE', *, *, #91, .T. ) ;
#256 = DIRECTION ( 'NONE',  ( 1.000000000000000000, -3.768143997376471359E-17, 0.000000000000000000 ) ) ;
#257 = CARTESIAN_POINT ( 'NONE',  ( -0.1250000000000000000, 0.3749999999999999445, 0.000000000000000000 ) ) ;
#258 = CLOSED_SHELL ( 'NONE', ( #286, #192, #304, #64 ) ) ;
#259 = PRESENTATION_LAYER_ASSIGNMENT (  '', '', ( #218 ) ) ;
#260 = DIRECTION ( 'NONE',  ( 0.000000000000000000, 0.000000000000000000, -1.000000000000000000 ) ) ;
#261 = DIRECTION ( 'NONE',  ( 3.768143997376471359E-17, 1.000000000000000000, -0.000000000000000000 ) ) ;
#262 = PRODUCT_DEFINITION_SHAPE ( 'NONE', 'NONE',  #47 ) ;
#263 = VECTOR ( 'NONE', #215, 39.37007874015748143 ) ;
#264 = COLOUR_RGB ( '',1.000000000000000000, 0.000000000000000000, 0.000000000000000000 ) ;
#265 = CARTESIAN_POINT ( 'NONE',  ( 6.123233995736766036E-17, 2.000000000000000000, 0.000000000000000000 ) ) ;
#266 = FILL_AREA_STYLE ('',( #175 ) ) ;
#267 = FACE_OUTER_BOUND ( 'NONE', #181, .T. ) ;
#268 = AXIS2_PLACEMENT_3D ( 'NONE', #302, #180, #271 ) ;
#269 = SURFACE_STYLE_USAGE ( .BOTH. , #176 ) ;
#270 = EDGE_CURVE ( 'NONE', #103, #233, #294, .T. ) ;
#271 = DIRECTION ( 'NONE',  ( 0.000000000000000000, -0.000000000000000000, 1.000000000000000000 ) ) ;
#272 = AXIS2_PLACEMENT_3D ( 'NONE', #43, #273, #220 ) ;
#273 = DIRECTION ( 'NONE',  ( 0.000000000000000000, 0.000000000000000000, 1.000000000000000000 ) ) ;
#274 = ADVANCED_FACE ( 'NONE', ( #289 ), #85, .T. ) ;
#275 = VERTEX_POINT ( 'NONE', #152 ) ;
#276 = CIRCLE ( 'NONE', #23, 0.1250000000000000000 ) ;
#277 = AXIS2_PLACEMENT_3D ( 'NONE', #59, #102, #156 ) ;
#278 =( NAMED_UNIT ( * ) PLANE_ANGLE_UNIT ( ) SI_UNIT ( $, .RADIAN. ) );
#279 = ADVANCED_FACE ( 'NONE', ( #205 ), #26, .T. ) ;
#280 = FACE_OUTER_BOUND ( 'NONE', #177, .T. ) ;
#281 = LENGTH_MEASURE_WITH_UNIT ( LENGTH_MEASURE( 0.02539999999999999897 ), #101 );
#282 = CIRCLE ( 'NONE', #138, 0.1249999999999999306 ) ;
#283 = PRESENTATION_STYLE_ASSIGNMENT (( #75 ) ) ;
#284 =( NAMED_UNIT ( * ) SI_UNIT ( $, .STERADIAN. ) SOLID_ANGLE_UNIT ( ) );
#285 = PRESENTATION_STYLE_ASSIGNMENT (( #269 ) ) ;
#286 = ADVANCED_FACE ( 'NONE', ( #236 ), #194, .T. ) ;
#287 = ORIENTED_EDGE ( 'NONE', *, *, #149, .T. ) ;
#288 = FACE_OUTER_BOUND ( 'NONE', #84, .T. ) ;
#289 = FACE_OUTER_BOUND ( 'NONE', #305, .T. ) ;
#290 = DIMENSIONAL_EXPONENTS ( 1.000000000000000000, 0.000000000000000000, 0.000000000000000000, 0.000000000000000000, 0.000000000000000000, 0.000000000000000000, 0.000000000000000000 ) ;
#291 = CARTESIAN_POINT ( 'NONE',  ( 0.000000000000000000, 0.000000000000000000, 0.000000000000000000 ) ) ;
#292 = MANIFOLD_SOLID_BREP ( 'Revolve - Tool Body (Straight Shanked)', #258 ) ;
#293 = ORIENTED_EDGE ( 'NONE', *, *, #105, .T. ) ;
#294 = LINE ( 'NONE', #67, #207 ) ;
#295 = UNCERTAINTY_MEASURE_WITH_UNIT (LENGTH_MEASURE( 1.000000000000000082E-05 ), #14, 'distance_accuracy_value', 'NONE');
#296 = ORIENTED_EDGE ( 'NONE', *, *, #221, .T. ) ;
#297 =( NAMED_UNIT ( * ) SI_UNIT ( $, .STERADIAN. ) SOLID_ANGLE_UNIT ( ) );
#298 = AXIS2_PLACEMENT_3D ( 'NONE', #95, #49, #230 ) ;
#299 = ORIENTED_EDGE ( 'NONE', *, *, #250, .F. ) ;
#300 = CARTESIAN_POINT ( 'NONE',  ( 6.123233995736766036E-17, 2.000000000000000000, 0.000000000000000000 ) ) ;
#301 = PRODUCT_DEFINITION_CONTEXT ( 'detailed design', #246, 'design' ) ;
#302 = CARTESIAN_POINT ( 'NONE',  ( 0.000000000000000000, 0.3750000000000000555, 0.000000000000000000 ) ) ;
#303 = PRESENTATION_STYLE_ASSIGNMENT (( #25 ) ) ;
#304 = ADVANCED_FACE ( 'NONE', ( #32 ), #19, .T. ) ;
#305 = EDGE_LOOP ( 'NONE', ( #10, #287 ) ) ;
#306 = STYLED_ITEM ( 'NONE', ( #13 ), #191 ) ;
#307 = AXIS2_PLACEMENT_3D ( 'NONE', #126, #170, #260 ) ;
#308 = FILL_AREA_STYLE_COLOUR ( '', #264 ) ;
#309 = ORIENTED_EDGE ( 'NONE', *, *, #213, .T. ) ;
ENDSEC;
END-ISO-10303-21;
