ISO-10303-21;
HEADER;
FILE_DESCRIPTION (( 'STEP AP214' ),
    '1' );
FILE_NAME ('82263W.STEP',
    '2023-06-23T04:38:47',
    ( '' ),
    ( '' ),
    'SwSTEP 2.0',
    'SolidWorks 2023',
    '' );
FILE_SCHEMA (( 'AUTOMOTIVE_DESIGN' ));
ENDSEC;

DATA;
#1 =( LENGTH_UNIT ( ) NAMED_UNIT ( * ) SI_UNIT ( $, .METRE. ) );
#2 = CIRCLE ( 'NONE', #257, 0.1250000000000000000 ) ;
#3 = CARTESIAN_POINT ( 'NONE',  ( 0.000000000000000000, 0.5000000000000000000, -0.1250000000000000000 ) ) ;
#4 = PRODUCT_DEFINITION ( 'UNKNOWN', '', #262, #294 ) ;
#5 = UNCERTAINTY_MEASURE_WITH_UNIT (LENGTH_MEASURE( 1.000000000000000082E-05 ), #216, 'distance_accuracy_value', 'NONE');
#6 = FILL_AREA_STYLE_COLOUR ( '', #27 ) ;
#7 = COLOUR_RGB ( '',1.000000000000000000, 0.000000000000000000, 0.000000000000000000 ) ;
#8 = PRESENTATION_LAYER_ASSIGNMENT (  '', '', ( #112 ) ) ;
#9 = EDGE_LOOP ( 'NONE', ( #109, #197 ) ) ;
#10 = EDGE_LOOP ( 'NONE', ( #169, #57, #145, #63 ) ) ;
#11 = SURFACE_STYLE_USAGE ( .BOTH. , #171 ) ;
#12 =( GEOMETRIC_REPRESENTATION_CONTEXT ( 3 ) GLOBAL_UNCERTAINTY_ASSIGNED_CONTEXT ( ( #212 ) ) GLOBAL_UNIT_ASSIGNED_CONTEXT ( ( #220, #126, #172 ) ) REPRESENTATION_CONTEXT ( 'NONE', 'WORKASPACE' ) );
#13 = DIMENSIONAL_EXPONENTS ( 1.000000000000000000, 0.000000000000000000, 0.000000000000000000, 0.000000000000000000, 0.000000000000000000, 0.000000000000000000, 0.000000000000000000 ) ;
#14 = FILL_AREA_STYLE ('',( #40 ) ) ;
#15 = CARTESIAN_POINT ( 'NONE',  ( 0.000000000000000000, 0.000000000000000000, 0.000000000000000000 ) ) ;
#16 =( NAMED_UNIT ( * ) SI_UNIT ( $, .STERADIAN. ) SOLID_ANGLE_UNIT ( ) );
#17 = CYLINDRICAL_SURFACE ( 'NONE', #106, 0.1250000000000000278 ) ;
#18 = AXIS2_PLACEMENT_3D ( 'NONE', #308, #263, #21 ) ;
#19 = CARTESIAN_POINT ( 'NONE',  ( 0.000000000000000000, 0.5000000000000001110, 0.000000000000000000 ) ) ;
#20 = CARTESIAN_POINT ( 'NONE',  ( 0.000000000000000000, 0.5000000000000000000, 0.000000000000000000 ) ) ;
#21 = DIRECTION ( 'NONE',  ( 1.000000000000000000, 3.061616997868386099E-17, 0.000000000000000000 ) ) ;
#22 = VECTOR ( 'NONE', #131, 39.37007874015748143 ) ;
#23 = AXIS2_PLACEMENT_3D ( 'NONE', #208, #240, #120 ) ;
#24 = DIRECTION ( 'NONE',  ( -1.000000000000000000, 0.000000000000000000, 0.000000000000000000 ) ) ;
#25 = EDGE_LOOP ( 'NONE', ( #242, #245 ) ) ;
#26 = PRESENTATION_STYLE_ASSIGNMENT (( #264 ) ) ;
#27 = COLOUR_RGB ( '',0.7921568627450980005, 0.8196078431372548767, 0.9333333333333333481 ) ;
#28 = CARTESIAN_POINT ( 'NONE',  ( -0.1250000000000000000, 0.5000000000000001110, 0.000000000000000000 ) ) ;
#29 = VERTEX_POINT ( 'NONE', #165 ) ;
#30 =( NAMED_UNIT ( * ) PLANE_ANGLE_UNIT ( ) SI_UNIT ( $, .RADIAN. ) );
#31 = COLOUR_RGB ( '',1.000000000000000000, 0.000000000000000000, 0.000000000000000000 ) ;
#32 = VERTEX_POINT ( 'NONE', #124 ) ;
#33 = ADVANCED_FACE ( 'NONE', ( #104 ), #170, .T. ) ;
#34 = DIMENSIONAL_EXPONENTS ( 1.000000000000000000, 0.000000000000000000, 0.000000000000000000, 0.000000000000000000, 0.000000000000000000, 0.000000000000000000, 0.000000000000000000 ) ;
#35 = ORIENTED_EDGE ( 'NONE', *, *, #47, .F. ) ;
#36 = ADVANCED_FACE ( 'NONE', ( #94 ), #91, .T. ) ;
#37 = SURFACE_STYLE_USAGE ( .BOTH. , #195 ) ;
#38 = PRODUCT_RELATED_PRODUCT_CATEGORY ( 'part', '', ( #45 ) ) ;
#39 = AXIS2_PLACEMENT_3D ( 'NONE', #214, #198, #298 ) ;
#40 = FILL_AREA_STYLE_COLOUR ( '', #31 ) ;
#41 = SURFACE_STYLE_USAGE ( .BOTH. , #151 ) ;
#42 = DIMENSIONAL_EXPONENTS ( 1.000000000000000000, 0.000000000000000000, 0.000000000000000000, 0.000000000000000000, 0.000000000000000000, 0.000000000000000000, 0.000000000000000000 ) ;
#43 = DIRECTION ( 'NONE',  ( -0.000000000000000000, -1.000000000000000000, -0.000000000000000000 ) ) ;
#44 = PLANE ( 'NONE',  #217 ) ;
#45 = PRODUCT ( '82263W', '82263W', '', ( #146 ) ) ;
#46 =( LENGTH_UNIT ( ) NAMED_UNIT ( * ) SI_UNIT ( $, .METRE. ) );
#47 = EDGE_CURVE ( 'NONE', #32, #29, #2, .T. ) ;
#48 = CARTESIAN_POINT ( 'NONE',  ( 0.000000000000000000, 0.000000000000000000, -0.1250000000000000000 ) ) ;
#49 = CARTESIAN_POINT ( 'NONE',  ( 0.1250000000000000278, 2.500000000000000000, 1.530808498934192125E-17 ) ) ;
#50 =( CONVERSION_BASED_UNIT ( 'INCH', #114 ) LENGTH_UNIT ( ) NAMED_UNIT ( #13 ) );
#51 = DIRECTION ( 'NONE',  ( -1.000000000000000000, -3.061616997868386099E-17, 0.000000000000000000 ) ) ;
#52 = CARTESIAN_POINT ( 'NONE',  ( 0.000000000000000000, 0.5000000000000001110, 0.000000000000000000 ) ) ;
#53 = MECHANICAL_DESIGN_GEOMETRIC_PRESENTATION_REPRESENTATION (  '', ( #90 ), #250 ) ;
#54 = EDGE_LOOP ( 'NONE', ( #59, #167, #190, #241 ) ) ;
#55 = VECTOR ( 'NONE', #202, 39.37007874015748143 ) ;
#56 =( NAMED_UNIT ( * ) SI_UNIT ( $, .STERADIAN. ) SOLID_ANGLE_UNIT ( ) );
#57 = ORIENTED_EDGE ( 'NONE', *, *, #221, .T. ) ;
#58 = LENGTH_MEASURE_WITH_UNIT ( LENGTH_MEASURE( 0.02539999999999999897 ), #1 );
#59 = ORIENTED_EDGE ( 'NONE', *, *, #141, .F. ) ;
#60 = DIMENSIONAL_EXPONENTS ( 1.000000000000000000, 0.000000000000000000, 0.000000000000000000, 0.000000000000000000, 0.000000000000000000, 0.000000000000000000, 0.000000000000000000 ) ;
#61 = UNCERTAINTY_MEASURE_WITH_UNIT (LENGTH_MEASURE( 1.000000000000000082E-05 ), #273, 'distance_accuracy_value', 'NONE');
#62 = ORIENTED_EDGE ( 'NONE', *, *, #141, .T. ) ;
#63 = ORIENTED_EDGE ( 'NONE', *, *, #187, .F. ) ;
#64 =( LENGTH_UNIT ( ) NAMED_UNIT ( * ) SI_UNIT ( $, .METRE. ) );
#65 = FACE_OUTER_BOUND ( 'NONE', #139, .T. ) ;
#66 = APPLICATION_PROTOCOL_DEFINITION ( 'draft international standard', 'automotive_design', 1998, #218 ) ;
#67 = DIMENSIONAL_EXPONENTS ( 1.000000000000000000, 0.000000000000000000, 0.000000000000000000, 0.000000000000000000, 0.000000000000000000, 0.000000000000000000, 0.000000000000000000 ) ;
#68 = STYLED_ITEM ( 'NONE', ( #284 ), #193 ) ;
#69 = AXIS2_PLACEMENT_3D ( 'NONE', #279, #160, #227 ) ;
#70 = PLANE ( 'NONE',  #251 ) ;
#71 = ADVANCED_FACE ( 'NONE', ( #178 ), #303, .T. ) ;
#72 = PLANE ( 'NONE',  #18 ) ;
#73 = DIRECTION ( 'NONE',  ( -0.000000000000000000, -1.000000000000000000, -0.000000000000000000 ) ) ;
#74 = SURFACE_SIDE_STYLE ('',( #97 ) ) ;
#75 = DIRECTION ( 'NONE',  ( 0.000000000000000000, -0.000000000000000000, 1.000000000000000000 ) ) ;
#76 =( GEOMETRIC_REPRESENTATION_CONTEXT ( 3 ) GLOBAL_UNCERTAINTY_ASSIGNED_CONTEXT ( ( #80 ) ) GLOBAL_UNIT_ASSIGNED_CONTEXT ( ( #88, #155, #16 ) ) REPRESENTATION_CONTEXT ( 'NONE', 'WORKASPACE' ) );
#77 = CARTESIAN_POINT ( 'NONE',  ( -0.1250000000000001388, 2.500000000000000000, 0.000000000000000000 ) ) ;
#78 = SURFACE_STYLE_USAGE ( .BOTH. , #259 ) ;
#79 = ADVANCED_BREP_SHAPE_REPRESENTATION ( '82263W', ( #136, #235, #186 ), #261 ) ;
#80 = UNCERTAINTY_MEASURE_WITH_UNIT (LENGTH_MEASURE( 1.000000000000000082E-05 ), #88, 'distance_accuracy_value', 'NONE');
#81 = ORIENTED_EDGE ( 'NONE', *, *, #101, .T. ) ;
#82 = EDGE_CURVE ( 'NONE', #173, #105, #297, .T. ) ;
#83 = EDGE_LOOP ( 'NONE', ( #276, #292, #148, #288 ) ) ;
#84 =( CONVERSION_BASED_UNIT ( 'INCH', #296 ) LENGTH_UNIT ( ) NAMED_UNIT ( #67 ) );
#85 =( LENGTH_UNIT ( ) NAMED_UNIT ( * ) SI_UNIT ( $, .METRE. ) );
#86 = FILL_AREA_STYLE ('',( #295 ) ) ;
#87 = LINE ( 'NONE', #174, #55 ) ;
#88 =( CONVERSION_BASED_UNIT ( 'INCH', #130 ) LENGTH_UNIT ( ) NAMED_UNIT ( #42 ) );
#89 = PRESENTATION_STYLE_ASSIGNMENT (( #157 ) ) ;
#90 = STYLED_ITEM ( 'NONE', ( #89 ), #71 ) ;
#91 = PLANE ( 'NONE',  #134 ) ;
#92 = AXIS2_PLACEMENT_3D ( 'NONE', #20, #213, #248 ) ;
#93 = ADVANCED_FACE ( 'NONE', ( #65 ), #72, .F. ) ;
#94 = FACE_OUTER_BOUND ( 'NONE', #9, .T. ) ;
#95 = LINE ( 'NONE', #183, #108 ) ;
#96 = EDGE_CURVE ( 'NONE', #105, #173, #309, .T. ) ;
#97 = SURFACE_STYLE_FILL_AREA ( #207 ) ;
#98 = CARTESIAN_POINT ( 'NONE',  ( 5.858436651022893041E-35, 0.5000000000000000000, 0.000000000000000000 ) ) ;
#99 = COLOUR_RGB ( '',1.000000000000000000, 0.000000000000000000, 0.000000000000000000 ) ;
#100 =( LENGTH_UNIT ( ) NAMED_UNIT ( * ) SI_UNIT ( $, .METRE. ) );
#101 = EDGE_CURVE ( 'NONE', #119, #150, #159, .T. ) ;
#102 = STYLED_ITEM ( 'NONE', ( #127 ), #33 ) ;
#103 = ADVANCED_FACE ( 'NONE', ( #277 ), #238, .T. ) ;
#104 = FACE_OUTER_BOUND ( 'NONE', #222, .T. ) ;
#105 = VERTEX_POINT ( 'NONE', #28 ) ;
#106 = AXIS2_PLACEMENT_3D ( 'NONE', #116, #206, #306 ) ;
#107 = AXIS2_PLACEMENT_3D ( 'NONE', #182, #73, #161 ) ;
#108 = VECTOR ( 'NONE', #158, 39.37007874015748143 ) ;
#109 = ORIENTED_EDGE ( 'NONE', *, *, #47, .T. ) ;
#110 = SURFACE_STYLE_FILL_AREA ( #267 ) ;
#111 = EDGE_LOOP ( 'NONE', ( #247, #272 ) ) ;
#112 = STYLED_ITEM ( 'NONE', ( #122 ), #235 ) ;
#113 = DIRECTION ( 'NONE',  ( -3.061616997868386099E-17, 1.000000000000000000, -0.000000000000000000 ) ) ;
#114 = LENGTH_MEASURE_WITH_UNIT ( LENGTH_MEASURE( 0.02539999999999999897 ), #100 );
#115 = DIRECTION ( 'NONE',  ( 0.000000000000000000, 1.000000000000000000, 0.000000000000000000 ) ) ;
#116 = CARTESIAN_POINT ( 'NONE',  ( -6.123233995736772199E-17, 2.500000000000000000, 0.000000000000000000 ) ) ;
#117 = SURFACE_STYLE_FILL_AREA ( #209 ) ;
#118 = AXIS2_PLACEMENT_3D ( 'NONE', #229, #281, #175 ) ;
#119 = VERTEX_POINT ( 'NONE', #49 ) ;
#120 = DIRECTION ( 'NONE',  ( -1.000000000000000000, 0.000000000000000000, 0.000000000000000000 ) ) ;
#121 = ORIENTED_EDGE ( 'NONE', *, *, #144, .T. ) ;
#122 = PRESENTATION_STYLE_ASSIGNMENT (( #11 ) ) ;
#123 = CLOSED_SHELL ( 'NONE', ( #103, #188, #196, #93 ) ) ;
#124 = CARTESIAN_POINT ( 'NONE',  ( 0.000000000000000000, 0.000000000000000000, -0.1250000000000000000 ) ) ;
#125 = VERTEX_POINT ( 'NONE', #3 ) ;
#126 =( NAMED_UNIT ( * ) PLANE_ANGLE_UNIT ( ) SI_UNIT ( $, .RADIAN. ) );
#127 = PRESENTATION_STYLE_ASSIGNMENT (( #37 ) ) ;
#128 = APPLICATION_PROTOCOL_DEFINITION ( 'draft international standard', 'automotive_design', 1998, #236 ) ;
#129 = MECHANICAL_DESIGN_GEOMETRIC_PRESENTATION_REPRESENTATION (  '', ( #68 ), #180 ) ;
#130 = LENGTH_MEASURE_WITH_UNIT ( LENGTH_MEASURE( 0.02539999999999999897 ), #132 );
#131 = DIRECTION ( 'NONE',  ( -0.000000000000000000, -1.000000000000000000, -0.000000000000000000 ) ) ;
#132 =( LENGTH_UNIT ( ) NAMED_UNIT ( * ) SI_UNIT ( $, .METRE. ) );
#133 = DIRECTION ( 'NONE',  ( -3.061616997868386099E-17, 1.000000000000000000, -0.000000000000000000 ) ) ;
#134 = AXIS2_PLACEMENT_3D ( 'NONE', #15, #282, #254 ) ;
#135 = FACE_OUTER_BOUND ( 'NONE', #25, .T. ) ;
#136 = MANIFOLD_SOLID_BREP ( 'Revolve - Cutting Edge', #286 ) ;
#137 = EDGE_CURVE ( 'NONE', #125, #142, #185, .T. ) ;
#138 = AXIS2_PLACEMENT_3D ( 'NONE', #239, #274, #252 ) ;
#139 = EDGE_LOOP ( 'NONE', ( #121, #81 ) ) ;
#140 = PRODUCT_DEFINITION_SHAPE ( 'NONE', 'NONE',  #4 ) ;
#141 = EDGE_CURVE ( 'NONE', #142, #29, #87, .T. ) ;
#142 = VERTEX_POINT ( 'NONE', #177 ) ;
#143 = DIRECTION ( 'NONE',  ( 1.000000000000000000, 0.000000000000000000, 0.000000000000000000 ) ) ;
#144 = EDGE_CURVE ( 'NONE', #150, #119, #224, .T. ) ;
#145 = ORIENTED_EDGE ( 'NONE', *, *, #144, .F. ) ;
#146 = PRODUCT_CONTEXT ( 'NONE', #218, 'mechanical' ) ;
#147 = AXIS2_PLACEMENT_3D ( 'NONE', #228, #133, #149 ) ;
#148 = ORIENTED_EDGE ( 'NONE', *, *, #187, .T. ) ;
#149 = DIRECTION ( 'NONE',  ( -1.000000000000000000, 0.000000000000000000, 0.000000000000000000 ) ) ;
#150 = VERTEX_POINT ( 'NONE', #77 ) ;
#151 = SURFACE_SIDE_STYLE ('',( #203 ) ) ;
#152 = PRESENTATION_LAYER_ASSIGNMENT (  '', '', ( #90 ) ) ;
#153 = LENGTH_MEASURE_WITH_UNIT ( LENGTH_MEASURE( 0.02539999999999999897 ), #46 );
#154 = CARTESIAN_POINT ( 'NONE',  ( 0.000000000000000000, 0.5000000000000000000, 0.000000000000000000 ) ) ;
#155 =( NAMED_UNIT ( * ) PLANE_ANGLE_UNIT ( ) SI_UNIT ( $, .RADIAN. ) );
#156 = LINE ( 'NONE', #48, #22 ) ;
#157 = SURFACE_STYLE_USAGE ( .BOTH. , #74 ) ;
#158 = DIRECTION ( 'NONE',  ( -3.061616997868386099E-17, 1.000000000000000000, -0.000000000000000000 ) ) ;
#159 = CIRCLE ( 'NONE', #147, 0.1250000000000000555 ) ;
#160 = DIRECTION ( 'NONE',  ( -3.061616997868386099E-17, 1.000000000000000000, -0.000000000000000000 ) ) ;
#161 = DIRECTION ( 'NONE',  ( 0.000000000000000000, 0.000000000000000000, -1.000000000000000000 ) ) ;
#162 = STYLED_ITEM ( 'NONE', ( #249 ), #36 ) ;
#163 = CIRCLE ( 'NONE', #92, 0.1250000000000000000 ) ;
#164 = EDGE_CURVE ( 'NONE', #29, #32, #234, .T. ) ;
#165 = CARTESIAN_POINT ( 'NONE',  ( 1.530808498934191509E-17, 0.000000000000000000, 0.1250000000000000000 ) ) ;
#166 =( GEOMETRIC_REPRESENTATION_CONTEXT ( 3 ) GLOBAL_UNCERTAINTY_ASSIGNED_CONTEXT ( ( #5 ) ) GLOBAL_UNIT_ASSIGNED_CONTEXT ( ( #216, #266, #56 ) ) REPRESENTATION_CONTEXT ( 'NONE', 'WORKASPACE' ) );
#167 = ORIENTED_EDGE ( 'NONE', *, *, #268, .T. ) ;
#168 = EDGE_CURVE ( 'NONE', #125, #32, #156, .T. ) ;
#169 = ORIENTED_EDGE ( 'NONE', *, *, #96, .T. ) ;
#170 = CYLINDRICAL_SURFACE ( 'NONE', #138, 0.1250000000000000000 ) ;
#171 = SURFACE_SIDE_STYLE ('',( #110 ) ) ;
#172 =( NAMED_UNIT ( * ) SI_UNIT ( $, .STERADIAN. ) SOLID_ANGLE_UNIT ( ) );
#173 = VERTEX_POINT ( 'NONE', #255 ) ;
#174 = CARTESIAN_POINT ( 'NONE',  ( 1.530808498934191509E-17, 0.000000000000000000, 0.1250000000000000000 ) ) ;
#175 = DIRECTION ( 'NONE',  ( 0.000000000000000000, 0.000000000000000000, -1.000000000000000000 ) ) ;
#176 =( NAMED_UNIT ( * ) SI_UNIT ( $, .STERADIAN. ) SOLID_ANGLE_UNIT ( ) );
#177 = CARTESIAN_POINT ( 'NONE',  ( 1.530808498934191509E-17, 0.5000000000000000000, 0.1250000000000000000 ) ) ;
#178 = FACE_OUTER_BOUND ( 'NONE', #54, .T. ) ;
#179 = COLOUR_RGB ( '',0.7921568627450980005, 0.8196078431372548767, 0.9333333333333333481 ) ;
#180 =( GEOMETRIC_REPRESENTATION_CONTEXT ( 3 ) GLOBAL_UNCERTAINTY_ASSIGNED_CONTEXT ( ( #194 ) ) GLOBAL_UNIT_ASSIGNED_CONTEXT ( ( #50, #232, #204 ) ) REPRESENTATION_CONTEXT ( 'NONE', 'WORKASPACE' ) );
#181 = CARTESIAN_POINT ( 'NONE',  ( 0.000000000000000000, 0.000000000000000000, 0.000000000000000000 ) ) ;
#182 = CARTESIAN_POINT ( 'NONE',  ( 0.000000000000000000, 0.000000000000000000, 0.000000000000000000 ) ) ;
#183 = CARTESIAN_POINT ( 'NONE',  ( 0.1249999999999999584, 2.500000000000000000, 1.530808498934191817E-17 ) ) ;
#184 = LINE ( 'NONE', #256, #200 ) ;
#185 = CIRCLE ( 'NONE', #39, 0.1250000000000000000 ) ;
#186 = AXIS2_PLACEMENT_3D ( 'NONE', #191, #293, #143 ) ;
#187 = EDGE_CURVE ( 'NONE', #105, #150, #184, .T. ) ;
#188 = ADVANCED_FACE ( 'NONE', ( #135 ), #44, .F. ) ;
#189 = ORIENTED_EDGE ( 'NONE', *, *, #137, .T. ) ;
#190 = ORIENTED_EDGE ( 'NONE', *, *, #168, .T. ) ;
#191 = CARTESIAN_POINT ( 'NONE',  ( 0.000000000000000000, 0.000000000000000000, 0.000000000000000000 ) ) ;
#192 = MECHANICAL_DESIGN_GEOMETRIC_PRESENTATION_REPRESENTATION (  '', ( #291 ), #12 ) ;
#193 = ADVANCED_FACE ( 'NONE', ( #260 ), #70, .T. ) ;
#194 = UNCERTAINTY_MEASURE_WITH_UNIT (LENGTH_MEASURE( 1.000000000000000082E-05 ), #50, 'distance_accuracy_value', 'NONE');
#195 = SURFACE_SIDE_STYLE ('',( #219 ) ) ;
#196 = ADVANCED_FACE ( 'NONE', ( #304 ), #17, .T. ) ;
#197 = ORIENTED_EDGE ( 'NONE', *, *, #164, .T. ) ;
#198 = DIRECTION ( 'NONE',  ( -0.000000000000000000, -1.000000000000000000, -0.000000000000000000 ) ) ;
#199 = PRESENTATION_LAYER_ASSIGNMENT (  '', '', ( #291 ) ) ;
#200 = VECTOR ( 'NONE', #253, 39.37007874015748143 ) ;
#201 = DIMENSIONAL_EXPONENTS ( 1.000000000000000000, 0.000000000000000000, 0.000000000000000000, 0.000000000000000000, 0.000000000000000000, 0.000000000000000000, 0.000000000000000000 ) ;
#202 = DIRECTION ( 'NONE',  ( -0.000000000000000000, -1.000000000000000000, -0.000000000000000000 ) ) ;
#203 = SURFACE_STYLE_FILL_AREA ( #14 ) ;
#204 =( NAMED_UNIT ( * ) SI_UNIT ( $, .STERADIAN. ) SOLID_ANGLE_UNIT ( ) );
#205 = DIRECTION ( 'NONE',  ( 0.000000000000000000, 0.000000000000000000, -1.000000000000000000 ) ) ;
#206 = DIRECTION ( 'NONE',  ( -3.061616997868386099E-17, 1.000000000000000000, -0.000000000000000000 ) ) ;
#207 = FILL_AREA_STYLE ('',( #225 ) ) ;
#208 = CARTESIAN_POINT ( 'NONE',  ( -6.123233995736772199E-17, 2.500000000000000000, 0.000000000000000000 ) ) ;
#209 = FILL_AREA_STYLE ('',( #283 ) ) ;
#210 = PRESENTATION_LAYER_ASSIGNMENT (  '', '', ( #102 ) ) ;
#211 = MECHANICAL_DESIGN_GEOMETRIC_PRESENTATION_REPRESENTATION (  '', ( #102 ), #166 ) ;
#212 = UNCERTAINTY_MEASURE_WITH_UNIT (LENGTH_MEASURE( 1.000000000000000082E-05 ), #220, 'distance_accuracy_value', 'NONE');
#213 = DIRECTION ( 'NONE',  ( -0.000000000000000000, -1.000000000000000000, -0.000000000000000000 ) ) ;
#214 = CARTESIAN_POINT ( 'NONE',  ( 0.000000000000000000, 0.5000000000000000000, 0.000000000000000000 ) ) ;
#215 = MECHANICAL_DESIGN_GEOMETRIC_PRESENTATION_REPRESENTATION (  '', ( #112 ), #302 ) ;
#216 =( CONVERSION_BASED_UNIT ( 'INCH', #289 ) LENGTH_UNIT ( ) NAMED_UNIT ( #34 ) );
#217 = AXIS2_PLACEMENT_3D ( 'NONE', #98, #230, #51 ) ;
#218 = APPLICATION_CONTEXT ( 'automotive_design' ) ;
#219 = SURFACE_STYLE_FILL_AREA ( #86 ) ;
#220 =( CONVERSION_BASED_UNIT ( 'INCH', #58 ) LENGTH_UNIT ( ) NAMED_UNIT ( #60 ) );
#221 = EDGE_CURVE ( 'NONE', #173, #119, #95, .T. ) ;
#222 = EDGE_LOOP ( 'NONE', ( #189, #62, #35, #269 ) ) ;
#223 =( LENGTH_UNIT ( ) NAMED_UNIT ( * ) SI_UNIT ( $, .METRE. ) );
#224 = CIRCLE ( 'NONE', #69, 0.1250000000000000555 ) ;
#225 = FILL_AREA_STYLE_COLOUR ( '', #99 ) ;
#226 =( NAMED_UNIT ( * ) PLANE_ANGLE_UNIT ( ) SI_UNIT ( $, .RADIAN. ) );
#227 = DIRECTION ( 'NONE',  ( -1.000000000000000000, 0.000000000000000000, 0.000000000000000000 ) ) ;
#228 = CARTESIAN_POINT ( 'NONE',  ( -6.123233995736772199E-17, 2.500000000000000000, 0.000000000000000000 ) ) ;
#229 = CARTESIAN_POINT ( 'NONE',  ( 0.000000000000000000, 0.000000000000000000, 0.000000000000000000 ) ) ;
#230 = DIRECTION ( 'NONE',  ( -3.061616997868386099E-17, 1.000000000000000000, 0.000000000000000000 ) ) ;
#231 = FILL_AREA_STYLE ('',( #6 ) ) ;
#232 =( NAMED_UNIT ( * ) PLANE_ANGLE_UNIT ( ) SI_UNIT ( $, .RADIAN. ) );
#233 = PRESENTATION_LAYER_ASSIGNMENT (  '', '', ( #68 ) ) ;
#234 = CIRCLE ( 'NONE', #107, 0.1250000000000000000 ) ;
#235 = MANIFOLD_SOLID_BREP ( 'Revolve - Tool Body (Straight Shanked)', #123 ) ;
#236 = APPLICATION_CONTEXT ( 'automotive_design' ) ;
#237 = DIRECTION ( 'NONE',  ( -3.061616997868386099E-17, 1.000000000000000000, -0.000000000000000000 ) ) ;
#238 = CYLINDRICAL_SURFACE ( 'NONE', #23, 0.1250000000000000278 ) ;
#239 = CARTESIAN_POINT ( 'NONE',  ( 0.000000000000000000, 0.000000000000000000, 0.000000000000000000 ) ) ;
#240 = DIRECTION ( 'NONE',  ( -3.061616997868386099E-17, 1.000000000000000000, -0.000000000000000000 ) ) ;
#241 = ORIENTED_EDGE ( 'NONE', *, *, #164, .F. ) ;
#242 = ORIENTED_EDGE ( 'NONE', *, *, #96, .F. ) ;
#243 = SHAPE_DEFINITION_REPRESENTATION ( #140, #79 ) ;
#244 = MECHANICAL_DESIGN_GEOMETRIC_PRESENTATION_REPRESENTATION (  '', ( #162 ), #76 ) ;
#245 = ORIENTED_EDGE ( 'NONE', *, *, #82, .F. ) ;
#246 = LENGTH_MEASURE_WITH_UNIT ( LENGTH_MEASURE( 0.02539999999999999897 ), #85 );
#247 = ORIENTED_EDGE ( 'NONE', *, *, #137, .F. ) ;
#248 = DIRECTION ( 'NONE',  ( 0.000000000000000000, 0.000000000000000000, -1.000000000000000000 ) ) ;
#249 = PRESENTATION_STYLE_ASSIGNMENT (( #41 ) ) ;
#250 =( GEOMETRIC_REPRESENTATION_CONTEXT ( 3 ) GLOBAL_UNCERTAINTY_ASSIGNED_CONTEXT ( ( #265 ) ) GLOBAL_UNIT_ASSIGNED_CONTEXT ( ( #299, #226, #258 ) ) REPRESENTATION_CONTEXT ( 'NONE', 'WORKASPACE' ) );
#251 = AXIS2_PLACEMENT_3D ( 'NONE', #154, #115, #75 ) ;
#252 = DIRECTION ( 'NONE',  ( 0.000000000000000000, 0.000000000000000000, -1.000000000000000000 ) ) ;
#253 = DIRECTION ( 'NONE',  ( -3.061616997868386099E-17, 1.000000000000000000, -0.000000000000000000 ) ) ;
#254 = DIRECTION ( 'NONE',  ( 0.000000000000000000, 0.000000000000000000, -1.000000000000000000 ) ) ;
#255 = CARTESIAN_POINT ( 'NONE',  ( 0.1250000000000000278, 0.5000000000000001110, 1.530808498934192125E-17 ) ) ;
#256 = CARTESIAN_POINT ( 'NONE',  ( -0.1250000000000001110, 2.500000000000000000, 0.000000000000000000 ) ) ;
#257 = AXIS2_PLACEMENT_3D ( 'NONE', #181, #43, #205 ) ;
#258 =( NAMED_UNIT ( * ) SI_UNIT ( $, .STERADIAN. ) SOLID_ANGLE_UNIT ( ) );
#259 = SURFACE_SIDE_STYLE ('',( #117 ) ) ;
#260 = FACE_OUTER_BOUND ( 'NONE', #111, .T. ) ;
#261 =( GEOMETRIC_REPRESENTATION_CONTEXT ( 3 ) GLOBAL_UNCERTAINTY_ASSIGNED_CONTEXT ( ( #61 ) ) GLOBAL_UNIT_ASSIGNED_CONTEXT ( ( #273, #30, #176 ) ) REPRESENTATION_CONTEXT ( 'NONE', 'WORKASPACE' ) );
#262 = PRODUCT_DEFINITION_FORMATION_WITH_SPECIFIED_SOURCE ( 'ANY', '', #45, .NOT_KNOWN. ) ;
#263 = DIRECTION ( 'NONE',  ( 3.061616997868386099E-17, -1.000000000000000000, 0.000000000000000000 ) ) ;
#264 = SURFACE_STYLE_USAGE ( .BOTH. , #285 ) ;
#265 = UNCERTAINTY_MEASURE_WITH_UNIT (LENGTH_MEASURE( 1.000000000000000082E-05 ), #299, 'distance_accuracy_value', 'NONE');
#266 =( NAMED_UNIT ( * ) PLANE_ANGLE_UNIT ( ) SI_UNIT ( $, .RADIAN. ) );
#267 = FILL_AREA_STYLE ('',( #290 ) ) ;
#268 = EDGE_CURVE ( 'NONE', #142, #125, #163, .T. ) ;
#269 = ORIENTED_EDGE ( 'NONE', *, *, #168, .F. ) ;
#270 =( NAMED_UNIT ( * ) SI_UNIT ( $, .STERADIAN. ) SOLID_ANGLE_UNIT ( ) );
#271 = UNCERTAINTY_MEASURE_WITH_UNIT (LENGTH_MEASURE( 1.000000000000000082E-05 ), #84, 'distance_accuracy_value', 'NONE');
#272 = ORIENTED_EDGE ( 'NONE', *, *, #268, .F. ) ;
#273 =( CONVERSION_BASED_UNIT ( 'INCH', #246 ) LENGTH_UNIT ( ) NAMED_UNIT ( #201 ) );
#274 = DIRECTION ( 'NONE',  ( -0.000000000000000000, -1.000000000000000000, -0.000000000000000000 ) ) ;
#275 = PRESENTATION_LAYER_ASSIGNMENT (  '', '', ( #162 ) ) ;
#276 = ORIENTED_EDGE ( 'NONE', *, *, #221, .F. ) ;
#277 = FACE_OUTER_BOUND ( 'NONE', #10, .T. ) ;
#278 = DIRECTION ( 'NONE',  ( -1.000000000000000000, 0.000000000000000000, 0.000000000000000000 ) ) ;
#279 = CARTESIAN_POINT ( 'NONE',  ( -6.123233995736772199E-17, 2.500000000000000000, 0.000000000000000000 ) ) ;
#280 = AXIS2_PLACEMENT_3D ( 'NONE', #52, #237, #24 ) ;
#281 = DIRECTION ( 'NONE',  ( -0.000000000000000000, -1.000000000000000000, -0.000000000000000000 ) ) ;
#282 = DIRECTION ( 'NONE',  ( 0.000000000000000000, -1.000000000000000000, -0.000000000000000000 ) ) ;
#283 = FILL_AREA_STYLE_COLOUR ( '', #305 ) ;
#284 = PRESENTATION_STYLE_ASSIGNMENT (( #78 ) ) ;
#285 = SURFACE_SIDE_STYLE ('',( #307 ) ) ;
#286 = CLOSED_SHELL ( 'NONE', ( #33, #193, #71, #36 ) ) ;
#287 = AXIS2_PLACEMENT_3D ( 'NONE', #19, #113, #278 ) ;
#288 = ORIENTED_EDGE ( 'NONE', *, *, #101, .F. ) ;
#289 = LENGTH_MEASURE_WITH_UNIT ( LENGTH_MEASURE( 0.02539999999999999897 ), #223 );
#290 = FILL_AREA_STYLE_COLOUR ( '', #179 ) ;
#291 = STYLED_ITEM ( 'NONE', ( #26 ), #136 ) ;
#292 = ORIENTED_EDGE ( 'NONE', *, *, #82, .T. ) ;
#293 = DIRECTION ( 'NONE',  ( 0.000000000000000000, 0.000000000000000000, 1.000000000000000000 ) ) ;
#294 = PRODUCT_DEFINITION_CONTEXT ( 'detailed design', #236, 'design' ) ;
#295 = FILL_AREA_STYLE_COLOUR ( '', #7 ) ;
#296 = LENGTH_MEASURE_WITH_UNIT ( LENGTH_MEASURE( 0.02539999999999999897 ), #64 );
#297 = CIRCLE ( 'NONE', #287, 0.1250000000000000000 ) ;
#298 = DIRECTION ( 'NONE',  ( 0.000000000000000000, 0.000000000000000000, -1.000000000000000000 ) ) ;
#299 =( CONVERSION_BASED_UNIT ( 'INCH', #153 ) LENGTH_UNIT ( ) NAMED_UNIT ( #301 ) );
#300 =( NAMED_UNIT ( * ) PLANE_ANGLE_UNIT ( ) SI_UNIT ( $, .RADIAN. ) );
#301 = DIMENSIONAL_EXPONENTS ( 1.000000000000000000, 0.000000000000000000, 0.000000000000000000, 0.000000000000000000, 0.000000000000000000, 0.000000000000000000, 0.000000000000000000 ) ;
#302 =( GEOMETRIC_REPRESENTATION_CONTEXT ( 3 ) GLOBAL_UNCERTAINTY_ASSIGNED_CONTEXT ( ( #271 ) ) GLOBAL_UNIT_ASSIGNED_CONTEXT ( ( #84, #300, #270 ) ) REPRESENTATION_CONTEXT ( 'NONE', 'WORKASPACE' ) );
#303 = CYLINDRICAL_SURFACE ( 'NONE', #118, 0.1250000000000000000 ) ;
#304 = FACE_OUTER_BOUND ( 'NONE', #83, .T. ) ;
#305 = COLOUR_RGB ( '',1.000000000000000000, 0.000000000000000000, 0.000000000000000000 ) ;
#306 = DIRECTION ( 'NONE',  ( -1.000000000000000000, 0.000000000000000000, 0.000000000000000000 ) ) ;
#307 = SURFACE_STYLE_FILL_AREA ( #231 ) ;
#308 = CARTESIAN_POINT ( 'NONE',  ( 0.1250000000000000000, 2.500000000000000000, 0.000000000000000000 ) ) ;
#309 = CIRCLE ( 'NONE', #280, 0.1250000000000000000 ) ;
ENDSEC;
END-ISO-10303-21;
