ISO-10303-21;
HEADER;
FILE_DESCRIPTION (( 'STEP AP214' ),
    '1' );
FILE_NAME ('Micro_AELM-160-4X.STEP',
    '2021-09-01T17:08:07',
    ( '' ),
    ( '' ),
    'SwSTEP 2.0',
    'SolidWorks 2020',
    '' );
FILE_SCHEMA (( 'AUTOMOTIVE_DESIGN' ));
ENDSEC;

DATA;
#1 = ORIENTED_EDGE ( 'NONE', *, *, #182, .T. ) ;
#2 = PRODUCT_DEFINITION ( 'UNKNOWN', '', #11, #91 ) ;
#3 = ORIENTED_EDGE ( 'NONE', *, *, #21, .F. ) ;
#4 = VECTOR ( 'NONE', #233, 39.37007874015748143 ) ;
#5 = DIRECTION ( 'NONE',  ( -1.000000000000000000, 0.0000000000000000000, 0.0000000000000000000 ) ) ;
#6 = EDGE_CURVE ( 'NONE', #174, #267, #56, .T. ) ;
#7 = VERTEX_POINT ( 'NONE', #140 ) ;
#8 = ORIENTED_EDGE ( 'NONE', *, *, #6, .F. ) ;
#9 = SURFACE_STYLE_USAGE ( .BOTH. , #212 ) ;
#10 = CARTESIAN_POINT ( 'NONE',  ( 4.718927259360429440E-33, 0.0000000000000000000, 3.853296528146670183E-17 ) ) ;
#11 = PRODUCT_DEFINITION_FORMATION_WITH_SPECIFIED_SOURCE ( 'ANY', '', #270, .NOT_KNOWN. ) ;
#12 = DIRECTION ( 'NONE',  ( 1.000000000000000000, 0.0000000000000000000, 0.0000000000000000000 ) ) ;
#13 = DIRECTION ( 'NONE',  ( -0.0000000000000000000, -0.0000000000000000000, -1.000000000000000000 ) ) ;
#14 = ADVANCED_FACE ( 'NONE', ( #79 ), #185, .T. ) ;
#15 = LENGTH_MEASURE_WITH_UNIT ( LENGTH_MEASURE( 0.02539999999999999897 ), #280 );
#16 = DIRECTION ( 'NONE',  ( 0.0000000000000000000, 0.0000000000000000000, 1.000000000000000000 ) ) ;
#17 = FACE_OUTER_BOUND ( 'NONE', #265, .T. ) ;
#18 = DIRECTION ( 'NONE',  ( -1.000000000000000000, 0.0000000000000000000, 0.0000000000000000000 ) ) ;
#19 = AXIS2_PLACEMENT_3D ( 'NONE', #104, #84, #214 ) ;
#20 = DIRECTION ( 'NONE',  ( 1.000000000000000000, 0.0000000000000000000, 0.0000000000000000000 ) ) ;
#21 = EDGE_CURVE ( 'NONE', #113, #101, #46, .T. ) ;
#22 = CIRCLE ( 'NONE', #176, 0.3146455394999999600 ) ;
#23 = ORIENTED_EDGE ( 'NONE', *, *, #220, .F. ) ;
#24 = AXIS2_PLACEMENT_3D ( 'NONE', #97, #175, #47 ) ;
#25 = ADVANCED_FACE ( 'NONE', ( #132 ), #77, .T. ) ;
#26 = ORIENTED_EDGE ( 'NONE', *, *, #220, .T. ) ;
#27 = CARTESIAN_POINT ( 'NONE',  ( 0.0000000000000000000, 0.0000000000000000000, 0.0000000000000000000 ) ) ;
#28 = LINE ( 'NONE', #147, #89 ) ;
#29 = AXIS2_PLACEMENT_3D ( 'NONE', #215, #208, #170 ) ;
#30 = DIRECTION ( 'NONE',  ( -0.1736481776669312194, 2.126576849575783625E-17, 0.9848077530122077983 ) ) ;
#31 = VERTEX_POINT ( 'NONE', #50 ) ;
#32 = CARTESIAN_POINT ( 'NONE',  ( -0.2999605000000007404, 0.0000000000000000000, 5.905511999999999873 ) ) ;
#33 = SURFACE_STYLE_FILL_AREA ( #189 ) ;
#34 = EDGE_CURVE ( 'NONE', #204, #267, #198, .T. ) ;
#35 = SURFACE_STYLE_FILL_AREA ( #60 ) ;
#36 = FACE_OUTER_BOUND ( 'NONE', #78, .T. ) ;
#37 = EDGE_CURVE ( 'NONE', #206, #31, #226, .T. ) ;
#38 = FACE_OUTER_BOUND ( 'NONE', #129, .T. ) ;
#39 = CIRCLE ( 'NONE', #90, 0.3149604999999999766 ) ;
#40 = CARTESIAN_POINT ( 'NONE',  ( -0.3146455394999999600, 0.0000000000000000000, 7.706593056293340367E-17 ) ) ;
#41 = ADVANCED_BREP_SHAPE_REPRESENTATION ( 'Micro_AELM-160-4X', ( #94, #24 ), #248 ) ;
#42 = EDGE_LOOP ( 'NONE', ( #8, #26, #224, #183 ) ) ;
#43 = AXIS2_PLACEMENT_3D ( 'NONE', #275, #99, #5 ) ;
#44 = APPLICATION_PROTOCOL_DEFINITION ( 'draft international standard', 'automotive_design', 1998, #282 ) ;
#45 = EDGE_CURVE ( 'NONE', #53, #113, #118, .T. ) ;
#46 = LINE ( 'NONE', #162, #262 ) ;
#47 = DIRECTION ( 'NONE',  ( 1.000000000000000000, 0.0000000000000000000, 0.0000000000000000000 ) ) ;
#48 = VECTOR ( 'NONE', #30, 39.37007874015748143 ) ;
#49 = CIRCLE ( 'NONE', #289, 0.3146455394999999600 ) ;
#50 = CARTESIAN_POINT ( 'NONE',  ( -0.3149604999999996435, 0.0000000000000000000, 2.560841229757547133 ) ) ;
#51 = DIRECTION ( 'NONE',  ( -1.000000000000000000, 0.0000000000000000000, 1.224646799147353207E-16 ) ) ;
#52 = PRODUCT_DEFINITION_SHAPE ( 'NONE', 'NONE',  #2 ) ;
#53 = VERTEX_POINT ( 'NONE', #75 ) ;
#54 = DIRECTION ( 'NONE',  ( -1.224646799147353207E-16, -0.0000000000000000000, -1.000000000000000000 ) ) ;
#55 = PRESENTATION_LAYER_ASSIGNMENT (  '', '', ( #283 ) ) ;
#56 = LINE ( 'NONE', #187, #296 ) ;
#57 = DIRECTION ( 'NONE',  ( 0.0000000000000000000, 0.0000000000000000000, 1.000000000000000000 ) ) ;
#58 = DIRECTION ( 'NONE',  ( 1.000000000000000000, 0.0000000000000000000, 0.0000000000000000000 ) ) ;
#59 = ADVANCED_FACE ( 'NONE', ( #156 ), #167, .T. ) ;
#60 = FILL_AREA_STYLE ('',( #207 ) ) ;
#61 = CARTESIAN_POINT ( 'NONE',  ( 0.3146455395000003485, 0.0000000000000000000, 2.559054999999999858 ) ) ;
#62 = CIRCLE ( 'NONE', #29, 0.3149604999999999766 ) ;
#63 = CARTESIAN_POINT ( 'NONE',  ( 3.136126015147152505E-16, 0.0000000000000000000, 2.560841229757547133 ) ) ;
#64 = CARTESIAN_POINT ( 'NONE',  ( 3.133938514592029510E-16, 0.0000000000000000000, 2.559054999999999858 ) ) ;
#65 = ADVANCED_FACE ( 'NONE', ( #249 ), #135, .T. ) ;
#66 =( NAMED_UNIT ( * ) PLANE_ANGLE_UNIT ( ) SI_UNIT ( $, .RADIAN. ) );
#67 = DIRECTION ( 'NONE',  ( 0.0000000000000000000, 0.0000000000000000000, -1.000000000000000000 ) ) ;
#68 = CIRCLE ( 'NONE', #87, 0.3149604999999999766 ) ;
#69 = ORIENTED_EDGE ( 'NONE', *, *, #112, .F. ) ;
#70 = EDGE_CURVE ( 'NONE', #206, #204, #28, .T. ) ;
#71 = ORIENTED_EDGE ( 'NONE', *, *, #218, .T. ) ;
#72 = AXIS2_PLACEMENT_3D ( 'NONE', #103, #213, #58 ) ;
#73 = EDGE_CURVE ( 'NONE', #113, #7, #62, .T. ) ;
#74 = PRODUCT_CONTEXT ( 'NONE', #282, 'mechanical' ) ;
#75 = CARTESIAN_POINT ( 'NONE',  ( 0.2999605000000007404, 3.765305171892452141E-17, 5.905511999999999873 ) ) ;
#76 = DIRECTION ( 'NONE',  ( -1.224646799147353207E-16, -0.0000000000000000000, -1.000000000000000000 ) ) ;
#77 = CYLINDRICAL_SURFACE ( 'NONE', #221, 0.3149604999999999766 ) ;
#78 = EDGE_LOOP ( 'NONE', ( #219, #23, #196, #1 ) ) ;
#79 = FACE_OUTER_BOUND ( 'NONE', #110, .T. ) ;
#80 = EDGE_CURVE ( 'NONE', #206, #174, #49, .T. ) ;
#81 = CARTESIAN_POINT ( 'NONE',  ( 3.133938514592029510E-16, 0.0000000000000000000, 2.559054999999999858 ) ) ;
#82 = DIRECTION ( 'NONE',  ( 0.1736481776669314414, 0.0000000000000000000, 0.9848077530122077983 ) ) ;
#83 = PLANE ( 'NONE',  #299 ) ;
#84 = DIRECTION ( 'NONE',  ( -0.0000000000000000000, -0.0000000000000000000, -1.000000000000000000 ) ) ;
#85 = EDGE_CURVE ( 'NONE', #174, #101, #108, .T. ) ;
#86 = FACE_OUTER_BOUND ( 'NONE', #203, .T. ) ;
#87 = AXIS2_PLACEMENT_3D ( 'NONE', #63, #54, #12 ) ;
#88 = CARTESIAN_POINT ( 'NONE',  ( 3.136126015147152505E-16, 0.0000000000000000000, 2.560841229757547133 ) ) ;
#89 = VECTOR ( 'NONE', #126, 39.37007874015748143 ) ;
#90 = AXIS2_PLACEMENT_3D ( 'NONE', #148, #67, #242 ) ;
#91 = PRODUCT_DEFINITION_CONTEXT ( 'detailed design', #277, 'design' ) ;
#92 = EDGE_LOOP ( 'NONE', ( #279, #150 ) ) ;
#93 = ORIENTED_EDGE ( 'NONE', *, *, #155, .T. ) ;
#94 = MANIFOLD_SOLID_BREP ( 'Cut-Revolve1', #191 ) ;
#95 = DIRECTION ( 'NONE',  ( -1.000000000000000000, 0.0000000000000000000, 1.224646799147353207E-16 ) ) ;
#96 = ORIENTED_EDGE ( 'NONE', *, *, #155, .F. ) ;
#97 = CARTESIAN_POINT ( 'NONE',  ( 0.0000000000000000000, 0.0000000000000000000, 0.0000000000000000000 ) ) ;
#98 = CONICAL_SURFACE ( 'NONE', #72, 0.3146455394999999600, 0.1745329251994339470 ) ;
#99 = DIRECTION ( 'NONE',  ( 0.0000000000000000000, 0.0000000000000000000, -1.000000000000000000 ) ) ;
#100 = DIRECTION ( 'NONE',  ( -1.224646799147353207E-16, -0.0000000000000000000, -1.000000000000000000 ) ) ;
#101 = VERTEX_POINT ( 'NONE', #239 ) ;
#102 = DIRECTION ( 'NONE',  ( -1.224646799147353207E-16, -0.0000000000000000000, -1.000000000000000000 ) ) ;
#103 = CARTESIAN_POINT ( 'NONE',  ( 3.133938514592029510E-16, 0.0000000000000000000, 2.559054999999999858 ) ) ;
#104 = CARTESIAN_POINT ( 'NONE',  ( 0.0000000000000000000, 0.0000000000000000000, 5.905511999999999873 ) ) ;
#105 = SURFACE_STYLE_USAGE ( .BOTH. , #261 ) ;
#106 = CARTESIAN_POINT ( 'NONE',  ( 0.3146455395000003485, 0.0000000000000000000, 2.559054999999999858 ) ) ;
#107 = VECTOR ( 'NONE', #82, 39.37007874015748143 ) ;
#108 = LINE ( 'NONE', #61, #107 ) ;
#109 = EDGE_CURVE ( 'NONE', #267, #204, #22, .T. ) ;
#110 = EDGE_LOOP ( 'NONE', ( #117, #252, #120, #152 ) ) ;
#111 = AXIS2_PLACEMENT_3D ( 'NONE', #81, #229, #165 ) ;
#112 = EDGE_CURVE ( 'NONE', #7, #31, #123, .T. ) ;
#113 = VERTEX_POINT ( 'NONE', #169 ) ;
#114 = SHAPE_DEFINITION_REPRESENTATION ( #52, #41 ) ;
#115 = DIRECTION ( 'NONE',  ( -1.224646799147353207E-16, -0.0000000000000000000, -1.000000000000000000 ) ) ;
#116 = ORIENTED_EDGE ( 'NONE', *, *, #292, .T. ) ;
#117 = ORIENTED_EDGE ( 'NONE', *, *, #80, .T. ) ;
#118 = LINE ( 'NONE', #180, #168 ) ;
#119 =( CONVERSION_BASED_UNIT ( 'INCH', #122 ) LENGTH_UNIT ( ) NAMED_UNIT ( #297 ) );
#120 = ORIENTED_EDGE ( 'NONE', *, *, #34, .F. ) ;
#121 = DIRECTION ( 'NONE',  ( 0.0000000000000000000, 0.0000000000000000000, 1.000000000000000000 ) ) ;
#122 = LENGTH_MEASURE_WITH_UNIT ( LENGTH_MEASURE( 0.02539999999999999897 ), #287 );
#123 = LINE ( 'NONE', #211, #254 ) ;
#124 = FACE_OUTER_BOUND ( 'NONE', #92, .T. ) ;
#125 = DIRECTION ( 'NONE',  ( 1.000000000000000000, 0.0000000000000000000, 0.0000000000000000000 ) ) ;
#126 = DIRECTION ( 'NONE',  ( -1.224646799147353207E-16, -0.0000000000000000000, -1.000000000000000000 ) ) ;
#127 = AXIS2_PLACEMENT_3D ( 'NONE', #88, #291, #263 ) ;
#128 = ADVANCED_FACE ( 'NONE', ( #124 ), #241, .F. ) ;
#129 = EDGE_LOOP ( 'NONE', ( #223, #253, #116, #154 ) ) ;
#130 = ORIENTED_EDGE ( 'NONE', *, *, #21, .T. ) ;
#131 = ORIENTED_EDGE ( 'NONE', *, *, #250, .T. ) ;
#132 = FACE_OUTER_BOUND ( 'NONE', #202, .T. ) ;
#133 = COLOUR_RGB ( '',0.7921568627450980005, 0.8196078431372548767, 0.9333333333333333481 ) ;
#134 = ADVANCED_FACE ( 'NONE', ( #38 ), #98, .T. ) ;
#135 = CYLINDRICAL_SURFACE ( 'NONE', #247, 0.3146455394999999600 ) ;
#136 = CARTESIAN_POINT ( 'NONE',  ( 0.0000000000000000000, 0.0000000000000000000, 5.905511999999999873 ) ) ;
#137 = EDGE_LOOP ( 'NONE', ( #177, #244, #230, #159 ) ) ;
#138 =( GEOMETRIC_REPRESENTATION_CONTEXT ( 3 ) GLOBAL_UNCERTAINTY_ASSIGNED_CONTEXT ( ( #151 ) ) GLOBAL_UNIT_ASSIGNED_CONTEXT ( ( #286, #66, #234 ) ) REPRESENTATION_CONTEXT ( 'NONE', 'WORKASPACE' ) );
#139 = CARTESIAN_POINT ( 'NONE',  ( 0.3146455394999999600, 3.853296528146670183E-17, 0.0000000000000000000 ) ) ;
#140 = CARTESIAN_POINT ( 'NONE',  ( -0.3149604999999999766, 0.0000000000000000000, 5.890512000000002857 ) ) ;
#141 = CARTESIAN_POINT ( 'NONE',  ( -0.2999605000000007404, 0.0000000000000000000, 5.905511999999999873 ) ) ;
#142 = CARTESIAN_POINT ( 'NONE',  ( 0.0000000000000000000, 0.0000000000000000000, 0.0000000000000000000 ) ) ;
#143 = CARTESIAN_POINT ( 'NONE',  ( 0.0000000000000000000, 0.0000000000000000000, 5.905511999999999873 ) ) ;
#144 =( NAMED_UNIT ( * ) SI_UNIT ( $, .STERADIAN. ) SOLID_ANGLE_UNIT ( ) );
#145 = CIRCLE ( 'NONE', #209, 0.2999605000000007404 ) ;
#146 = DIRECTION ( 'NONE',  ( 1.224646799147353207E-16, 0.0000000000000000000, 1.000000000000000000 ) ) ;
#147 = CARTESIAN_POINT ( 'NONE',  ( -0.3146455394999999600, 0.0000000000000000000, 3.853296528146670183E-17 ) ) ;
#148 = CARTESIAN_POINT ( 'NONE',  ( 0.0000000000000000000, 0.0000000000000000000, 5.890512000000002857 ) ) ;
#149 =( GEOMETRIC_REPRESENTATION_CONTEXT ( 3 ) GLOBAL_UNCERTAINTY_ASSIGNED_CONTEXT ( ( #184 ) ) GLOBAL_UNIT_ASSIGNED_CONTEXT ( ( #163, #210, #144 ) ) REPRESENTATION_CONTEXT ( 'NONE', 'WORKASPACE' ) );
#150 = ORIENTED_EDGE ( 'NONE', *, *, #109, .T. ) ;
#151 = UNCERTAINTY_MEASURE_WITH_UNIT (LENGTH_MEASURE( 1.000000000000000082E-05 ), #286, 'distance_accuracy_value', 'NONE');
#152 = ORIENTED_EDGE ( 'NONE', *, *, #70, .F. ) ;
#153 = COLOUR_RGB ( '',0.7921568627450980005, 0.8196078431372548767, 0.9333333333333333481 ) ;
#154 = ORIENTED_EDGE ( 'NONE', *, *, #85, .F. ) ;
#155 = EDGE_CURVE ( 'NONE', #298, #53, #145, .T. ) ;
#156 = FACE_OUTER_BOUND ( 'NONE', #137, .T. ) ;
#157 = MECHANICAL_DESIGN_GEOMETRIC_PRESENTATION_REPRESENTATION (  '', ( #293 ), #149 ) ;
#158 = CARTESIAN_POINT ( 'NONE',  ( 4.718927259360429440E-33, 0.0000000000000000000, 3.853296528146670183E-17 ) ) ;
#159 = ORIENTED_EDGE ( 'NONE', *, *, #250, .F. ) ;
#160 = ADVANCED_FACE ( 'NONE', ( #86 ), #258, .T. ) ;
#161 = CYLINDRICAL_SURFACE ( 'NONE', #19, 0.3149604999999999766 ) ;
#162 = CARTESIAN_POINT ( 'NONE',  ( 0.3149604999999999766, 3.857153681828499730E-17, 5.905511999999999873 ) ) ;
#163 =( CONVERSION_BASED_UNIT ( 'INCH', #15 ) LENGTH_UNIT ( ) NAMED_UNIT ( #272 ) );
#164 = DIRECTION ( 'NONE',  ( -1.000000000000000000, 0.0000000000000000000, 1.224646799147353207E-16 ) ) ;
#165 = DIRECTION ( 'NONE',  ( -1.000000000000000000, 0.0000000000000000000, 0.0000000000000000000 ) ) ;
#166 = DIRECTION ( 'NONE',  ( -1.000000000000000000, 0.0000000000000000000, 0.0000000000000000000 ) ) ;
#167 = CONICAL_SURFACE ( 'NONE', #43, 0.2999605000000007404, 0.7853981633975052334 ) ;
#168 = VECTOR ( 'NONE', #179, 39.37007874015748143 ) ;
#169 = CARTESIAN_POINT ( 'NONE',  ( 0.3149604999999999766, 3.857153681828499730E-17, 5.890512000000002857 ) ) ;
#170 = DIRECTION ( 'NONE',  ( 1.000000000000000000, 0.0000000000000000000, 0.0000000000000000000 ) ) ;
#171 = CARTESIAN_POINT ( 'NONE',  ( -0.3146455394999996269, 3.855225104987584957E-17, 2.559054999999999858 ) ) ;
#172 = ORIENTED_EDGE ( 'NONE', *, *, #182, .F. ) ;
#173 = ADVANCED_FACE ( 'NONE', ( #36 ), #268, .T. ) ;
#174 = VERTEX_POINT ( 'NONE', #106 ) ;
#175 = DIRECTION ( 'NONE',  ( 0.0000000000000000000, 0.0000000000000000000, 1.000000000000000000 ) ) ;
#176 = AXIS2_PLACEMENT_3D ( 'NONE', #10, #256, #193 ) ;
#177 = ORIENTED_EDGE ( 'NONE', *, *, #218, .F. ) ;
#178 = ORIENTED_EDGE ( 'NONE', *, *, #73, .F. ) ;
#179 = DIRECTION ( 'NONE',  ( 0.7071067811865877628, 8.659560562355427129E-17, -0.7071067811865072716 ) ) ;
#180 = CARTESIAN_POINT ( 'NONE',  ( 0.2999605000000007404, 3.673456661956405784E-17, 5.905511999999999873 ) ) ;
#181 = CIRCLE ( 'NONE', #264, 0.2999605000000007404 ) ;
#182 = EDGE_CURVE ( 'NONE', #101, #31, #188, .T. ) ;
#183 = ORIENTED_EDGE ( 'NONE', *, *, #109, .F. ) ;
#184 = UNCERTAINTY_MEASURE_WITH_UNIT (LENGTH_MEASURE( 1.000000000000000082E-05 ), #163, 'distance_accuracy_value', 'NONE');
#185 = CYLINDRICAL_SURFACE ( 'NONE', #240, 0.3146455394999999600 ) ;
#186 = PRESENTATION_STYLE_ASSIGNMENT (( #9 ) ) ;
#187 = CARTESIAN_POINT ( 'NONE',  ( 0.3146455394999999600, 3.853296528146670183E-17, -3.853296528146670183E-17 ) ) ;
#188 = CIRCLE ( 'NONE', #127, 0.3149604999999999766 ) ;
#189 = FILL_AREA_STYLE ('',( #260 ) ) ;
#190 = CARTESIAN_POINT ( 'NONE',  ( 0.0000000000000000000, 0.0000000000000000000, 5.905511999999999873 ) ) ;
#191 = CLOSED_SHELL ( 'NONE', ( #14, #134, #59, #25, #225, #294, #160, #173, #65, #128 ) ) ;
#192 = LINE ( 'NONE', #32, #4 ) ;
#193 = DIRECTION ( 'NONE',  ( -1.000000000000000000, 0.0000000000000000000, 1.224646799147353207E-16 ) ) ;
#194 = DIRECTION ( 'NONE',  ( 0.0000000000000000000, 0.0000000000000000000, -1.000000000000000000 ) ) ;
#195 = PRODUCT_RELATED_PRODUCT_CATEGORY ( 'part', '', ( #270 ) ) ;
#196 = ORIENTED_EDGE ( 'NONE', *, *, #85, .T. ) ;
#197 = APPLICATION_PROTOCOL_DEFINITION ( 'draft international standard', 'automotive_design', 1998, #277 ) ;
#198 = CIRCLE ( 'NONE', #245, 0.3146455394999999600 ) ;
#199 = ORIENTED_EDGE ( 'NONE', *, *, #45, .F. ) ;
#200 = EDGE_CURVE ( 'NONE', #7, #113, #39, .T. ) ;
#201 = AXIS2_PLACEMENT_3D ( 'NONE', #64, #146, #125 ) ;
#202 = EDGE_LOOP ( 'NONE', ( #266, #130, #246, #69 ) ) ;
#203 = EDGE_LOOP ( 'NONE', ( #199, #96, #131, #178 ) ) ;
#204 = VERTEX_POINT ( 'NONE', #40 ) ;
#205 = DIRECTION ( 'NONE',  ( -1.000000000000000000, 0.0000000000000000000, 0.0000000000000000000 ) ) ;
#206 = VERTEX_POINT ( 'NONE', #171 ) ;
#207 = FILL_AREA_STYLE_COLOUR ( '', #133 ) ;
#208 = DIRECTION ( 'NONE',  ( 0.0000000000000000000, 0.0000000000000000000, -1.000000000000000000 ) ) ;
#209 = AXIS2_PLACEMENT_3D ( 'NONE', #190, #16, #20 ) ;
#210 =( NAMED_UNIT ( * ) PLANE_ANGLE_UNIT ( ) SI_UNIT ( $, .RADIAN. ) );
#211 = CARTESIAN_POINT ( 'NONE',  ( -0.3149604999999999766, 0.0000000000000000000, 5.905511999999999873 ) ) ;
#212 = SURFACE_SIDE_STYLE ('',( #35 ) ) ;
#213 = DIRECTION ( 'NONE',  ( 1.224646799147353207E-16, 0.0000000000000000000, 1.000000000000000000 ) ) ;
#214 = DIRECTION ( 'NONE',  ( -1.000000000000000000, 0.0000000000000000000, 0.0000000000000000000 ) ) ;
#215 = CARTESIAN_POINT ( 'NONE',  ( 0.0000000000000000000, 0.0000000000000000000, 5.890512000000002857 ) ) ;
#216 = MECHANICAL_DESIGN_GEOMETRIC_PRESENTATION_REPRESENTATION (  '', ( #283 ), #138 ) ;
#217 = DIRECTION ( 'NONE',  ( 1.000000000000000000, 0.0000000000000000000, -0.0000000000000000000 ) ) ;
#218 = EDGE_CURVE ( 'NONE', #53, #298, #181, .T. ) ;
#219 = ORIENTED_EDGE ( 'NONE', *, *, #37, .F. ) ;
#220 = EDGE_CURVE ( 'NONE', #174, #206, #228, .T. ) ;
#221 = AXIS2_PLACEMENT_3D ( 'NONE', #136, #227, #205 ) ;
#222 = PRESENTATION_LAYER_ASSIGNMENT (  '', '', ( #293 ) ) ;
#223 = ORIENTED_EDGE ( 'NONE', *, *, #80, .F. ) ;
#224 = ORIENTED_EDGE ( 'NONE', *, *, #70, .T. ) ;
#225 = ADVANCED_FACE ( 'NONE', ( #285 ), #161, .T. ) ;
#226 = LINE ( 'NONE', #271, #48 ) ;
#227 = DIRECTION ( 'NONE',  ( -0.0000000000000000000, -0.0000000000000000000, -1.000000000000000000 ) ) ;
#228 = CIRCLE ( 'NONE', #111, 0.3146455394999999600 ) ;
#229 = DIRECTION ( 'NONE',  ( -1.224646799147353207E-16, -0.0000000000000000000, -1.000000000000000000 ) ) ;
#230 = ORIENTED_EDGE ( 'NONE', *, *, #200, .F. ) ;
#231 =( NAMED_UNIT ( * ) SI_UNIT ( $, .STERADIAN. ) SOLID_ANGLE_UNIT ( ) );
#232 = CARTESIAN_POINT ( 'NONE',  ( 3.133938514592029510E-16, 0.0000000000000000000, 2.559054999999999858 ) ) ;
#233 = DIRECTION ( 'NONE',  ( -0.7071067811865877628, 0.0000000000000000000, -0.7071067811865072716 ) ) ;
#234 =( NAMED_UNIT ( * ) SI_UNIT ( $, .STERADIAN. ) SOLID_ANGLE_UNIT ( ) );
#235 = AXIS2_PLACEMENT_3D ( 'NONE', #142, #288, #217 ) ;
#236 = DIRECTION ( 'NONE',  ( 1.000000000000000000, 0.0000000000000000000, 0.0000000000000000000 ) ) ;
#237 = PRESENTATION_STYLE_ASSIGNMENT (( #105 ) ) ;
#238 =( NAMED_UNIT ( * ) PLANE_ANGLE_UNIT ( ) SI_UNIT ( $, .RADIAN. ) );
#239 = CARTESIAN_POINT ( 'NONE',  ( 0.3149605000000003097, 3.857153681828504044E-17, 2.560841229757547133 ) ) ;
#240 = AXIS2_PLACEMENT_3D ( 'NONE', #281, #76, #164 ) ;
#241 = PLANE ( 'NONE',  #235 ) ;
#242 = DIRECTION ( 'NONE',  ( 1.000000000000000000, 0.0000000000000000000, 0.0000000000000000000 ) ) ;
#243 = ORIENTED_EDGE ( 'NONE', *, *, #73, .T. ) ;
#244 = ORIENTED_EDGE ( 'NONE', *, *, #45, .T. ) ;
#245 = AXIS2_PLACEMENT_3D ( 'NONE', #158, #115, #95 ) ;
#246 = ORIENTED_EDGE ( 'NONE', *, *, #292, .F. ) ;
#247 = AXIS2_PLACEMENT_3D ( 'NONE', #27, #251, #51 ) ;
#248 =( GEOMETRIC_REPRESENTATION_CONTEXT ( 3 ) GLOBAL_UNCERTAINTY_ASSIGNED_CONTEXT ( ( #276 ) ) GLOBAL_UNIT_ASSIGNED_CONTEXT ( ( #119, #238, #231 ) ) REPRESENTATION_CONTEXT ( 'NONE', 'WORKASPACE' ) );
#249 = FACE_OUTER_BOUND ( 'NONE', #42, .T. ) ;
#250 = EDGE_CURVE ( 'NONE', #298, #7, #192, .T. ) ;
#251 = DIRECTION ( 'NONE',  ( -1.224646799147353207E-16, -0.0000000000000000000, -1.000000000000000000 ) ) ;
#252 = ORIENTED_EDGE ( 'NONE', *, *, #6, .T. ) ;
#253 = ORIENTED_EDGE ( 'NONE', *, *, #37, .T. ) ;
#254 = VECTOR ( 'NONE', #13, 39.37007874015748143 ) ;
#255 = CARTESIAN_POINT ( 'NONE',  ( 0.0000000000000000000, 0.0000000000000000000, 5.905511999999999873 ) ) ;
#256 = DIRECTION ( 'NONE',  ( -1.224646799147353207E-16, -0.0000000000000000000, -1.000000000000000000 ) ) ;
#257 =( LENGTH_UNIT ( ) NAMED_UNIT ( * ) SI_UNIT ( $, .METRE. ) );
#258 = CONICAL_SURFACE ( 'NONE', #274, 0.2999605000000007404, 0.7853981633975052334 ) ;
#259 = DIRECTION ( 'NONE',  ( 1.000000000000000000, 0.0000000000000000000, -0.0000000000000000000 ) ) ;
#260 = FILL_AREA_STYLE_COLOUR ( '', #153 ) ;
#261 = SURFACE_SIDE_STYLE ('',( #33 ) ) ;
#262 = VECTOR ( 'NONE', #278, 39.37007874015748143 ) ;
#263 = DIRECTION ( 'NONE',  ( 1.000000000000000000, 0.0000000000000000000, 0.0000000000000000000 ) ) ;
#264 = AXIS2_PLACEMENT_3D ( 'NONE', #143, #57, #236 ) ;
#265 = EDGE_LOOP ( 'NONE', ( #93, #71 ) ) ;
#266 = ORIENTED_EDGE ( 'NONE', *, *, #200, .T. ) ;
#267 = VERTEX_POINT ( 'NONE', #139 ) ;
#268 = CONICAL_SURFACE ( 'NONE', #201, 0.3146455394999999600, 0.1745329251994339470 ) ;
#269 = ORIENTED_EDGE ( 'NONE', *, *, #112, .T. ) ;
#270 = PRODUCT ( 'Micro_AELM-160-4X', 'Micro_AELM-160-4X', '', ( #74 ) ) ;
#271 = CARTESIAN_POINT ( 'NONE',  ( -0.3146455394999996269, 3.853296528146670183E-17, 2.559054999999999858 ) ) ;
#272 = DIMENSIONAL_EXPONENTS ( 1.000000000000000000, 0.0000000000000000000, 0.0000000000000000000, 0.0000000000000000000, 0.0000000000000000000, 0.0000000000000000000, 0.0000000000000000000 ) ;
#273 = DIMENSIONAL_EXPONENTS ( 1.000000000000000000, 0.0000000000000000000, 0.0000000000000000000, 0.0000000000000000000, 0.0000000000000000000, 0.0000000000000000000, 0.0000000000000000000 ) ;
#274 = AXIS2_PLACEMENT_3D ( 'NONE', #290, #194, #18 ) ;
#275 = CARTESIAN_POINT ( 'NONE',  ( 0.0000000000000000000, 0.0000000000000000000, 5.905511999999999873 ) ) ;
#276 = UNCERTAINTY_MEASURE_WITH_UNIT (LENGTH_MEASURE( 1.000000000000000082E-05 ), #119, 'distance_accuracy_value', 'NONE');
#277 = APPLICATION_CONTEXT ( 'automotive_design' ) ;
#278 = DIRECTION ( 'NONE',  ( -0.0000000000000000000, -0.0000000000000000000, -1.000000000000000000 ) ) ;
#279 = ORIENTED_EDGE ( 'NONE', *, *, #34, .T. ) ;
#280 =( LENGTH_UNIT ( ) NAMED_UNIT ( * ) SI_UNIT ( $, .METRE. ) );
#281 = CARTESIAN_POINT ( 'NONE',  ( 0.0000000000000000000, 0.0000000000000000000, 0.0000000000000000000 ) ) ;
#282 = APPLICATION_CONTEXT ( 'automotive_design' ) ;
#283 = STYLED_ITEM ( 'NONE', ( #237 ), #94 ) ;
#284 = LENGTH_MEASURE_WITH_UNIT ( LENGTH_MEASURE( 0.02539999999999999897 ), #257 );
#285 = FACE_OUTER_BOUND ( 'NONE', #295, .T. ) ;
#286 =( CONVERSION_BASED_UNIT ( 'INCH', #284 ) LENGTH_UNIT ( ) NAMED_UNIT ( #273 ) );
#287 =( LENGTH_UNIT ( ) NAMED_UNIT ( * ) SI_UNIT ( $, .METRE. ) );
#288 = DIRECTION ( 'NONE',  ( 0.0000000000000000000, 0.0000000000000000000, 1.000000000000000000 ) ) ;
#289 = AXIS2_PLACEMENT_3D ( 'NONE', #232, #102, #166 ) ;
#290 = CARTESIAN_POINT ( 'NONE',  ( 0.0000000000000000000, 0.0000000000000000000, 5.905511999999999873 ) ) ;
#291 = DIRECTION ( 'NONE',  ( -1.224646799147353207E-16, -0.0000000000000000000, -1.000000000000000000 ) ) ;
#292 = EDGE_CURVE ( 'NONE', #31, #101, #68, .T. ) ;
#293 = STYLED_ITEM ( 'NONE', ( #186 ), #41 ) ;
#294 = ADVANCED_FACE ( 'NONE', ( #17 ), #83, .T. ) ;
#295 = EDGE_LOOP ( 'NONE', ( #3, #243, #269, #172 ) ) ;
#296 = VECTOR ( 'NONE', #100, 39.37007874015748143 ) ;
#297 = DIMENSIONAL_EXPONENTS ( 1.000000000000000000, 0.0000000000000000000, 0.0000000000000000000, 0.0000000000000000000, 0.0000000000000000000, 0.0000000000000000000, 0.0000000000000000000 ) ;
#298 = VERTEX_POINT ( 'NONE', #141 ) ;
#299 = AXIS2_PLACEMENT_3D ( 'NONE', #255, #121, #259 ) ;
ENDSEC;
END-ISO-10303-21;
