ISO-10303-21;
HEADER;
FILE_DESCRIPTION (( 'STEP AP214' ),
    '1' );
FILE_NAME ('59620.STEP',
    '2023-07-24T15:16:10',
    ( '' ),
    ( '' ),
    'SwSTEP 2.0',
    'SolidWorks 2023',
    '' );
FILE_SCHEMA (( 'AUTOMOTIVE_DESIGN' ));
ENDSEC;

DATA;
#1 = CIRCLE ( 'NONE', #362, 8.000000000000000000 ) ;
#2 = AXIS2_PLACEMENT_3D ( 'NONE', #8, #321, #122 ) ;
#3 = ADVANCED_FACE ( 'NONE', ( #296 ), #208, .T. ) ;
#4 =( GEOMETRIC_REPRESENTATION_CONTEXT ( 3 ) GLOBAL_UNCERTAINTY_ASSIGNED_CONTEXT ( ( #109 ) ) GLOBAL_UNIT_ASSIGNED_CONTEXT ( ( #351, #353, #237 ) ) REPRESENTATION_CONTEXT ( 'NONE', 'WORKASPACE' ) );
#5 = SURFACE_SIDE_STYLE ('',( #346 ) ) ;
#6 = COLOUR_RGB ( '',1.000000000000000000, 0.000000000000000000, 0.000000000000000000 ) ;
#7 = PRODUCT_RELATED_PRODUCT_CATEGORY ( 'part', '', ( #36 ) ) ;
#8 = CARTESIAN_POINT ( 'NONE',  ( 0.000000000000000000, 0.000000000000000000, 0.000000000000000000 ) ) ;
#9 = DIRECTION ( 'NONE',  ( -1.279215233315390572E-16, 1.000000000000000000, -0.000000000000000000 ) ) ;
#10 =( GEOMETRIC_REPRESENTATION_CONTEXT ( 3 ) GLOBAL_UNCERTAINTY_ASSIGNED_CONTEXT ( ( #203 ) ) GLOBAL_UNIT_ASSIGNED_CONTEXT ( ( #114, #183, #359 ) ) REPRESENTATION_CONTEXT ( 'NONE', 'WORKASPACE' ) );
#11 = EDGE_LOOP ( 'NONE', ( #214, #71 ) ) ;
#12 = CIRCLE ( 'NONE', #245, 8.000000000000001776 ) ;
#13 = ORIENTED_EDGE ( 'NONE', *, *, #190, .T. ) ;
#14 = FILL_AREA_STYLE_COLOUR ( '', #39 ) ;
#15 = CARTESIAN_POINT ( 'NONE',  ( 8.000000000000000000, 40.00000000000000000, 9.797174393178825657E-16 ) ) ;
#16 = EDGE_LOOP ( 'NONE', ( #157, #99, #330, #38 ) ) ;
#17 = CARTESIAN_POINT ( 'NONE',  ( -1.714505518806293652E-15, 89.00000000000000000, 0.000000000000000000 ) ) ;
#18 = ORIENTED_EDGE ( 'NONE', *, *, #251, .F. ) ;
#19 = DIRECTION ( 'NONE',  ( -1.000000000000000000, 0.000000000000000000, 0.000000000000000000 ) ) ;
#20 = STYLED_ITEM ( 'NONE', ( #156 ), #3 ) ;
#21 = ORIENTED_EDGE ( 'NONE', *, *, #238, .T. ) ;
#22 = CARTESIAN_POINT ( 'NONE',  ( 0.000000000000000000, 1.000000000000000000, -8.000000000000000000 ) ) ;
#23 =( GEOMETRIC_REPRESENTATION_CONTEXT ( 3 ) GLOBAL_UNCERTAINTY_ASSIGNED_CONTEXT ( ( #147 ) ) GLOBAL_UNIT_ASSIGNED_CONTEXT ( ( #79, #72, #294 ) ) REPRESENTATION_CONTEXT ( 'NONE', 'WORKASPACE' ) );
#24 = DIRECTION ( 'NONE',  ( 0.000000000000000000, 0.000000000000000000, -1.000000000000000000 ) ) ;
#25 = FILL_AREA_STYLE ('',( #225 ) ) ;
#26 = DIRECTION ( 'NONE',  ( 0.000000000000000000, 0.000000000000000000, 1.000000000000000000 ) ) ;
#27 = ADVANCED_BREP_SHAPE_REPRESENTATION ( '59620', ( #311, #73, #57 ), #325 ) ;
#28 = PRODUCT_CONTEXT ( 'NONE', #69, 'mechanical' ) ;
#29 = ADVANCED_FACE ( 'NONE', ( #267 ), #68, .T. ) ;
#30 = FILL_AREA_STYLE_COLOUR ( '', #32 ) ;
#31 = COLOUR_RGB ( '',1.000000000000000000, 0.000000000000000000, 0.000000000000000000 ) ;
#32 = COLOUR_RGB ( '',0.7921568627450980005, 0.8196078431372548767, 0.9333333333333333481 ) ;
#33 = FILL_AREA_STYLE ('',( #14 ) ) ;
#34 = SURFACE_STYLE_USAGE ( .BOTH. , #128 ) ;
#35 = CARTESIAN_POINT ( 'NONE',  ( 0.000000000000000000, 40.00000000000000000, 0.000000000000000000 ) ) ;
#36 = PRODUCT ( '59620', '59620', '', ( #28 ) ) ;
#37 = DIRECTION ( 'NONE',  ( 0.000000000000000000, 0.000000000000000000, -1.000000000000000000 ) ) ;
#38 = ORIENTED_EDGE ( 'NONE', *, *, #223, .F. ) ;
#39 = COLOUR_RGB ( '',1.000000000000000000, 0.000000000000000000, 0.000000000000000000 ) ;
#40 = EDGE_LOOP ( 'NONE', ( #151, #13 ) ) ;
#41 = EDGE_CURVE ( 'NONE', #328, #123, #205, .T. ) ;
#42 = DIRECTION ( 'NONE',  ( 0.000000000000000000, 0.000000000000000000, -1.000000000000000000 ) ) ;
#43 =( NAMED_UNIT ( * ) PLANE_ANGLE_UNIT ( ) SI_UNIT ( $, .RADIAN. ) );
#44 = ORIENTED_EDGE ( 'NONE', *, *, #190, .F. ) ;
#45 = ADVANCED_FACE ( 'NONE', ( #178 ), #94, .F. ) ;
#46 = ORIENTED_EDGE ( 'NONE', *, *, #146, .F. ) ;
#47 = FILL_AREA_STYLE_COLOUR ( '', #284 ) ;
#48 = SURFACE_STYLE_USAGE ( .BOTH. , #53 ) ;
#49 = AXIS2_PLACEMENT_3D ( 'NONE', #370, #222, #111 ) ;
#50 =( NAMED_UNIT ( * ) SI_UNIT ( $, .STERADIAN. ) SOLID_ANGLE_UNIT ( ) );
#51 = AXIS2_PLACEMENT_3D ( 'NONE', #89, #173, #66 ) ;
#52 = CYLINDRICAL_SURFACE ( 'NONE', #121, 7.999999999999998224 ) ;
#53 = SURFACE_SIDE_STYLE ('',( #87 ) ) ;
#54 = CIRCLE ( 'NONE', #152, 1.000000000000000000 ) ;
#55 = AXIS2_PLACEMENT_3D ( 'NONE', #327, #366, #329 ) ;
#56 = FACE_OUTER_BOUND ( 'NONE', #11, .T. ) ;
#57 = AXIS2_PLACEMENT_3D ( 'NONE', #253, #341, #86 ) ;
#58 = DIRECTION ( 'NONE',  ( 0.000000000000000000, 0.000000000000000000, -1.000000000000000000 ) ) ;
#59 = SURFACE_STYLE_FILL_AREA ( #291 ) ;
#60 =( LENGTH_UNIT ( ) NAMED_UNIT ( * ) SI_UNIT ( .MILLI., .METRE. ) );
#61 = CARTESIAN_POINT ( 'NONE',  ( 0.000000000000000000, 0.000000000000000000, 0.000000000000000000 ) ) ;
#62 = DIRECTION ( 'NONE',  ( 0.000000000000000000, 0.000000000000000000, -1.000000000000000000 ) ) ;
#63 = ADVANCED_FACE ( 'NONE', ( #234 ), #354, .T. ) ;
#64 = ORIENTED_EDGE ( 'NONE', *, *, #238, .F. ) ;
#65 = COLOUR_RGB ( '',1.000000000000000000, 0.000000000000000000, 0.000000000000000000 ) ;
#66 = DIRECTION ( 'NONE',  ( 0.000000000000000000, 0.000000000000000000, -1.000000000000000000 ) ) ;
#67 = COLOUR_RGB ( '',1.000000000000000000, 0.000000000000000000, 0.000000000000000000 ) ;
#68 = CYLINDRICAL_SURFACE ( 'NONE', #181, 7.999999999999998224 ) ;
#69 = APPLICATION_CONTEXT ( 'automotive_design' ) ;
#70 = AXIS2_PLACEMENT_3D ( 'NONE', #161, #246, #250 ) ;
#71 = ORIENTED_EDGE ( 'NONE', *, *, #277, .T. ) ;
#72 =( NAMED_UNIT ( * ) PLANE_ANGLE_UNIT ( ) SI_UNIT ( $, .RADIAN. ) );
#73 = MANIFOLD_SOLID_BREP ( 'Revolve - Tool Body (Straight Shanked)', #230 ) ;
#74 =( NAMED_UNIT ( * ) PLANE_ANGLE_UNIT ( ) SI_UNIT ( $, .RADIAN. ) );
#75 = SURFACE_STYLE_FILL_AREA ( #357 ) ;
#76 =( GEOMETRIC_REPRESENTATION_CONTEXT ( 3 ) GLOBAL_UNCERTAINTY_ASSIGNED_CONTEXT ( ( #309 ) ) GLOBAL_UNIT_ASSIGNED_CONTEXT ( ( #322, #43, #115 ) ) REPRESENTATION_CONTEXT ( 'NONE', 'WORKASPACE' ) );
#77 = EDGE_LOOP ( 'NONE', ( #186, #191, #272, #292 ) ) ;
#78 = CARTESIAN_POINT ( 'NONE',  ( -7.999999999999989342, 40.00000000000000000, 0.000000000000000000 ) ) ;
#79 =( LENGTH_UNIT ( ) NAMED_UNIT ( * ) SI_UNIT ( .MILLI., .METRE. ) );
#80 = EDGE_CURVE ( 'NONE', #216, #356, #283, .T. ) ;
#81 = DIRECTION ( 'NONE',  ( -1.279215233315390572E-16, 1.000000000000000000, -0.000000000000000000 ) ) ;
#82 = CIRCLE ( 'NONE', #188, 1.000000000000000000 ) ;
#83 = UNCERTAINTY_MEASURE_WITH_UNIT (LENGTH_MEASURE( 1.000000000000000082E-05 ), #192, 'distance_accuracy_value', 'NONE');
#84 = SURFACE_STYLE_USAGE ( .BOTH. , #306 ) ;
#85 = CARTESIAN_POINT ( 'NONE',  ( 0.000000000000000000, 1.000000000000000000, 0.000000000000000000 ) ) ;
#86 = DIRECTION ( 'NONE',  ( 1.000000000000000000, 0.000000000000000000, 0.000000000000000000 ) ) ;
#87 = SURFACE_STYLE_FILL_AREA ( #113 ) ;
#88 = PRESENTATION_STYLE_ASSIGNMENT (( #124 ) ) ;
#89 = CARTESIAN_POINT ( 'NONE',  ( 0.000000000000000000, 0.000000000000000000, 0.000000000000000000 ) ) ;
#90 = PLANE ( 'NONE',  #217 ) ;
#91 = AXIS2_PLACEMENT_3D ( 'NONE', #35, #148, #62 ) ;
#92 = MECHANICAL_DESIGN_GEOMETRIC_PRESENTATION_REPRESENTATION (  '', ( #308 ), #344 ) ;
#93 = SURFACE_STYLE_FILL_AREA ( #317 ) ;
#94 = PLANE ( 'NONE',  #231 ) ;
#95 = DIRECTION ( 'NONE',  ( -0.000000000000000000, -1.000000000000000000, -0.000000000000000000 ) ) ;
#96 = EDGE_CURVE ( 'NONE', #97, #159, #196, .T. ) ;
#97 = VERTEX_POINT ( 'NONE', #279 ) ;
#98 = CARTESIAN_POINT ( 'NONE',  ( 0.000000000000000000, 40.00000000000000000, 0.000000000000000000 ) ) ;
#99 = ORIENTED_EDGE ( 'NONE', *, *, #146, .T. ) ;
#100 = LINE ( 'NONE', #182, #274 ) ;
#101 = SURFACE_STYLE_FILL_AREA ( #206 ) ;
#102 = COLOUR_RGB ( '',0.7921568627450980005, 0.8196078431372548767, 0.9333333333333333481 ) ;
#103 = CARTESIAN_POINT ( 'NONE',  ( 8.000000000000000000, 89.00000000000000000, 0.000000000000000000 ) ) ;
#104 = PRESENTATION_LAYER_ASSIGNMENT (  '', '', ( #308 ) ) ;
#105 = ORIENTED_EDGE ( 'NONE', *, *, #155, .F. ) ;
#106 = DIRECTION ( 'NONE',  ( 0.000000000000000000, 0.000000000000000000, -1.000000000000000000 ) ) ;
#107 = APPLICATION_PROTOCOL_DEFINITION ( 'draft international standard', 'automotive_design', 1998, #69 ) ;
#108 = ADVANCED_FACE ( 'NONE', ( #198 ), #52, .T. ) ;
#109 = UNCERTAINTY_MEASURE_WITH_UNIT (LENGTH_MEASURE( 1.000000000000000082E-05 ), #351, 'distance_accuracy_value', 'NONE');
#110 = CARTESIAN_POINT ( 'NONE',  ( 7.999999999999996447, 89.00000000000000000, 9.797174393178823685E-16 ) ) ;
#111 = DIRECTION ( 'NONE',  ( 0.000000000000000000, 0.000000000000000000, -1.000000000000000000 ) ) ;
#112 = STYLED_ITEM ( 'NONE', ( #254 ), #73 ) ;
#113 = FILL_AREA_STYLE ('',( #305 ) ) ;
#114 =( LENGTH_UNIT ( ) NAMED_UNIT ( * ) SI_UNIT ( .MILLI., .METRE. ) );
#115 =( NAMED_UNIT ( * ) SI_UNIT ( $, .STERADIAN. ) SOLID_ANGLE_UNIT ( ) );
#116 = MECHANICAL_DESIGN_GEOMETRIC_PRESENTATION_REPRESENTATION (  '', ( #112 ), #307 ) ;
#117 = STYLED_ITEM ( 'NONE', ( #258 ), #311 ) ;
#118 = DIRECTION ( 'NONE',  ( -1.000000000000000000, 0.000000000000000000, 0.000000000000000000 ) ) ;
#119 =( NAMED_UNIT ( * ) PLANE_ANGLE_UNIT ( ) SI_UNIT ( $, .RADIAN. ) );
#120 = DIRECTION ( 'NONE',  ( -1.000000000000000000, 0.000000000000000000, 0.000000000000000000 ) ) ;
#121 = AXIS2_PLACEMENT_3D ( 'NONE', #221, #140, #228 ) ;
#122 = DIRECTION ( 'NONE',  ( 0.000000000000000000, 0.000000000000000000, -1.000000000000000000 ) ) ;
#123 = VERTEX_POINT ( 'NONE', #169 ) ;
#124 = SURFACE_STYLE_USAGE ( .BOTH. , #5 ) ;
#125 = DIRECTION ( 'NONE',  ( -0.000000000000000000, -1.000000000000000000, -0.000000000000000000 ) ) ;
#126 = ORIENTED_EDGE ( 'NONE', *, *, #277, .F. ) ;
#127 = LINE ( 'NONE', #241, #227 ) ;
#128 = SURFACE_SIDE_STYLE ('',( #101 ) ) ;
#129 = VERTEX_POINT ( 'NONE', #78 ) ;
#130 = AXIS2_PLACEMENT_3D ( 'NONE', #85, #170, #106 ) ;
#131 = TOROIDAL_SURFACE ( 'NONE', #201, 7.000000000000000000, 1.000000000000000000 ) ;
#132 =( NAMED_UNIT ( * ) SI_UNIT ( $, .STERADIAN. ) SOLID_ANGLE_UNIT ( ) );
#133 = ORIENTED_EDGE ( 'NONE', *, *, #347, .T. ) ;
#134 = FACE_OUTER_BOUND ( 'NONE', #164, .T. ) ;
#135 = DIRECTION ( 'NONE',  ( -0.000000000000000000, -1.000000000000000000, -0.000000000000000000 ) ) ;
#136 = EDGE_CURVE ( 'NONE', #356, #216, #1, .T. ) ;
#137 = APPLICATION_PROTOCOL_DEFINITION ( 'draft international standard', 'automotive_design', 1998, #162 ) ;
#138 =( NAMED_UNIT ( * ) PLANE_ANGLE_UNIT ( ) SI_UNIT ( $, .RADIAN. ) );
#139 = AXIS2_PLACEMENT_3D ( 'NONE', #61, #125, #239 ) ;
#140 = DIRECTION ( 'NONE',  ( -1.279215233315390572E-16, 1.000000000000000000, -0.000000000000000000 ) ) ;
#141 = UNCERTAINTY_MEASURE_WITH_UNIT (LENGTH_MEASURE( 1.000000000000000082E-05 ), #60, 'distance_accuracy_value', 'NONE');
#142 = UNCERTAINTY_MEASURE_WITH_UNIT (LENGTH_MEASURE( 1.000000000000000082E-05 ), #171, 'distance_accuracy_value', 'NONE');
#143 = SURFACE_STYLE_USAGE ( .BOTH. , #266 ) ;
#144 = MECHANICAL_DESIGN_GEOMETRIC_PRESENTATION_REPRESENTATION (  '', ( #117 ), #363 ) ;
#145 = SURFACE_SIDE_STYLE ('',( #93 ) ) ;
#146 = EDGE_CURVE ( 'NONE', #240, #275, #252, .T. ) ;
#147 = UNCERTAINTY_MEASURE_WITH_UNIT (LENGTH_MEASURE( 1.000000000000000082E-05 ), #79, 'distance_accuracy_value', 'NONE');
#148 = DIRECTION ( 'NONE',  ( -0.000000000000000000, -1.000000000000000000, -0.000000000000000000 ) ) ;
#149 = FILL_AREA_STYLE ('',( #30 ) ) ;
#150 = CARTESIAN_POINT ( 'NONE',  ( 9.797174393178825657E-16, 1.000000000000000000, 8.000000000000000000 ) ) ;
#151 = ORIENTED_EDGE ( 'NONE', *, *, #333, .T. ) ;
#152 = AXIS2_PLACEMENT_3D ( 'NONE', #179, #355, #268 ) ;
#153 = PRESENTATION_STYLE_ASSIGNMENT (( #348 ) ) ;
#154 = CARTESIAN_POINT ( 'NONE',  ( -1.714505518806293849E-15, 89.00000000000000000, 0.000000000000000000 ) ) ;
#155 = EDGE_CURVE ( 'NONE', #356, #328, #82, .T. ) ;
#156 = PRESENTATION_STYLE_ASSIGNMENT (( #165 ) ) ;
#157 = ORIENTED_EDGE ( 'NONE', *, *, #251, .T. ) ;
#158 = CARTESIAN_POINT ( 'NONE',  ( 4.553649124439119412E-15, 40.00000000000000000, 0.000000000000000000 ) ) ;
#159 = VERTEX_POINT ( 'NONE', #280 ) ;
#160 = VECTOR ( 'NONE', #319, 1000.000000000000000 ) ;
#161 = CARTESIAN_POINT ( 'NONE',  ( 4.553649124439118623E-15, 40.00000000000000000, 0.000000000000000000 ) ) ;
#162 = APPLICATION_CONTEXT ( 'automotive_design' ) ;
#163 = CARTESIAN_POINT ( 'NONE',  ( 0.000000000000000000, 1.000000000000000000, 0.000000000000000000 ) ) ;
#164 = EDGE_LOOP ( 'NONE', ( #18, #184 ) ) ;
#165 = SURFACE_STYLE_USAGE ( .BOTH. , #248 ) ;
#166 = PRESENTATION_STYLE_ASSIGNMENT (( #48 ) ) ;
#167 = DIRECTION ( 'NONE',  ( 0.000000000000000000, 0.000000000000000000, -1.000000000000000000 ) ) ;
#168 = UNCERTAINTY_MEASURE_WITH_UNIT (LENGTH_MEASURE( 1.000000000000000082E-05 ), #278, 'distance_accuracy_value', 'NONE');
#169 = CARTESIAN_POINT ( 'NONE',  ( 9.184850993605147944E-16, 0.000000000000000000, 7.000000000000000000 ) ) ;
#170 = DIRECTION ( 'NONE',  ( -0.000000000000000000, -1.000000000000000000, -0.000000000000000000 ) ) ;
#171 =( LENGTH_UNIT ( ) NAMED_UNIT ( * ) SI_UNIT ( .MILLI., .METRE. ) );
#172 = STYLED_ITEM ( 'NONE', ( #270 ), #343 ) ;
#173 = DIRECTION ( 'NONE',  ( -0.000000000000000000, -1.000000000000000000, -0.000000000000000000 ) ) ;
#174 = CARTESIAN_POINT ( 'NONE',  ( 0.000000000000000000, 0.000000000000000000, 0.000000000000000000 ) ) ;
#175 = LINE ( 'NONE', #209, #160 ) ;
#176 = PLANE ( 'NONE',  #70 ) ;
#177 = FILL_AREA_STYLE_COLOUR ( '', #65 ) ;
#178 = FACE_OUTER_BOUND ( 'NONE', #40, .T. ) ;
#179 = CARTESIAN_POINT ( 'NONE',  ( 8.572527594031473190E-16, 1.000000000000000000, 7.000000000000000000 ) ) ;
#180 = ORIENTED_EDGE ( 'NONE', *, *, #96, .F. ) ;
#181 = AXIS2_PLACEMENT_3D ( 'NONE', #154, #326, #120 ) ;
#182 = CARTESIAN_POINT ( 'NONE',  ( 9.797174393178825657E-16, 0.000000000000000000, 8.000000000000000000 ) ) ;
#183 =( NAMED_UNIT ( * ) PLANE_ANGLE_UNIT ( ) SI_UNIT ( $, .RADIAN. ) );
#184 = ORIENTED_EDGE ( 'NONE', *, *, #345, .F. ) ;
#185 = DIRECTION ( 'NONE',  ( -0.000000000000000000, -1.000000000000000000, -0.000000000000000000 ) ) ;
#186 = ORIENTED_EDGE ( 'NONE', *, *, #229, .T. ) ;
#187 = EDGE_LOOP ( 'NONE', ( #358, #269, #133, #261 ) ) ;
#188 = AXIS2_PLACEMENT_3D ( 'NONE', #368, #338, #26 ) ;
#189 =( NAMED_UNIT ( * ) SI_UNIT ( $, .STERADIAN. ) SOLID_ANGLE_UNIT ( ) );
#190 = EDGE_CURVE ( 'NONE', #275, #320, #360, .T. ) ;
#191 = ORIENTED_EDGE ( 'NONE', *, *, #285, .T. ) ;
#192 =( LENGTH_UNIT ( ) NAMED_UNIT ( * ) SI_UNIT ( .MILLI., .METRE. ) );
#193 = CARTESIAN_POINT ( 'NONE',  ( -1.714505518806293652E-15, 89.00000000000000000, 0.000000000000000000 ) ) ;
#194 = DIRECTION ( 'NONE',  ( -1.279215233315390572E-16, 1.000000000000000000, -0.000000000000000000 ) ) ;
#195 = AXIS2_PLACEMENT_3D ( 'NONE', #193, #194, #256 ) ;
#196 = CIRCLE ( 'NONE', #263, 8.000000000000000000 ) ;
#197 = FACE_OUTER_BOUND ( 'NONE', #220, .T. ) ;
#198 = FACE_OUTER_BOUND ( 'NONE', #16, .T. ) ;
#199 = ADVANCED_FACE ( 'NONE', ( #197 ), #90, .T. ) ;
#200 = AXIS2_PLACEMENT_3D ( 'NONE', #158, #9, #118 ) ;
#201 = AXIS2_PLACEMENT_3D ( 'NONE', #233, #95, #58 ) ;
#202 =( NAMED_UNIT ( * ) SI_UNIT ( $, .STERADIAN. ) SOLID_ANGLE_UNIT ( ) );
#203 = UNCERTAINTY_MEASURE_WITH_UNIT (LENGTH_MEASURE( 1.000000000000000082E-05 ), #114, 'distance_accuracy_value', 'NONE');
#204 = DIRECTION ( 'NONE',  ( 0.000000000000000000, 1.000000000000000000, 0.000000000000000000 ) ) ;
#205 = CIRCLE ( 'NONE', #139, 7.000000000000000000 ) ;
#206 = FILL_AREA_STYLE ('',( #262 ) ) ;
#207 = CARTESIAN_POINT ( 'NONE',  ( 8.000000000000000000, 89.00000000000000000, 9.797174393178825657E-16 ) ) ;
#208 = CYLINDRICAL_SURFACE ( 'NONE', #323, 8.000000000000000000 ) ;
#209 = CARTESIAN_POINT ( 'NONE',  ( -8.000000000000000000, 89.00000000000000000, 0.000000000000000000 ) ) ;
#210 = ORIENTED_EDGE ( 'NONE', *, *, #155, .T. ) ;
#211 = ORIENTED_EDGE ( 'NONE', *, *, #41, .F. ) ;
#212 = FACE_OUTER_BOUND ( 'NONE', #365, .T. ) ;
#213 = PRESENTATION_STYLE_ASSIGNMENT (( #34 ) ) ;
#214 = ORIENTED_EDGE ( 'NONE', *, *, #41, .T. ) ;
#215 =( LENGTH_UNIT ( ) NAMED_UNIT ( * ) SI_UNIT ( .MILLI., .METRE. ) );
#216 = VERTEX_POINT ( 'NONE', #150 ) ;
#217 = AXIS2_PLACEMENT_3D ( 'NONE', #98, #204, #314 ) ;
#218 = CIRCLE ( 'NONE', #55, 7.999999999999994671 ) ;
#219 = CARTESIAN_POINT ( 'NONE',  ( 0.000000000000000000, 40.00000000000000000, 0.000000000000000000 ) ) ;
#220 = EDGE_LOOP ( 'NONE', ( #299, #180 ) ) ;
#221 = CARTESIAN_POINT ( 'NONE',  ( -1.714505518806293849E-15, 89.00000000000000000, 0.000000000000000000 ) ) ;
#222 = DIRECTION ( 'NONE',  ( -0.000000000000000000, -1.000000000000000000, -0.000000000000000000 ) ) ;
#223 = EDGE_CURVE ( 'NONE', #129, #320, #175, .T. ) ;
#224 = DIRECTION ( 'NONE',  ( -0.000000000000000000, -1.000000000000000000, -0.000000000000000000 ) ) ;
#225 = FILL_AREA_STYLE_COLOUR ( '', #102 ) ;
#226 = PRESENTATION_LAYER_ASSIGNMENT (  '', '', ( #112 ) ) ;
#227 = VECTOR ( 'NONE', #298, 1000.000000000000000 ) ;
#228 = DIRECTION ( 'NONE',  ( -1.000000000000000000, 0.000000000000000000, 0.000000000000000000 ) ) ;
#229 = EDGE_CURVE ( 'NONE', #159, #97, #255, .T. ) ;
#230 = CLOSED_SHELL ( 'NONE', ( #108, #316, #29, #45 ) ) ;
#231 = AXIS2_PLACEMENT_3D ( 'NONE', #103, #289, #271 ) ;
#232 = PLANE ( 'NONE',  #2 ) ;
#233 = CARTESIAN_POINT ( 'NONE',  ( 0.000000000000000000, 1.000000000000000000, 0.000000000000000000 ) ) ;
#234 = FACE_OUTER_BOUND ( 'NONE', #77, .T. ) ;
#235 = MECHANICAL_DESIGN_GEOMETRIC_PRESENTATION_REPRESENTATION (  '', ( #300 ), #76 ) ;
#236 = AXIS2_PLACEMENT_3D ( 'NONE', #163, #185, #42 ) ;
#237 =( NAMED_UNIT ( * ) SI_UNIT ( $, .STERADIAN. ) SOLID_ANGLE_UNIT ( ) );
#238 = EDGE_CURVE ( 'NONE', #216, #123, #54, .T. ) ;
#239 = DIRECTION ( 'NONE',  ( 0.000000000000000000, 0.000000000000000000, -1.000000000000000000 ) ) ;
#240 = VERTEX_POINT ( 'NONE', #15 ) ;
#241 = CARTESIAN_POINT ( 'NONE',  ( 0.000000000000000000, 0.000000000000000000, -8.000000000000000000 ) ) ;
#242 = ORIENTED_EDGE ( 'NONE', *, *, #136, .T. ) ;
#243 = STYLED_ITEM ( 'NONE', ( #166 ), #199 ) ;
#244 = PRESENTATION_LAYER_ASSIGNMENT (  '', '', ( #172 ) ) ;
#245 = AXIS2_PLACEMENT_3D ( 'NONE', #17, #247, #19 ) ;
#246 = DIRECTION ( 'NONE',  ( -1.279215233315390572E-16, 1.000000000000000000, 0.000000000000000000 ) ) ;
#247 = DIRECTION ( 'NONE',  ( -1.279215233315390572E-16, 1.000000000000000000, -0.000000000000000000 ) ) ;
#248 = SURFACE_SIDE_STYLE ('',( #59 ) ) ;
#249 = STYLED_ITEM ( 'NONE', ( #88 ), #265 ) ;
#250 = DIRECTION ( 'NONE',  ( -1.000000000000000000, -1.279215233315390572E-16, 0.000000000000000000 ) ) ;
#251 = EDGE_CURVE ( 'NONE', #129, #240, #367, .T. ) ;
#252 = LINE ( 'NONE', #110, #310 ) ;
#253 = CARTESIAN_POINT ( 'NONE',  ( 0.000000000000000000, 0.000000000000000000, 0.000000000000000000 ) ) ;
#254 = PRESENTATION_STYLE_ASSIGNMENT (( #84 ) ) ;
#255 = CIRCLE ( 'NONE', #91, 8.000000000000000000 ) ;
#256 = DIRECTION ( 'NONE',  ( -1.000000000000000000, 0.000000000000000000, 0.000000000000000000 ) ) ;
#257 = SHAPE_DEFINITION_REPRESENTATION ( #361, #27 ) ;
#258 = PRESENTATION_STYLE_ASSIGNMENT (( #143 ) ) ;
#259 =( GEOMETRIC_REPRESENTATION_CONTEXT ( 3 ) GLOBAL_UNCERTAINTY_ASSIGNED_CONTEXT ( ( #142 ) ) GLOBAL_UNIT_ASSIGNED_CONTEXT ( ( #171, #119, #202 ) ) REPRESENTATION_CONTEXT ( 'NONE', 'WORKASPACE' ) );
#260 =( NAMED_UNIT ( * ) PLANE_ANGLE_UNIT ( ) SI_UNIT ( $, .RADIAN. ) );
#261 = ORIENTED_EDGE ( 'NONE', *, *, #80, .F. ) ;
#262 = FILL_AREA_STYLE_COLOUR ( '', #67 ) ;
#263 = AXIS2_PLACEMENT_3D ( 'NONE', #219, #135, #24 ) ;
#264 = ORIENTED_EDGE ( 'NONE', *, *, #223, .T. ) ;
#265 = ADVANCED_FACE ( 'NONE', ( #312 ), #131, .T. ) ;
#266 = SURFACE_SIDE_STYLE ('',( #290 ) ) ;
#267 = FACE_OUTER_BOUND ( 'NONE', #324, .T. ) ;
#268 = DIRECTION ( 'NONE',  ( -1.224646799147353454E-16, 0.000000000000000000, -1.000000000000000000 ) ) ;
#269 = ORIENTED_EDGE ( 'NONE', *, *, #96, .T. ) ;
#270 = PRESENTATION_STYLE_ASSIGNMENT (( #334 ) ) ;
#271 = DIRECTION ( 'NONE',  ( 1.000000000000000000, 1.279215233315390572E-16, 0.000000000000000000 ) ) ;
#272 = ORIENTED_EDGE ( 'NONE', *, *, #136, .F. ) ;
#273 = MECHANICAL_DESIGN_GEOMETRIC_PRESENTATION_REPRESENTATION (  '', ( #243 ), #10 ) ;
#274 = VECTOR ( 'NONE', #315, 1000.000000000000000 ) ;
#275 = VERTEX_POINT ( 'NONE', #207 ) ;
#276 = ADVANCED_FACE ( 'NONE', ( #56 ), #232, .T. ) ;
#277 = EDGE_CURVE ( 'NONE', #123, #328, #287, .T. ) ;
#278 =( LENGTH_UNIT ( ) NAMED_UNIT ( * ) SI_UNIT ( .MILLI., .METRE. ) );
#279 = CARTESIAN_POINT ( 'NONE',  ( 9.797174393178825657E-16, 40.00000000000000000, 8.000000000000000000 ) ) ;
#280 = CARTESIAN_POINT ( 'NONE',  ( 0.000000000000000000, 40.00000000000000000, -8.000000000000000000 ) ) ;
#281 = UNCERTAINTY_MEASURE_WITH_UNIT (LENGTH_MEASURE( 1.000000000000000082E-05 ), #215, 'distance_accuracy_value', 'NONE');
#282 = SURFACE_STYLE_FILL_AREA ( #25 ) ;
#283 = CIRCLE ( 'NONE', #130, 8.000000000000000000 ) ;
#284 = COLOUR_RGB ( '',1.000000000000000000, 0.000000000000000000, 0.000000000000000000 ) ;
#285 = EDGE_CURVE ( 'NONE', #97, #216, #100, .T. ) ;
#286 = PRESENTATION_LAYER_ASSIGNMENT (  '', '', ( #243 ) ) ;
#287 = CIRCLE ( 'NONE', #51, 7.000000000000000000 ) ;
#288 =( NAMED_UNIT ( * ) SI_UNIT ( $, .STERADIAN. ) SOLID_ANGLE_UNIT ( ) );
#289 = DIRECTION ( 'NONE',  ( 1.279215233315390572E-16, -1.000000000000000000, 0.000000000000000000 ) ) ;
#290 = SURFACE_STYLE_FILL_AREA ( #149 ) ;
#291 = FILL_AREA_STYLE ('',( #177 ) ) ;
#292 = ORIENTED_EDGE ( 'NONE', *, *, #347, .F. ) ;
#293 = PRESENTATION_LAYER_ASSIGNMENT (  '', '', ( #249 ) ) ;
#294 =( NAMED_UNIT ( * ) SI_UNIT ( $, .STERADIAN. ) SOLID_ANGLE_UNIT ( ) );
#295 = EDGE_LOOP ( 'NONE', ( #64, #297, #210, #126 ) ) ;
#296 = FACE_OUTER_BOUND ( 'NONE', #187, .T. ) ;
#297 = ORIENTED_EDGE ( 'NONE', *, *, #80, .T. ) ;
#298 = DIRECTION ( 'NONE',  ( -0.000000000000000000, -1.000000000000000000, -0.000000000000000000 ) ) ;
#299 = ORIENTED_EDGE ( 'NONE', *, *, #229, .F. ) ;
#300 = STYLED_ITEM ( 'NONE', ( #213 ), #63 ) ;
#301 = PRESENTATION_LAYER_ASSIGNMENT (  '', '', ( #117 ) ) ;
#302 = CARTESIAN_POINT ( 'NONE',  ( 0.000000000000000000, 0.000000000000000000, -7.000000000000000000 ) ) ;
#303 = ORIENTED_EDGE ( 'NONE', *, *, #345, .T. ) ;
#304 = PRODUCT_DEFINITION ( 'UNKNOWN', '', #331, #336 ) ;
#305 = FILL_AREA_STYLE_COLOUR ( '', #31 ) ;
#306 = SURFACE_SIDE_STYLE ('',( #282 ) ) ;
#307 =( GEOMETRIC_REPRESENTATION_CONTEXT ( 3 ) GLOBAL_UNCERTAINTY_ASSIGNED_CONTEXT ( ( #168 ) ) GLOBAL_UNIT_ASSIGNED_CONTEXT ( ( #278, #138, #50 ) ) REPRESENTATION_CONTEXT ( 'NONE', 'WORKASPACE' ) );
#308 = STYLED_ITEM ( 'NONE', ( #153 ), #276 ) ;
#309 = UNCERTAINTY_MEASURE_WITH_UNIT (LENGTH_MEASURE( 1.000000000000000082E-05 ), #322, 'distance_accuracy_value', 'NONE');
#310 = VECTOR ( 'NONE', #81, 1000.000000000000000 ) ;
#311 = MANIFOLD_SOLID_BREP ( 'Revolve - Cutting Edge', #337 ) ;
#312 = FACE_OUTER_BOUND ( 'NONE', #295, .T. ) ;
#313 = MECHANICAL_DESIGN_GEOMETRIC_PRESENTATION_REPRESENTATION (  '', ( #20 ), #4 ) ;
#314 = DIRECTION ( 'NONE',  ( 0.000000000000000000, -0.000000000000000000, 1.000000000000000000 ) ) ;
#315 = DIRECTION ( 'NONE',  ( -0.000000000000000000, -1.000000000000000000, -0.000000000000000000 ) ) ;
#316 = ADVANCED_FACE ( 'NONE', ( #134 ), #176, .F. ) ;
#317 = FILL_AREA_STYLE ('',( #349 ) ) ;
#318 = DIRECTION ( 'NONE',  ( -0.000000000000000000, -1.000000000000000000, -0.000000000000000000 ) ) ;
#319 = DIRECTION ( 'NONE',  ( -1.279215233315390572E-16, 1.000000000000000000, -0.000000000000000000 ) ) ;
#320 = VERTEX_POINT ( 'NONE', #364 ) ;
#321 = DIRECTION ( 'NONE',  ( 0.000000000000000000, -1.000000000000000000, -0.000000000000000000 ) ) ;
#322 =( LENGTH_UNIT ( ) NAMED_UNIT ( * ) SI_UNIT ( .MILLI., .METRE. ) );
#323 = AXIS2_PLACEMENT_3D ( 'NONE', #174, #318, #37 ) ;
#324 = EDGE_LOOP ( 'NONE', ( #46, #303, #264, #44 ) ) ;
#325 =( GEOMETRIC_REPRESENTATION_CONTEXT ( 3 ) GLOBAL_UNCERTAINTY_ASSIGNED_CONTEXT ( ( #83 ) ) GLOBAL_UNIT_ASSIGNED_CONTEXT ( ( #192, #74, #189 ) ) REPRESENTATION_CONTEXT ( 'NONE', 'WORKASPACE' ) );
#326 = DIRECTION ( 'NONE',  ( -1.279215233315390572E-16, 1.000000000000000000, -0.000000000000000000 ) ) ;
#327 = CARTESIAN_POINT ( 'NONE',  ( 4.553649124439119412E-15, 40.00000000000000000, 0.000000000000000000 ) ) ;
#328 = VERTEX_POINT ( 'NONE', #302 ) ;
#329 = DIRECTION ( 'NONE',  ( -1.000000000000000000, 0.000000000000000000, 0.000000000000000000 ) ) ;
#330 = ORIENTED_EDGE ( 'NONE', *, *, #333, .F. ) ;
#331 = PRODUCT_DEFINITION_FORMATION_WITH_SPECIFIED_SOURCE ( 'ANY', '', #36, .NOT_KNOWN. ) ;
#332 =( NAMED_UNIT ( * ) PLANE_ANGLE_UNIT ( ) SI_UNIT ( $, .RADIAN. ) );
#333 = EDGE_CURVE ( 'NONE', #320, #275, #12, .T. ) ;
#334 = SURFACE_STYLE_USAGE ( .BOTH. , #369 ) ;
#335 = CARTESIAN_POINT ( 'NONE',  ( 0.000000000000000000, 1.000000000000000000, 0.000000000000000000 ) ) ;
#336 = PRODUCT_DEFINITION_CONTEXT ( 'detailed design', #162, 'design' ) ;
#337 = CLOSED_SHELL ( 'NONE', ( #63, #343, #276, #265, #3, #199 ) ) ;
#338 = DIRECTION ( 'NONE',  ( -1.000000000000000000, 0.000000000000000000, 0.000000000000000000 ) ) ;
#339 = PRESENTATION_LAYER_ASSIGNMENT (  '', '', ( #20 ) ) ;
#340 = MECHANICAL_DESIGN_GEOMETRIC_PRESENTATION_REPRESENTATION (  '', ( #172 ), #23 ) ;
#341 = DIRECTION ( 'NONE',  ( 0.000000000000000000, 0.000000000000000000, 1.000000000000000000 ) ) ;
#342 = MECHANICAL_DESIGN_GEOMETRIC_PRESENTATION_REPRESENTATION (  '', ( #249 ), #259 ) ;
#343 = ADVANCED_FACE ( 'NONE', ( #212 ), #352, .T. ) ;
#344 =( GEOMETRIC_REPRESENTATION_CONTEXT ( 3 ) GLOBAL_UNCERTAINTY_ASSIGNED_CONTEXT ( ( #141 ) ) GLOBAL_UNIT_ASSIGNED_CONTEXT ( ( #60, #260, #288 ) ) REPRESENTATION_CONTEXT ( 'NONE', 'WORKASPACE' ) );
#345 = EDGE_CURVE ( 'NONE', #240, #129, #218, .T. ) ;
#346 = SURFACE_STYLE_FILL_AREA ( #33 ) ;
#347 = EDGE_CURVE ( 'NONE', #159, #356, #127, .T. ) ;
#348 = SURFACE_STYLE_USAGE ( .BOTH. , #145 ) ;
#349 = FILL_AREA_STYLE_COLOUR ( '', #6 ) ;
#350 = PRESENTATION_LAYER_ASSIGNMENT (  '', '', ( #300 ) ) ;
#351 =( LENGTH_UNIT ( ) NAMED_UNIT ( * ) SI_UNIT ( .MILLI., .METRE. ) );
#352 = TOROIDAL_SURFACE ( 'NONE', #236, 7.000000000000000000, 1.000000000000000000 ) ;
#353 =( NAMED_UNIT ( * ) PLANE_ANGLE_UNIT ( ) SI_UNIT ( $, .RADIAN. ) );
#354 = CYLINDRICAL_SURFACE ( 'NONE', #49, 8.000000000000000000 ) ;
#355 = DIRECTION ( 'NONE',  ( 1.000000000000000000, 0.000000000000000000, -1.224646799147353207E-16 ) ) ;
#356 = VERTEX_POINT ( 'NONE', #22 ) ;
#357 = FILL_AREA_STYLE ('',( #47 ) ) ;
#358 = ORIENTED_EDGE ( 'NONE', *, *, #285, .F. ) ;
#359 =( NAMED_UNIT ( * ) SI_UNIT ( $, .STERADIAN. ) SOLID_ANGLE_UNIT ( ) );
#360 = CIRCLE ( 'NONE', #195, 8.000000000000001776 ) ;
#361 = PRODUCT_DEFINITION_SHAPE ( 'NONE', 'NONE',  #304 ) ;
#362 = AXIS2_PLACEMENT_3D ( 'NONE', #335, #224, #167 ) ;
#363 =( GEOMETRIC_REPRESENTATION_CONTEXT ( 3 ) GLOBAL_UNCERTAINTY_ASSIGNED_CONTEXT ( ( #281 ) ) GLOBAL_UNIT_ASSIGNED_CONTEXT ( ( #215, #332, #132 ) ) REPRESENTATION_CONTEXT ( 'NONE', 'WORKASPACE' ) );
#364 = CARTESIAN_POINT ( 'NONE',  ( -8.000000000000003553, 89.00000000000000000, 0.000000000000000000 ) ) ;
#365 = EDGE_LOOP ( 'NONE', ( #242, #21, #211, #105 ) ) ;
#366 = DIRECTION ( 'NONE',  ( -1.279215233315390572E-16, 1.000000000000000000, -0.000000000000000000 ) ) ;
#367 = CIRCLE ( 'NONE', #200, 7.999999999999994671 ) ;
#368 = CARTESIAN_POINT ( 'NONE',  ( 0.000000000000000000, 1.000000000000000000, -7.000000000000000000 ) ) ;
#369 = SURFACE_SIDE_STYLE ('',( #75 ) ) ;
#370 = CARTESIAN_POINT ( 'NONE',  ( 0.000000000000000000, 0.000000000000000000, 0.000000000000000000 ) ) ;
ENDSEC;
END-ISO-10303-21;
