ISO-10303-21;
HEADER;
FILE_DESCRIPTION (( 'STEP AP214' ),
    '1' );
FILE_NAME ('05007.STEP',
    '2023-06-22T15:48:00',
    ( '' ),
    ( '' ),
    'SwSTEP 2.0',
    'SolidWorks 2023',
    '' );
FILE_SCHEMA (( 'AUTOMOTIVE_DESIGN' ));
ENDSEC;

DATA;
#1 = AXIS2_PLACEMENT_3D ( 'NONE', #225, #198, #195 ) ;
#2 = DIRECTION ( 'NONE',  ( 0.000000000000000000, 0.000000000000000000, -1.000000000000000000 ) ) ;
#3 = ORIENTED_EDGE ( 'NONE', *, *, #48, .T. ) ;
#4 = LENGTH_MEASURE_WITH_UNIT ( LENGTH_MEASURE( 0.02539999999999999897 ), #51 );
#5 = LINE ( 'NONE', #220, #309 ) ;
#6 = CARTESIAN_POINT ( 'NONE',  ( 0.06250000000000034694, 1.499999999999999778, 7.654042494670917485E-18 ) ) ;
#7 =( LENGTH_UNIT ( ) NAMED_UNIT ( * ) SI_UNIT ( $, .METRE. ) );
#8 = APPLICATION_PROTOCOL_DEFINITION ( 'draft international standard', 'automotive_design', 1998, #18 ) ;
#9 = FACE_OUTER_BOUND ( 'NONE', #153, .T. ) ;
#10 = COLOUR_RGB ( '',0.7921568627450980005, 0.8196078431372548767, 0.9333333333333333481 ) ;
#11 = ORIENTED_EDGE ( 'NONE', *, *, #306, .T. ) ;
#12 = FILL_AREA_STYLE ('',( #193 ) ) ;
#13 = PLANE ( 'NONE',  #129 ) ;
#14 = UNCERTAINTY_MEASURE_WITH_UNIT (LENGTH_MEASURE( 1.000000000000000082E-05 ), #81, 'distance_accuracy_value', 'NONE');
#15 = DIRECTION ( 'NONE',  ( -0.000000000000000000, -1.000000000000000000, -0.000000000000000000 ) ) ;
#16 = STYLED_ITEM ( 'NONE', ( #54 ), #91 ) ;
#17 = ADVANCED_FACE ( 'NONE', ( #35 ), #117, .T. ) ;
#18 = APPLICATION_CONTEXT ( 'automotive_design' ) ;
#19 =( LENGTH_UNIT ( ) NAMED_UNIT ( * ) SI_UNIT ( $, .METRE. ) );
#20 = LENGTH_MEASURE_WITH_UNIT ( LENGTH_MEASURE( 0.02539999999999999897 ), #301 );
#21 = EDGE_CURVE ( 'NONE', #64, #282, #34, .T. ) ;
#22 = CLOSED_SHELL ( 'NONE', ( #91, #17, #151, #43 ) ) ;
#23 =( NAMED_UNIT ( * ) SI_UNIT ( $, .STERADIAN. ) SOLID_ANGLE_UNIT ( ) );
#24 = CARTESIAN_POINT ( 'NONE',  ( -0.06249999999999866773, 1.499999999999999778, 0.000000000000000000 ) ) ;
#25 = COLOUR_RGB ( '',1.000000000000000000, 0.000000000000000000, 0.000000000000000000 ) ;
#26 = SURFACE_SIDE_STYLE ('',( #100 ) ) ;
#27 =( NAMED_UNIT ( * ) PLANE_ANGLE_UNIT ( ) SI_UNIT ( $, .RADIAN. ) );
#28 =( NAMED_UNIT ( * ) PLANE_ANGLE_UNIT ( ) SI_UNIT ( $, .RADIAN. ) );
#29 = AXIS2_PLACEMENT_3D ( 'NONE', #278, #280, #152 ) ;
#30 = CIRCLE ( 'NONE', #105, 0.06249999999999934081 ) ;
#31 = ORIENTED_EDGE ( 'NONE', *, *, #48, .F. ) ;
#32 = DIRECTION ( 'NONE',  ( -1.000000000000000000, 0.000000000000000000, 0.000000000000000000 ) ) ;
#33 =( NAMED_UNIT ( * ) SI_UNIT ( $, .STERADIAN. ) SOLID_ANGLE_UNIT ( ) );
#34 = LINE ( 'NONE', #6, #216 ) ;
#35 = FACE_OUTER_BOUND ( 'NONE', #256, .T. ) ;
#36 = DIRECTION ( 'NONE',  ( 5.388445916248354013E-16, 1.000000000000000000, -0.000000000000000000 ) ) ;
#37 = LINE ( 'NONE', #219, #276 ) ;
#38 = STYLED_ITEM ( 'NONE', ( #58 ), #84 ) ;
#39 = AXIS2_PLACEMENT_3D ( 'NONE', #78, #49, #2 ) ;
#40 = CARTESIAN_POINT ( 'NONE',  ( 0.06250000000000001388, 1.499999999999999778, 0.000000000000000000 ) ) ;
#41 = SURFACE_SIDE_STYLE ('',( #283 ) ) ;
#42 = VERTEX_POINT ( 'NONE', #179 ) ;
#43 = ADVANCED_FACE ( 'NONE', ( #127 ), #281, .T. ) ;
#44 = CARTESIAN_POINT ( 'NONE',  ( 0.000000000000000000, 0.2499999999999998057, 0.000000000000000000 ) ) ;
#45 = ORIENTED_EDGE ( 'NONE', *, *, #294, .T. ) ;
#46 = PRODUCT_DEFINITION_FORMATION_WITH_SPECIFIED_SOURCE ( 'ANY', '', #275, .NOT_KNOWN. ) ;
#47 = LENGTH_MEASURE_WITH_UNIT ( LENGTH_MEASURE( 0.02539999999999999897 ), #66 );
#48 = EDGE_CURVE ( 'NONE', #290, #77, #37, .T. ) ;
#49 = DIRECTION ( 'NONE',  ( -0.000000000000000000, -1.000000000000000000, -0.000000000000000000 ) ) ;
#50 =( CONVERSION_BASED_UNIT ( 'INCH', #135 ) LENGTH_UNIT ( ) NAMED_UNIT ( #249 ) );
#51 =( LENGTH_UNIT ( ) NAMED_UNIT ( * ) SI_UNIT ( $, .METRE. ) );
#52 = EDGE_LOOP ( 'NONE', ( #65, #102 ) ) ;
#53 = DIMENSIONAL_EXPONENTS ( 1.000000000000000000, 0.000000000000000000, 0.000000000000000000, 0.000000000000000000, 0.000000000000000000, 0.000000000000000000, 0.000000000000000000 ) ;
#54 = PRESENTATION_STYLE_ASSIGNMENT (( #192 ) ) ;
#55 = CIRCLE ( 'NONE', #264, 0.06250000000000001388 ) ;
#56 = CARTESIAN_POINT ( 'NONE',  ( 0.06250000000000001388, 0.2499999999999997502, 7.654042494670939056E-18 ) ) ;
#57 = UNCERTAINTY_MEASURE_WITH_UNIT (LENGTH_MEASURE( 1.000000000000000082E-05 ), #243, 'distance_accuracy_value', 'NONE');
#58 = PRESENTATION_STYLE_ASSIGNMENT (( #274 ) ) ;
#59 = PRESENTATION_LAYER_ASSIGNMENT (  '', '', ( #205 ) ) ;
#60 = DIRECTION ( 'NONE',  ( 5.388445916248354013E-16, 1.000000000000000000, -0.000000000000000000 ) ) ;
#61 =( NAMED_UNIT ( * ) PLANE_ANGLE_UNIT ( ) SI_UNIT ( $, .RADIAN. ) );
#62 = STYLED_ITEM ( 'NONE', ( #161 ), #17 ) ;
#63 = AXIS2_PLACEMENT_3D ( 'NONE', #93, #60, #302 ) ;
#64 = VERTEX_POINT ( 'NONE', #56 ) ;
#65 = ORIENTED_EDGE ( 'NONE', *, *, #120, .F. ) ;
#66 =( LENGTH_UNIT ( ) NAMED_UNIT ( * ) SI_UNIT ( $, .METRE. ) );
#67 =( NAMED_UNIT ( * ) SI_UNIT ( $, .STERADIAN. ) SOLID_ANGLE_UNIT ( ) );
#68 = FACE_OUTER_BOUND ( 'NONE', #71, .T. ) ;
#69 = CIRCLE ( 'NONE', #111, 0.06250000000000001388 ) ;
#70 = PRODUCT_DEFINITION ( 'UNKNOWN', '', #46, #82 ) ;
#71 = EDGE_LOOP ( 'NONE', ( #211, #215, #115, #177 ) ) ;
#72 =( LENGTH_UNIT ( ) NAMED_UNIT ( * ) SI_UNIT ( $, .METRE. ) );
#73 = DIRECTION ( 'NONE',  ( 0.000000000000000000, 0.000000000000000000, -1.000000000000000000 ) ) ;
#74 = FILL_AREA_STYLE ('',( #187 ) ) ;
#75 = DIRECTION ( 'NONE',  ( 5.388445916248354013E-16, 1.000000000000000000, -0.000000000000000000 ) ) ;
#76 = AXIS2_PLACEMENT_3D ( 'NONE', #121, #214, #218 ) ;
#77 = VERTEX_POINT ( 'NONE', #119 ) ;
#78 = CARTESIAN_POINT ( 'NONE',  ( 0.000000000000000000, 0.000000000000000000, 0.000000000000000000 ) ) ;
#79 = ADVANCED_FACE ( 'NONE', ( #9 ), #13, .F. ) ;
#80 = EDGE_LOOP ( 'NONE', ( #159, #169, #3, #303 ) ) ;
#81 =( CONVERSION_BASED_UNIT ( 'INCH', #292 ) LENGTH_UNIT ( ) NAMED_UNIT ( #107 ) );
#82 = PRODUCT_DEFINITION_CONTEXT ( 'detailed design', #143, 'design' ) ;
#83 = DIMENSIONAL_EXPONENTS ( 1.000000000000000000, 0.000000000000000000, 0.000000000000000000, 0.000000000000000000, 0.000000000000000000, 0.000000000000000000, 0.000000000000000000 ) ;
#84 = MANIFOLD_SOLID_BREP ( 'Revolve - Cutting Edge', #22 ) ;
#85 =( GEOMETRIC_REPRESENTATION_CONTEXT ( 3 ) GLOBAL_UNCERTAINTY_ASSIGNED_CONTEXT ( ( #255 ) ) GLOBAL_UNIT_ASSIGNED_CONTEXT ( ( #200, #27, #298 ) ) REPRESENTATION_CONTEXT ( 'NONE', 'WORKASPACE' ) );
#86 = CYLINDRICAL_SURFACE ( 'NONE', #305, 0.06250000000000001388 ) ;
#87 = SURFACE_STYLE_FILL_AREA ( #247 ) ;
#88 =( GEOMETRIC_REPRESENTATION_CONTEXT ( 3 ) GLOBAL_UNCERTAINTY_ASSIGNED_CONTEXT ( ( #14 ) ) GLOBAL_UNIT_ASSIGNED_CONTEXT ( ( #81, #168, #270 ) ) REPRESENTATION_CONTEXT ( 'NONE', 'WORKASPACE' ) );
#89 = FILL_AREA_STYLE ('',( #178 ) ) ;
#90 = CARTESIAN_POINT ( 'NONE',  ( -1.213184216936841517E-31, 0.2499999999999998057, 0.000000000000000000 ) ) ;
#91 = ADVANCED_FACE ( 'NONE', ( #217 ), #86, .T. ) ;
#92 = MECHANICAL_DESIGN_GEOMETRIC_PRESENTATION_REPRESENTATION (  '', ( #103 ), #88 ) ;
#93 = CARTESIAN_POINT ( 'NONE',  ( 6.735557395310442023E-16, 1.499999999999999778, 0.000000000000000000 ) ) ;
#94 = ORIENTED_EDGE ( 'NONE', *, *, #140, .F. ) ;
#95 = CYLINDRICAL_SURFACE ( 'NONE', #191, 0.06249999999999967387 ) ;
#96 = FILL_AREA_STYLE_COLOUR ( '', #25 ) ;
#97 = VERTEX_POINT ( 'NONE', #251 ) ;
#98 = CLOSED_SHELL ( 'NONE', ( #110, #234, #199, #79 ) ) ;
#99 = AXIS2_PLACEMENT_3D ( 'NONE', #157, #15, #123 ) ;
#100 = SURFACE_STYLE_FILL_AREA ( #308 ) ;
#101 = CARTESIAN_POINT ( 'NONE',  ( 0.06250000000000001388, 1.499999999999999778, 7.654042494670939056E-18 ) ) ;
#102 = ORIENTED_EDGE ( 'NONE', *, *, #112, .F. ) ;
#103 = STYLED_ITEM ( 'NONE', ( #108 ), #43 ) ;
#104 = CARTESIAN_POINT ( 'NONE',  ( 0.000000000000000000, 0.000000000000000000, 0.000000000000000000 ) ) ;
#105 = AXIS2_PLACEMENT_3D ( 'NONE', #265, #162, #32 ) ;
#106 = ORIENTED_EDGE ( 'NONE', *, *, #167, .F. ) ;
#107 = DIMENSIONAL_EXPONENTS ( 1.000000000000000000, 0.000000000000000000, 0.000000000000000000, 0.000000000000000000, 0.000000000000000000, 0.000000000000000000, 0.000000000000000000 ) ;
#108 = PRESENTATION_STYLE_ASSIGNMENT (( #158 ) ) ;
#109 = PRESENTATION_LAYER_ASSIGNMENT (  '', '', ( #103 ) ) ;
#110 = ADVANCED_FACE ( 'NONE', ( #252 ), #228, .T. ) ;
#111 = AXIS2_PLACEMENT_3D ( 'NONE', #44, #133, #183 ) ;
#112 = EDGE_CURVE ( 'NONE', #64, #42, #55, .T. ) ;
#113 = DIRECTION ( 'NONE',  ( 0.000000000000000000, 0.000000000000000000, -1.000000000000000000 ) ) ;
#114 = EDGE_LOOP ( 'NONE', ( #207, #307, #288, #106 ) ) ;
#115 = ORIENTED_EDGE ( 'NONE', *, *, #167, .T. ) ;
#116 = CARTESIAN_POINT ( 'NONE',  ( 9.073546685104240443E-33, 0.2499999999999998057, 0.000000000000000000 ) ) ;
#117 = PLANE ( 'NONE',  #244 ) ;
#118 = DIRECTION ( 'NONE',  ( -0.000000000000000000, -1.000000000000000000, -0.000000000000000000 ) ) ;
#119 = CARTESIAN_POINT ( 'NONE',  ( 0.000000000000000000, 0.000000000000000000, -0.06250000000000001388 ) ) ;
#120 = EDGE_CURVE ( 'NONE', #42, #64, #226, .T. ) ;
#121 = CARTESIAN_POINT ( 'NONE',  ( 0.000000000000000000, 0.000000000000000000, 0.000000000000000000 ) ) ;
#122 =( GEOMETRIC_REPRESENTATION_CONTEXT ( 3 ) GLOBAL_UNCERTAINTY_ASSIGNED_CONTEXT ( ( #57 ) ) GLOBAL_UNIT_ASSIGNED_CONTEXT ( ( #243, #181, #67 ) ) REPRESENTATION_CONTEXT ( 'NONE', 'WORKASPACE' ) );
#123 = DIRECTION ( 'NONE',  ( 0.000000000000000000, 0.000000000000000000, -1.000000000000000000 ) ) ;
#124 = COLOUR_RGB ( '',1.000000000000000000, 0.000000000000000000, 0.000000000000000000 ) ;
#125 = STYLED_ITEM ( 'NONE', ( #212 ), #151 ) ;
#126 = DIRECTION ( 'NONE',  ( -1.000000000000000000, 0.000000000000000000, 0.000000000000000000 ) ) ;
#127 = FACE_OUTER_BOUND ( 'NONE', #269, .T. ) ;
#128 = VERTEX_POINT ( 'NONE', #258 ) ;
#129 = AXIS2_PLACEMENT_3D ( 'NONE', #40, #273, #222 ) ;
#130 = AXIS2_PLACEMENT_3D ( 'NONE', #289, #118, #73 ) ;
#131 = SURFACE_STYLE_FILL_AREA ( #259 ) ;
#132 = FACE_OUTER_BOUND ( 'NONE', #52, .T. ) ;
#133 = DIRECTION ( 'NONE',  ( -0.000000000000000000, -1.000000000000000000, -0.000000000000000000 ) ) ;
#134 = DIRECTION ( 'NONE',  ( -1.000000000000000000, 0.000000000000000000, 0.000000000000000000 ) ) ;
#135 = LENGTH_MEASURE_WITH_UNIT ( LENGTH_MEASURE( 0.02539999999999999897 ), #72 );
#136 = SURFACE_STYLE_FILL_AREA ( #74 ) ;
#137 = DIRECTION ( 'NONE',  ( -0.000000000000000000, -1.000000000000000000, -0.000000000000000000 ) ) ;
#138 =( NAMED_UNIT ( * ) SI_UNIT ( $, .STERADIAN. ) SOLID_ANGLE_UNIT ( ) );
#139 = LENGTH_MEASURE_WITH_UNIT ( LENGTH_MEASURE( 0.02539999999999999897 ), #7 );
#140 = EDGE_CURVE ( 'NONE', #97, #290, #69, .T. ) ;
#141 = ADVANCED_BREP_SHAPE_REPRESENTATION ( '05007', ( #84, #170, #1 ), #206 ) ;
#142 = SHAPE_DEFINITION_REPRESENTATION ( #224, #141 ) ;
#143 = APPLICATION_CONTEXT ( 'automotive_design' ) ;
#144 = FILL_AREA_STYLE_COLOUR ( '', #10 ) ;
#145 = APPLICATION_PROTOCOL_DEFINITION ( 'draft international standard', 'automotive_design', 1998, #143 ) ;
#146 = UNCERTAINTY_MEASURE_WITH_UNIT (LENGTH_MEASURE( 1.000000000000000082E-05 ), #50, 'distance_accuracy_value', 'NONE');
#147 = DIMENSIONAL_EXPONENTS ( 1.000000000000000000, 0.000000000000000000, 0.000000000000000000, 0.000000000000000000, 0.000000000000000000, 0.000000000000000000, 0.000000000000000000 ) ;
#148 = UNCERTAINTY_MEASURE_WITH_UNIT (LENGTH_MEASURE( 1.000000000000000082E-05 ), #182, 'distance_accuracy_value', 'NONE');
#149 = CIRCLE ( 'NONE', #196, 0.06250000000000001388 ) ;
#150 = CARTESIAN_POINT ( 'NONE',  ( 0.000000000000000000, 0.000000000000000000, 0.000000000000000000 ) ) ;
#151 = ADVANCED_FACE ( 'NONE', ( #261 ), #164, .T. ) ;
#152 = DIRECTION ( 'NONE',  ( -1.000000000000000000, 5.463695987328525451E-16, 0.000000000000000000 ) ) ;
#153 = EDGE_LOOP ( 'NONE', ( #260, #239 ) ) ;
#154 = ORIENTED_EDGE ( 'NONE', *, *, #262, .T. ) ;
#155 = CARTESIAN_POINT ( 'NONE',  ( 6.735557395310442023E-16, 1.499999999999999778, 0.000000000000000000 ) ) ;
#156 = PRESENTATION_LAYER_ASSIGNMENT (  '', '', ( #38 ) ) ;
#157 = CARTESIAN_POINT ( 'NONE',  ( 0.000000000000000000, 0.000000000000000000, 0.000000000000000000 ) ) ;
#158 = SURFACE_STYLE_USAGE ( .BOTH. , #233 ) ;
#159 = ORIENTED_EDGE ( 'NONE', *, *, #294, .F. ) ;
#160 = CARTESIAN_POINT ( 'NONE',  ( 0.000000000000000000, 0.2499999999999998057, -0.06250000000000001388 ) ) ;
#161 = PRESENTATION_STYLE_ASSIGNMENT (( #165 ) ) ;
#162 = DIRECTION ( 'NONE',  ( 5.388445916248354013E-16, 1.000000000000000000, -0.000000000000000000 ) ) ;
#163 =( GEOMETRIC_REPRESENTATION_CONTEXT ( 3 ) GLOBAL_UNCERTAINTY_ASSIGNED_CONTEXT ( ( #146 ) ) GLOBAL_UNIT_ASSIGNED_CONTEXT ( ( #50, #28, #33 ) ) REPRESENTATION_CONTEXT ( 'NONE', 'WORKASPACE' ) );
#164 = CYLINDRICAL_SURFACE ( 'NONE', #99, 0.06250000000000001388 ) ;
#165 = SURFACE_STYLE_USAGE ( .BOTH. , #188 ) ;
#166 =( CONVERSION_BASED_UNIT ( 'INCH', #4 ) LENGTH_UNIT ( ) NAMED_UNIT ( #83 ) );
#167 = EDGE_CURVE ( 'NONE', #42, #184, #5, .T. ) ;
#168 =( NAMED_UNIT ( * ) PLANE_ANGLE_UNIT ( ) SI_UNIT ( $, .RADIAN. ) );
#169 = ORIENTED_EDGE ( 'NONE', *, *, #140, .T. ) ;
#170 = MANIFOLD_SOLID_BREP ( 'Revolve - Tool Body (Straight Shanked)', #98 ) ;
#171 =( LENGTH_UNIT ( ) NAMED_UNIT ( * ) SI_UNIT ( $, .METRE. ) );
#172 = SURFACE_STYLE_FILL_AREA ( #12 ) ;
#173 = DIMENSIONAL_EXPONENTS ( 1.000000000000000000, 0.000000000000000000, 0.000000000000000000, 0.000000000000000000, 0.000000000000000000, 0.000000000000000000, 0.000000000000000000 ) ;
#174 = SURFACE_SIDE_STYLE ('',( #87 ) ) ;
#175 = EDGE_CURVE ( 'NONE', #128, #77, #149, .T. ) ;
#176 = DIRECTION ( 'NONE',  ( 5.388445916248354013E-16, 1.000000000000000000, -0.000000000000000000 ) ) ;
#177 = ORIENTED_EDGE ( 'NONE', *, *, #299, .F. ) ;
#178 = FILL_AREA_STYLE_COLOUR ( '', #271 ) ;
#179 = CARTESIAN_POINT ( 'NONE',  ( -0.06250000000000001388, 0.2499999999999998335, 0.000000000000000000 ) ) ;
#180 = ORIENTED_EDGE ( 'NONE', *, *, #262, .F. ) ;
#181 =( NAMED_UNIT ( * ) PLANE_ANGLE_UNIT ( ) SI_UNIT ( $, .RADIAN. ) );
#182 =( CONVERSION_BASED_UNIT ( 'INCH', #47 ) LENGTH_UNIT ( ) NAMED_UNIT ( #147 ) );
#183 = DIRECTION ( 'NONE',  ( 0.000000000000000000, 0.000000000000000000, -1.000000000000000000 ) ) ;
#184 = VERTEX_POINT ( 'NONE', #24 ) ;
#185 = SURFACE_STYLE_USAGE ( .BOTH. , #26 ) ;
#186 = LINE ( 'NONE', #189, #272 ) ;
#187 = FILL_AREA_STYLE_COLOUR ( '', #124 ) ;
#188 = SURFACE_SIDE_STYLE ('',( #136 ) ) ;
#189 = CARTESIAN_POINT ( 'NONE',  ( 7.654042494670959086E-18, 0.000000000000000000, 0.06250000000000001388 ) ) ;
#190 = PRESENTATION_LAYER_ASSIGNMENT (  '', '', ( #125 ) ) ;
#191 = AXIS2_PLACEMENT_3D ( 'NONE', #155, #203, #126 ) ;
#192 = SURFACE_STYLE_USAGE ( .BOTH. , #295 ) ;
#193 = FILL_AREA_STYLE_COLOUR ( '', #253 ) ;
#194 = UNCERTAINTY_MEASURE_WITH_UNIT (LENGTH_MEASURE( 1.000000000000000082E-05 ), #227, 'distance_accuracy_value', 'NONE');
#195 = DIRECTION ( 'NONE',  ( 1.000000000000000000, 0.000000000000000000, 0.000000000000000000 ) ) ;
#196 = AXIS2_PLACEMENT_3D ( 'NONE', #150, #254, #229 ) ;
#197 = AXIS2_PLACEMENT_3D ( 'NONE', #116, #36, #237 ) ;
#198 = DIRECTION ( 'NONE',  ( 0.000000000000000000, 0.000000000000000000, 1.000000000000000000 ) ) ;
#199 = ADVANCED_FACE ( 'NONE', ( #68 ), #95, .T. ) ;
#200 =( CONVERSION_BASED_UNIT ( 'INCH', #20 ) LENGTH_UNIT ( ) NAMED_UNIT ( #223 ) );
#201 = MECHANICAL_DESIGN_GEOMETRIC_PRESENTATION_REPRESENTATION (  '', ( #16 ), #279 ) ;
#202 = CIRCLE ( 'NONE', #130, 0.06250000000000001388 ) ;
#203 = DIRECTION ( 'NONE',  ( 5.388445916248354013E-16, 1.000000000000000000, -0.000000000000000000 ) ) ;
#204 = DIRECTION ( 'NONE',  ( -0.000000000000000000, -1.000000000000000000, -0.000000000000000000 ) ) ;
#205 = STYLED_ITEM ( 'NONE', ( #257 ), #170 ) ;
#206 =( GEOMETRIC_REPRESENTATION_CONTEXT ( 3 ) GLOBAL_UNCERTAINTY_ASSIGNED_CONTEXT ( ( #268 ) ) GLOBAL_UNIT_ASSIGNED_CONTEXT ( ( #166, #291, #213 ) ) REPRESENTATION_CONTEXT ( 'NONE', 'WORKASPACE' ) );
#207 = ORIENTED_EDGE ( 'NONE', *, *, #120, .T. ) ;
#208 = DIRECTION ( 'NONE',  ( 5.388445916248354013E-16, 1.000000000000000000, -0.000000000000000000 ) ) ;
#209 = DIRECTION ( 'NONE',  ( 5.388445916248354013E-16, 1.000000000000000000, -0.000000000000000000 ) ) ;
#210 = PRODUCT_RELATED_PRODUCT_CATEGORY ( 'part', '', ( #275 ) ) ;
#211 = ORIENTED_EDGE ( 'NONE', *, *, #21, .F. ) ;
#212 = PRESENTATION_STYLE_ASSIGNMENT (( #185 ) ) ;
#213 =( NAMED_UNIT ( * ) SI_UNIT ( $, .STERADIAN. ) SOLID_ANGLE_UNIT ( ) );
#214 = DIRECTION ( 'NONE',  ( 0.000000000000000000, -1.000000000000000000, -0.000000000000000000 ) ) ;
#215 = ORIENTED_EDGE ( 'NONE', *, *, #112, .T. ) ;
#216 = VECTOR ( 'NONE', #209, 39.37007874015748143 ) ;
#217 = FACE_OUTER_BOUND ( 'NONE', #242, .T. ) ;
#218 = DIRECTION ( 'NONE',  ( 0.000000000000000000, 0.000000000000000000, -1.000000000000000000 ) ) ;
#219 = CARTESIAN_POINT ( 'NONE',  ( 0.000000000000000000, 0.000000000000000000, -0.06250000000000001388 ) ) ;
#220 = CARTESIAN_POINT ( 'NONE',  ( -0.06249999999999900080, 1.499999999999999778, 0.000000000000000000 ) ) ;
#221 = PRESENTATION_LAYER_ASSIGNMENT (  '', '', ( #16 ) ) ;
#222 = DIRECTION ( 'NONE',  ( 1.000000000000000000, -5.388445916248354013E-16, 0.000000000000000000 ) ) ;
#223 = DIMENSIONAL_EXPONENTS ( 1.000000000000000000, 0.000000000000000000, 0.000000000000000000, 0.000000000000000000, 0.000000000000000000, 0.000000000000000000, 0.000000000000000000 ) ;
#224 = PRODUCT_DEFINITION_SHAPE ( 'NONE', 'NONE',  #70 ) ;
#225 = CARTESIAN_POINT ( 'NONE',  ( 0.000000000000000000, 0.000000000000000000, 0.000000000000000000 ) ) ;
#226 = CIRCLE ( 'NONE', #29, 0.06250000000000001388 ) ;
#227 =( CONVERSION_BASED_UNIT ( 'INCH', #300 ) LENGTH_UNIT ( ) NAMED_UNIT ( #173 ) );
#228 = CYLINDRICAL_SURFACE ( 'NONE', #63, 0.06249999999999967387 ) ;
#229 = DIRECTION ( 'NONE',  ( 0.000000000000000000, 0.000000000000000000, -1.000000000000000000 ) ) ;
#230 = MECHANICAL_DESIGN_GEOMETRIC_PRESENTATION_REPRESENTATION (  '', ( #38 ), #85 ) ;
#231 = MECHANICAL_DESIGN_GEOMETRIC_PRESENTATION_REPRESENTATION (  '', ( #205 ), #296 ) ;
#232 = SURFACE_STYLE_USAGE ( .BOTH. , #41 ) ;
#233 = SURFACE_SIDE_STYLE ('',( #131 ) ) ;
#234 = ADVANCED_FACE ( 'NONE', ( #132 ), #235, .F. ) ;
#235 = PLANE ( 'NONE',  #197 ) ;
#236 = FILL_AREA_STYLE_COLOUR ( '', #286 ) ;
#237 = DIRECTION ( 'NONE',  ( -1.000000000000000000, 5.388445916248354013E-16, 0.000000000000000000 ) ) ;
#238 = PRESENTATION_LAYER_ASSIGNMENT (  '', '', ( #62 ) ) ;
#239 = ORIENTED_EDGE ( 'NONE', *, *, #299, .T. ) ;
#240 = CIRCLE ( 'NONE', #39, 0.06250000000000001388 ) ;
#241 =( NAMED_UNIT ( * ) PLANE_ANGLE_UNIT ( ) SI_UNIT ( $, .RADIAN. ) );
#242 = EDGE_LOOP ( 'NONE', ( #11, #45, #180, #31 ) ) ;
#243 =( CONVERSION_BASED_UNIT ( 'INCH', #139 ) LENGTH_UNIT ( ) NAMED_UNIT ( #53 ) );
#244 = AXIS2_PLACEMENT_3D ( 'NONE', #266, #263, #285 ) ;
#245 = EDGE_CURVE ( 'NONE', #184, #282, #287, .T. ) ;
#246 = PRODUCT_CONTEXT ( 'NONE', #18, 'mechanical' ) ;
#247 = FILL_AREA_STYLE ('',( #144 ) ) ;
#248 = DIRECTION ( 'NONE',  ( -0.000000000000000000, -1.000000000000000000, -0.000000000000000000 ) ) ;
#249 = DIMENSIONAL_EXPONENTS ( 1.000000000000000000, 0.000000000000000000, 0.000000000000000000, 0.000000000000000000, 0.000000000000000000, 0.000000000000000000, 0.000000000000000000 ) ;
#250 = MECHANICAL_DESIGN_GEOMETRIC_PRESENTATION_REPRESENTATION (  '', ( #125 ), #163 ) ;
#251 = CARTESIAN_POINT ( 'NONE',  ( 7.654042494670959086E-18, 0.2499999999999998057, 0.06250000000000001388 ) ) ;
#252 = FACE_OUTER_BOUND ( 'NONE', #114, .T. ) ;
#253 = COLOUR_RGB ( '',1.000000000000000000, 0.000000000000000000, 0.000000000000000000 ) ;
#254 = DIRECTION ( 'NONE',  ( -0.000000000000000000, -1.000000000000000000, -0.000000000000000000 ) ) ;
#255 = UNCERTAINTY_MEASURE_WITH_UNIT (LENGTH_MEASURE( 1.000000000000000082E-05 ), #200, 'distance_accuracy_value', 'NONE');
#256 = EDGE_LOOP ( 'NONE', ( #284, #94 ) ) ;
#257 = PRESENTATION_STYLE_ASSIGNMENT (( #232 ) ) ;
#258 = CARTESIAN_POINT ( 'NONE',  ( 7.654042494670959086E-18, 0.000000000000000000, 0.06250000000000001388 ) ) ;
#259 = FILL_AREA_STYLE ('',( #96 ) ) ;
#260 = ORIENTED_EDGE ( 'NONE', *, *, #245, .T. ) ;
#261 = FACE_OUTER_BOUND ( 'NONE', #80, .T. ) ;
#262 = EDGE_CURVE ( 'NONE', #77, #128, #240, .T. ) ;
#263 = DIRECTION ( 'NONE',  ( 0.000000000000000000, 1.000000000000000000, 0.000000000000000000 ) ) ;
#264 = AXIS2_PLACEMENT_3D ( 'NONE', #90, #176, #304 ) ;
#265 = CARTESIAN_POINT ( 'NONE',  ( 6.735557395310442023E-16, 1.499999999999999778, 0.000000000000000000 ) ) ;
#266 = CARTESIAN_POINT ( 'NONE',  ( 0.000000000000000000, 0.2499999999999998057, 0.000000000000000000 ) ) ;
#267 = CARTESIAN_POINT ( 'NONE',  ( 6.735557395310442023E-16, 1.499999999999999778, 0.000000000000000000 ) ) ;
#268 = UNCERTAINTY_MEASURE_WITH_UNIT (LENGTH_MEASURE( 1.000000000000000082E-05 ), #166, 'distance_accuracy_value', 'NONE');
#269 = EDGE_LOOP ( 'NONE', ( #154, #293 ) ) ;
#270 =( NAMED_UNIT ( * ) SI_UNIT ( $, .STERADIAN. ) SOLID_ANGLE_UNIT ( ) );
#271 = COLOUR_RGB ( '',0.7921568627450980005, 0.8196078431372548767, 0.9333333333333333481 ) ;
#272 = VECTOR ( 'NONE', #137, 39.37007874015748143 ) ;
#273 = DIRECTION ( 'NONE',  ( -5.388445916248354013E-16, -1.000000000000000000, 0.000000000000000000 ) ) ;
#274 = SURFACE_STYLE_USAGE ( .BOTH. , #174 ) ;
#275 = PRODUCT ( '05007', '05007', '', ( #246 ) ) ;
#276 = VECTOR ( 'NONE', #248, 39.37007874015748143 ) ;
#277 = MECHANICAL_DESIGN_GEOMETRIC_PRESENTATION_REPRESENTATION (  '', ( #62 ), #122 ) ;
#278 = CARTESIAN_POINT ( 'NONE',  ( -1.213184216936841517E-31, 0.2499999999999998057, 0.000000000000000000 ) ) ;
#279 =( GEOMETRIC_REPRESENTATION_CONTEXT ( 3 ) GLOBAL_UNCERTAINTY_ASSIGNED_CONTEXT ( ( #194 ) ) GLOBAL_UNIT_ASSIGNED_CONTEXT ( ( #227, #241, #138 ) ) REPRESENTATION_CONTEXT ( 'NONE', 'WORKASPACE' ) );
#280 = DIRECTION ( 'NONE',  ( 5.388445916248354013E-16, 1.000000000000000000, -0.000000000000000000 ) ) ;
#281 = PLANE ( 'NONE',  #76 ) ;
#282 = VERTEX_POINT ( 'NONE', #101 ) ;
#283 = SURFACE_STYLE_FILL_AREA ( #89 ) ;
#284 = ORIENTED_EDGE ( 'NONE', *, *, #306, .F. ) ;
#285 = DIRECTION ( 'NONE',  ( 0.000000000000000000, -0.000000000000000000, 1.000000000000000000 ) ) ;
#286 = COLOUR_RGB ( '',1.000000000000000000, 0.000000000000000000, 0.000000000000000000 ) ;
#287 = CIRCLE ( 'NONE', #297, 0.06249999999999934081 ) ;
#288 = ORIENTED_EDGE ( 'NONE', *, *, #245, .F. ) ;
#289 = CARTESIAN_POINT ( 'NONE',  ( 0.000000000000000000, 0.2499999999999998057, 0.000000000000000000 ) ) ;
#290 = VERTEX_POINT ( 'NONE', #160 ) ;
#291 =( NAMED_UNIT ( * ) PLANE_ANGLE_UNIT ( ) SI_UNIT ( $, .RADIAN. ) );
#292 = LENGTH_MEASURE_WITH_UNIT ( LENGTH_MEASURE( 0.02539999999999999897 ), #171 );
#293 = ORIENTED_EDGE ( 'NONE', *, *, #175, .T. ) ;
#294 = EDGE_CURVE ( 'NONE', #97, #128, #186, .T. ) ;
#295 = SURFACE_SIDE_STYLE ('',( #172 ) ) ;
#296 =( GEOMETRIC_REPRESENTATION_CONTEXT ( 3 ) GLOBAL_UNCERTAINTY_ASSIGNED_CONTEXT ( ( #148 ) ) GLOBAL_UNIT_ASSIGNED_CONTEXT ( ( #182, #61, #23 ) ) REPRESENTATION_CONTEXT ( 'NONE', 'WORKASPACE' ) );
#297 = AXIS2_PLACEMENT_3D ( 'NONE', #267, #75, #134 ) ;
#298 =( NAMED_UNIT ( * ) SI_UNIT ( $, .STERADIAN. ) SOLID_ANGLE_UNIT ( ) );
#299 = EDGE_CURVE ( 'NONE', #282, #184, #30, .T. ) ;
#300 = LENGTH_MEASURE_WITH_UNIT ( LENGTH_MEASURE( 0.02539999999999999897 ), #19 );
#301 =( LENGTH_UNIT ( ) NAMED_UNIT ( * ) SI_UNIT ( $, .METRE. ) );
#302 = DIRECTION ( 'NONE',  ( -1.000000000000000000, 0.000000000000000000, 0.000000000000000000 ) ) ;
#303 = ORIENTED_EDGE ( 'NONE', *, *, #175, .F. ) ;
#304 = DIRECTION ( 'NONE',  ( -1.000000000000000000, 5.463695987328525451E-16, 0.000000000000000000 ) ) ;
#305 = AXIS2_PLACEMENT_3D ( 'NONE', #104, #204, #113 ) ;
#306 = EDGE_CURVE ( 'NONE', #290, #97, #202, .T. ) ;
#307 = ORIENTED_EDGE ( 'NONE', *, *, #21, .T. ) ;
#308 = FILL_AREA_STYLE ('',( #236 ) ) ;
#309 = VECTOR ( 'NONE', #208, 39.37007874015748143 ) ;
ENDSEC;
END-ISO-10303-21;
