ISO-10303-21;
HEADER;
FILE_DESCRIPTION (( 'STEP AP214' ),
    '1' );
FILE_NAME ('Micro_DM-312-290X.STEP',
    '2021-09-02T16:02:49',
    ( '' ),
    ( '' ),
    'SwSTEP 2.0',
    'SolidWorks 2020',
    '' );
FILE_SCHEMA (( 'AUTOMOTIVE_DESIGN' ));
ENDSEC;

DATA;
#1 = EDGE_CURVE ( 'NONE', #316, #224, #298, .T. ) ;
#2 = UNCERTAINTY_MEASURE_WITH_UNIT (LENGTH_MEASURE( 1.000000000000000082E-05 ), #172, 'distance_accuracy_value', 'NONE');
#3 = AXIS2_PLACEMENT_3D ( 'NONE', #96, #255, #76 ) ;
#4 = DIRECTION ( 'NONE',  ( -0.7071067811865489050, 8.659560562354950115E-17, 0.7071067811865461294 ) ) ;
#5 = CARTESIAN_POINT ( 'NONE',  ( 0.0000000000000000000, 0.0000000000000000000, 2.500000000000000000 ) ) ;
#6 = AXIS2_PLACEMENT_3D ( 'NONE', #53, #160, #158 ) ;
#7 = DIRECTION ( 'NONE',  ( -0.0000000000000000000, -0.0000000000000000000, -1.000000000000000000 ) ) ;
#8 =( GEOMETRIC_REPRESENTATION_CONTEXT ( 3 ) GLOBAL_UNCERTAINTY_ASSIGNED_CONTEXT ( ( #80 ) ) GLOBAL_UNIT_ASSIGNED_CONTEXT ( ( #149, #12, #299 ) ) REPRESENTATION_CONTEXT ( 'NONE', 'WORKASPACE' ) );
#9 = AXIS2_PLACEMENT_3D ( 'NONE', #260, #168, #212 ) ;
#10 = DIRECTION ( 'NONE',  ( 0.0000000000000000000, 0.0000000000000000000, -1.000000000000000000 ) ) ;
#11 = ADVANCED_FACE ( 'NONE', ( #221 ), #318, .T. ) ;
#12 =( NAMED_UNIT ( * ) PLANE_ANGLE_UNIT ( ) SI_UNIT ( $, .RADIAN. ) );
#13 = AXIS2_PLACEMENT_3D ( 'NONE', #62, #273, #38 ) ;
#14 = EDGE_LOOP ( 'NONE', ( #269, #301, #88, #22 ) ) ;
#15 = ORIENTED_EDGE ( 'NONE', *, *, #186, .T. ) ;
#16 = FILL_AREA_STYLE ('',( #18 ) ) ;
#17 = ORIENTED_EDGE ( 'NONE', *, *, #84, .T. ) ;
#18 = FILL_AREA_STYLE_COLOUR ( '', #265 ) ;
#19 = VERTEX_POINT ( 'NONE', #201 ) ;
#20 = DIMENSIONAL_EXPONENTS ( 1.000000000000000000, 0.0000000000000000000, 0.0000000000000000000, 0.0000000000000000000, 0.0000000000000000000, 0.0000000000000000000, 0.0000000000000000000 ) ;
#21 = EDGE_CURVE ( 'NONE', #19, #110, #222, .T. ) ;
#22 = ORIENTED_EDGE ( 'NONE', *, *, #186, .F. ) ;
#23 = DIRECTION ( 'NONE',  ( -0.0000000000000000000, -0.0000000000000000000, -1.000000000000000000 ) ) ;
#24 = VECTOR ( 'NONE', #203, 39.37007874015748143 ) ;
#25 = LINE ( 'NONE', #181, #24 ) ;
#26 = CARTESIAN_POINT ( 'NONE',  ( 0.1562000000000000333, 1.912898300268165973E-17, 0.0000000000000000000 ) ) ;
#27 = EDGE_CURVE ( 'NONE', #110, #58, #329, .T. ) ;
#28 = CARTESIAN_POINT ( 'NONE',  ( 0.0000000000000000000, 0.0000000000000000000, 2.484999999999999432 ) ) ;
#29 = CARTESIAN_POINT ( 'NONE',  ( -0.007499999999999999722, 1.002373405102108630E-17, 1.707404996040164512E-17 ) ) ;
#30 = DIRECTION ( 'NONE',  ( 1.000000000000000000, 0.0000000000000000000, 0.0000000000000000000 ) ) ;
#31 = PRODUCT_DEFINITION_SHAPE ( 'NONE', 'NONE',  #294 ) ;
#32 = FACE_OUTER_BOUND ( 'NONE', #171, .T. ) ;
#33 = CARTESIAN_POINT ( 'NONE',  ( 0.0000000000000000000, 0.0000000000000000000, 2.500000000000000000 ) ) ;
#34 = ORIENTED_EDGE ( 'NONE', *, *, #163, .T. ) ;
#35 = PRODUCT ( 'Micro_DM-312-290X', 'Micro_DM-312-290X', '', ( #119 ) ) ;
#36 = CARTESIAN_POINT ( 'NONE',  ( 0.0000000000000000000, 0.0000000000000000000, 1.707404996040164512E-17 ) ) ;
#37 = SURFACE_STYLE_FILL_AREA ( #107 ) ;
#38 = DIRECTION ( 'NONE',  ( 1.000000000000000000, 0.0000000000000000000, -0.0000000000000000000 ) ) ;
#39 = ORIENTED_EDGE ( 'NONE', *, *, #1, .F. ) ;
#40 = VECTOR ( 'NONE', #204, 39.37007874015748854 ) ;
#41 = CIRCLE ( 'NONE', #214, 0.1562000000000000888 ) ;
#42 = APPLICATION_PROTOCOL_DEFINITION ( 'draft international standard', 'automotive_design', 1998, #137 ) ;
#43 = ORIENTED_EDGE ( 'NONE', *, *, #27, .F. ) ;
#44 = VERTEX_POINT ( 'NONE', #29 ) ;
#45 = ORIENTED_EDGE ( 'NONE', *, *, #104, .T. ) ;
#46 = ADVANCED_FACE ( 'NONE', ( #100 ), #155, .T. ) ;
#47 = MECHANICAL_DESIGN_GEOMETRIC_PRESENTATION_REPRESENTATION (  '', ( #307 ), #249 ) ;
#48 = EDGE_LOOP ( 'NONE', ( #122, #45, #323, #289 ) ) ;
#49 = FACE_OUTER_BOUND ( 'NONE', #143, .T. ) ;
#50 = CARTESIAN_POINT ( 'NONE',  ( -0.1412499999999994871, 0.0000000000000000000, 2.500000000000000000 ) ) ;
#51 = AXIS2_PLACEMENT_3D ( 'NONE', #90, #197, #233 ) ;
#52 = LINE ( 'NONE', #50, #259 ) ;
#53 = CARTESIAN_POINT ( 'NONE',  ( 0.0000000000000000000, 0.0000000000000000000, 1.707404996040164512E-17 ) ) ;
#54 = DIRECTION ( 'NONE',  ( 1.000000000000000000, 0.0000000000000000000, 0.0000000000000000000 ) ) ;
#55 = CARTESIAN_POINT ( 'NONE',  ( 0.0000000000000000000, 0.0000000000000000000, 0.0000000000000000000 ) ) ;
#56 = LINE ( 'NONE', #284, #229 ) ;
#57 = CYLINDRICAL_SURFACE ( 'NONE', #277, 0.1562000000000000333 ) ;
#58 = VERTEX_POINT ( 'NONE', #232 ) ;
#59 = DIRECTION ( 'NONE',  ( 0.0000000000000000000, 0.0000000000000000000, -1.000000000000000000 ) ) ;
#60 = CARTESIAN_POINT ( 'NONE',  ( 0.0000000000000000000, 0.0000000000000000000, 0.8129999999999999449 ) ) ;
#61 = EDGE_CURVE ( 'NONE', #89, #248, #138, .T. ) ;
#62 = CARTESIAN_POINT ( 'NONE',  ( 0.0000000000000000000, 0.0000000000000000000, 0.0000000000000000000 ) ) ;
#63 = ORIENTED_EDGE ( 'NONE', *, *, #163, .F. ) ;
#64 = COLOUR_RGB ( '',0.7921568627450980005, 0.8196078431372548767, 0.9333333333333333481 ) ;
#65 = CARTESIAN_POINT ( 'NONE',  ( 0.0000000000000000000, 0.0000000000000000000, 0.8129999999999999449 ) ) ;
#66 = EDGE_LOOP ( 'NONE', ( #43, #34, #15, #275 ) ) ;
#67 = ORIENTED_EDGE ( 'NONE', *, *, #1, .T. ) ;
#68 = VERTEX_POINT ( 'NONE', #281 ) ;
#69 = STYLED_ITEM ( 'NONE', ( #92 ), #95 ) ;
#70 = CARTESIAN_POINT ( 'NONE',  ( 0.0000000000000000000, 0.0000000000000000000, 0.1486999999999994160 ) ) ;
#71 = CARTESIAN_POINT ( 'NONE',  ( -0.1562500000000000000, 0.0000000000000000000, 2.500000000000000000 ) ) ;
#72 = EDGE_CURVE ( 'NONE', #248, #19, #52, .T. ) ;
#73 = DIRECTION ( 'NONE',  ( -0.7071067811865410224, 0.0000000000000000000, -0.7071067811865539010 ) ) ;
#74 = CIRCLE ( 'NONE', #3, 0.1562000000000000055 ) ;
#75 = AXIS2_PLACEMENT_3D ( 'NONE', #36, #82, #187 ) ;
#76 = DIRECTION ( 'NONE',  ( -1.000000000000000000, 0.0000000000000000000, 0.0000000000000000000 ) ) ;
#77 = CARTESIAN_POINT ( 'NONE',  ( 0.0000000000000000000, 0.0000000000000000000, 0.0000000000000000000 ) ) ;
#78 = EDGE_CURVE ( 'NONE', #146, #44, #156, .T. ) ;
#79 = DIRECTION ( 'NONE',  ( 1.000000000000000000, 0.0000000000000000000, 0.0000000000000000000 ) ) ;
#80 = UNCERTAINTY_MEASURE_WITH_UNIT (LENGTH_MEASURE( 1.000000000000000082E-05 ), #149, 'distance_accuracy_value', 'NONE');
#81 = AXIS2_PLACEMENT_3D ( 'NONE', #70, #179, #279 ) ;
#82 = DIRECTION ( 'NONE',  ( 0.0000000000000000000, 0.0000000000000000000, 1.000000000000000000 ) ) ;
#83 =( LENGTH_UNIT ( ) NAMED_UNIT ( * ) SI_UNIT ( $, .METRE. ) );
#84 = EDGE_CURVE ( 'NONE', #44, #146, #238, .T. ) ;
#85 = CARTESIAN_POINT ( 'NONE',  ( 0.0000000000000000000, 0.0000000000000000000, 2.500000000000000000 ) ) ;
#86 =( LENGTH_UNIT ( ) NAMED_UNIT ( * ) SI_UNIT ( $, .METRE. ) );
#87 =( NAMED_UNIT ( * ) SI_UNIT ( $, .STERADIAN. ) SOLID_ANGLE_UNIT ( ) );
#88 = ORIENTED_EDGE ( 'NONE', *, *, #276, .F. ) ;
#89 = VERTEX_POINT ( 'NONE', #308 ) ;
#90 = CARTESIAN_POINT ( 'NONE',  ( 0.0000000000000000000, 0.0000000000000000000, 2.500000000000000000 ) ) ;
#91 = AXIS2_PLACEMENT_3D ( 'NONE', #237, #59, #135 ) ;
#92 = PRESENTATION_STYLE_ASSIGNMENT (( #267 ) ) ;
#93 = ORIENTED_EDGE ( 'NONE', *, *, #78, .T. ) ;
#94 = ORIENTED_EDGE ( 'NONE', *, *, #225, .T. ) ;
#95 = ADVANCED_BREP_SHAPE_REPRESENTATION ( 'Micro_DM-312-290X', ( #190, #133 ), #8 ) ;
#96 = CARTESIAN_POINT ( 'NONE',  ( 0.0000000000000000000, 0.0000000000000000000, 0.1486999999999994160 ) ) ;
#97 = CIRCLE ( 'NONE', #81, 0.1562000000000000055 ) ;
#98 = DIRECTION ( 'NONE',  ( -1.000000000000000000, 0.0000000000000000000, 0.0000000000000000000 ) ) ;
#99 = EDGE_CURVE ( 'NONE', #278, #199, #74, .T. ) ;
#100 = FACE_OUTER_BOUND ( 'NONE', #48, .T. ) ;
#101 = APPLICATION_CONTEXT ( 'automotive_design' ) ;
#102 = DIRECTION ( 'NONE',  ( -0.0000000000000000000, -0.0000000000000000000, -1.000000000000000000 ) ) ;
#103 = AXIS2_PLACEMENT_3D ( 'NONE', #85, #140, #285 ) ;
#104 = EDGE_CURVE ( 'NONE', #316, #199, #183, .T. ) ;
#105 = CARTESIAN_POINT ( 'NONE',  ( 0.1562500000000000000, 1.913510623667739463E-17, 2.500000000000000000 ) ) ;
#106 = FACE_OUTER_BOUND ( 'NONE', #272, .T. ) ;
#107 = FILL_AREA_STYLE ('',( #230 ) ) ;
#108 = DIRECTION ( 'NONE',  ( -0.0000000000000000000, -0.0000000000000000000, -1.000000000000000000 ) ) ;
#109 = PRODUCT_DEFINITION_FORMATION_WITH_SPECIFIED_SOURCE ( 'ANY', '', #35, .NOT_KNOWN. ) ;
#110 = VERTEX_POINT ( 'NONE', #209 ) ;
#111 = PRESENTATION_STYLE_ASSIGNMENT (( #167 ) ) ;
#112 = FACE_OUTER_BOUND ( 'NONE', #14, .T. ) ;
#113 = CIRCLE ( 'NONE', #292, 0.1562500000000000000 ) ;
#114 =( NAMED_UNIT ( * ) PLANE_ANGLE_UNIT ( ) SI_UNIT ( $, .RADIAN. ) );
#115 = CONICAL_SURFACE ( 'NONE', #91, 0.1412499999999994871, 0.7853981633974391752 ) ;
#116 = DIMENSIONAL_EXPONENTS ( 1.000000000000000000, 0.0000000000000000000, 0.0000000000000000000, 0.0000000000000000000, 0.0000000000000000000, 0.0000000000000000000, 0.0000000000000000000 ) ;
#117 = DIRECTION ( 'NONE',  ( 0.0000000000000000000, 0.0000000000000000000, 1.000000000000000000 ) ) ;
#118 = DIRECTION ( 'NONE',  ( -0.0000000000000000000, -0.0000000000000000000, -1.000000000000000000 ) ) ;
#119 = PRODUCT_CONTEXT ( 'NONE', #101, 'mechanical' ) ;
#120 = DIRECTION ( 'NONE',  ( -1.000000000000000000, 0.0000000000000000000, 0.0000000000000000000 ) ) ;
#121 = PLANE ( 'NONE',  #13 ) ;
#122 = ORIENTED_EDGE ( 'NONE', *, *, #319, .T. ) ;
#123 = VECTOR ( 'NONE', #129, 39.37007874015748143 ) ;
#124 = EDGE_LOOP ( 'NONE', ( #93, #17 ) ) ;
#125 = ORIENTED_EDGE ( 'NONE', *, *, #169, .F. ) ;
#126 = ADVANCED_FACE ( 'NONE', ( #309, #49 ), #282, .T. ) ;
#127 = DIRECTION ( 'NONE',  ( 0.0000000000000000000, 0.0000000000000000000, -1.000000000000000000 ) ) ;
#128 = VECTOR ( 'NONE', #4, 39.37007874015748143 ) ;
#129 = DIRECTION ( 'NONE',  ( -0.0000000000000000000, -0.0000000000000000000, -1.000000000000000000 ) ) ;
#130 = EDGE_CURVE ( 'NONE', #44, #278, #131, .T. ) ;
#131 = LINE ( 'NONE', #184, #128 ) ;
#132 = CONICAL_SURFACE ( 'NONE', #166, 0.007499999999999999722, 0.7853981633974502774 ) ;
#133 = AXIS2_PLACEMENT_3D ( 'NONE', #243, #117, #193 ) ;
#134 = CARTESIAN_POINT ( 'NONE',  ( -0.1412499999999994871, 0.0000000000000000000, 2.500000000000000000 ) ) ;
#135 = DIRECTION ( 'NONE',  ( -1.000000000000000000, 0.0000000000000000000, 0.0000000000000000000 ) ) ;
#136 = CARTESIAN_POINT ( 'NONE',  ( -0.1562000000000000888, 0.0000000000000000000, 0.8129999999999999449 ) ) ;
#137 = APPLICATION_CONTEXT ( 'automotive_design' ) ;
#138 = CIRCLE ( 'NONE', #157, 0.1412499999999994871 ) ;
#139 = CIRCLE ( 'NONE', #9, 0.1562500000000000000 ) ;
#140 = DIRECTION ( 'NONE',  ( 0.0000000000000000000, 0.0000000000000000000, 1.000000000000000000 ) ) ;
#141 = ORIENTED_EDGE ( 'NONE', *, *, #153, .T. ) ;
#142 =( NAMED_UNIT ( * ) PLANE_ANGLE_UNIT ( ) SI_UNIT ( $, .RADIAN. ) );
#143 = EDGE_LOOP ( 'NONE', ( #150, #302 ) ) ;
#144 =( GEOMETRIC_REPRESENTATION_CONTEXT ( 3 ) GLOBAL_UNCERTAINTY_ASSIGNED_CONTEXT ( ( #2 ) ) GLOBAL_UNIT_ASSIGNED_CONTEXT ( ( #172, #114, #87 ) ) REPRESENTATION_CONTEXT ( 'NONE', 'WORKASPACE' ) );
#145 = FACE_OUTER_BOUND ( 'NONE', #124, .T. ) ;
#146 = VERTEX_POINT ( 'NONE', #283 ) ;
#147 = ORIENTED_EDGE ( 'NONE', *, *, #78, .F. ) ;
#148 = EDGE_CURVE ( 'NONE', #89, #110, #325, .T. ) ;
#149 =( CONVERSION_BASED_UNIT ( 'INCH', #247 ) LENGTH_UNIT ( ) NAMED_UNIT ( #20 ) );
#150 = ORIENTED_EDGE ( 'NONE', *, *, #276, .T. ) ;
#151 = AXIS2_PLACEMENT_3D ( 'NONE', #240, #10, #291 ) ;
#152 = ORIENTED_EDGE ( 'NONE', *, *, #231, .T. ) ;
#153 = EDGE_CURVE ( 'NONE', #199, #278, #97, .T. ) ;
#154 = CARTESIAN_POINT ( 'NONE',  ( 0.0000000000000000000, 0.0000000000000000000, 2.484999999999999432 ) ) ;
#155 = CYLINDRICAL_SURFACE ( 'NONE', #219, 0.1562000000000000333 ) ;
#156 = CIRCLE ( 'NONE', #6, 0.007499999999999999722 ) ;
#157 = AXIS2_PLACEMENT_3D ( 'NONE', #227, #206, #228 ) ;
#158 = DIRECTION ( 'NONE',  ( -1.000000000000000000, 0.0000000000000000000, 0.0000000000000000000 ) ) ;
#159 = DIRECTION ( 'NONE',  ( -0.0000000000000000000, 0.0000000000000000000, -1.000000000000000000 ) ) ;
#160 = DIRECTION ( 'NONE',  ( -0.0000000000000000000, -0.0000000000000000000, -1.000000000000000000 ) ) ;
#161 = DIRECTION ( 'NONE',  ( -0.0000000000000000000, -0.0000000000000000000, -1.000000000000000000 ) ) ;
#162 =( CONVERSION_BASED_UNIT ( 'INCH', #313 ) LENGTH_UNIT ( ) NAMED_UNIT ( #317 ) );
#163 = EDGE_CURVE ( 'NONE', #110, #19, #270, .T. ) ;
#164 = FACE_OUTER_BOUND ( 'NONE', #200, .T. ) ;
#165 = CYLINDRICAL_SURFACE ( 'NONE', #303, 0.1562500000000000000 ) ;
#166 = AXIS2_PLACEMENT_3D ( 'NONE', #215, #287, #79 ) ;
#167 = SURFACE_STYLE_USAGE ( .BOTH. , #261 ) ;
#168 = DIRECTION ( 'NONE',  ( -0.0000000000000000000, -0.0000000000000000000, -1.000000000000000000 ) ) ;
#169 = EDGE_CURVE ( 'NONE', #146, #199, #25, .T. ) ;
#170 = CARTESIAN_POINT ( 'NONE',  ( 0.1562000000000000888, 1.912898300268166897E-17, 0.8129999999999999449 ) ) ;
#171 = EDGE_LOOP ( 'NONE', ( #94, #315 ) ) ;
#172 =( CONVERSION_BASED_UNIT ( 'INCH', #198 ) LENGTH_UNIT ( ) NAMED_UNIT ( #116 ) );
#173 = ORIENTED_EDGE ( 'NONE', *, *, #153, .F. ) ;
#174 = EDGE_LOOP ( 'NONE', ( #250, #220, #194, #63 ) ) ;
#175 = SURFACE_STYLE_FILL_AREA ( #16 ) ;
#176 = ORIENTED_EDGE ( 'NONE', *, *, #130, .F. ) ;
#177 = EDGE_LOOP ( 'NONE', ( #176, #147, #251, #141 ) ) ;
#178 = PRODUCT_RELATED_PRODUCT_CATEGORY ( 'part', '', ( #35 ) ) ;
#179 = DIRECTION ( 'NONE',  ( -0.0000000000000000000, -0.0000000000000000000, -1.000000000000000000 ) ) ;
#180 = DIRECTION ( 'NONE',  ( -0.0000000000000000000, -0.0000000000000000000, -1.000000000000000000 ) ) ;
#181 = CARTESIAN_POINT ( 'NONE',  ( 0.007499999999999999722, 0.0000000000000000000, 1.707404996040164512E-17 ) ) ;
#182 = CLOSED_SHELL ( 'NONE', ( #46, #314, #268, #263, #11, #205, #253, #126, #217, #256, #324 ) ) ;
#183 = LINE ( 'NONE', #26, #123 ) ;
#184 = CARTESIAN_POINT ( 'NONE',  ( -0.007499999999999999722, 9.184850993605147975E-19, 1.707404996040164512E-17 ) ) ;
#185 = FACE_OUTER_BOUND ( 'NONE', #177, .T. ) ;
#186 = EDGE_CURVE ( 'NONE', #19, #68, #305, .T. ) ;
#187 = DIRECTION ( 'NONE',  ( 1.000000000000000000, 0.0000000000000000000, 0.0000000000000000000 ) ) ;
#188 = ORIENTED_EDGE ( 'NONE', *, *, #319, .F. ) ;
#189 = FACE_OUTER_BOUND ( 'NONE', #174, .T. ) ;
#190 = MANIFOLD_SOLID_BREP ( 'Cut-Revolve4', #182 ) ;
#191 = CIRCLE ( 'NONE', #242, 0.1412499999999994871 ) ;
#192 = EDGE_LOOP ( 'NONE', ( #188, #39 ) ) ;
#193 = DIRECTION ( 'NONE',  ( 1.000000000000000000, 0.0000000000000000000, 0.0000000000000000000 ) ) ;
#194 = ORIENTED_EDGE ( 'NONE', *, *, #72, .T. ) ;
#195 = PRESENTATION_LAYER_ASSIGNMENT (  '', '', ( #307 ) ) ;
#196 = DIRECTION ( 'NONE',  ( -0.0000000000000000000, -0.0000000000000000000, -1.000000000000000000 ) ) ;
#197 = DIRECTION ( 'NONE',  ( -0.0000000000000000000, -0.0000000000000000000, -1.000000000000000000 ) ) ;
#198 = LENGTH_MEASURE_WITH_UNIT ( LENGTH_MEASURE( 0.02539999999999999897 ), #296 );
#199 = VERTEX_POINT ( 'NONE', #288 ) ;
#200 = EDGE_LOOP ( 'NONE', ( #246, #67, #152, #173 ) ) ;
#201 = CARTESIAN_POINT ( 'NONE',  ( -0.1562500000000000000, 0.0000000000000000000, 2.484999999999999432 ) ) ;
#202 = MECHANICAL_DESIGN_GEOMETRIC_PRESENTATION_REPRESENTATION (  '', ( #69 ), #144 ) ;
#203 = DIRECTION ( 'NONE',  ( 0.7071067811865489050, 0.0000000000000000000, 0.7071067811865461294 ) ) ;
#204 = DIRECTION ( 'NONE',  ( 0.7071067811865410224, 8.659560562354852739E-17, -0.7071067811865539010 ) ) ;
#205 = ADVANCED_FACE ( 'NONE', ( #32 ), #264, .T. ) ;
#206 = DIRECTION ( 'NONE',  ( 0.0000000000000000000, 0.0000000000000000000, 1.000000000000000000 ) ) ;
#207 = AXIS2_PLACEMENT_3D ( 'NONE', #60, #118, #120 ) ;
#208 = CONICAL_SURFACE ( 'NONE', #75, 0.007499999999999999722, 0.7853981633974502774 ) ;
#209 = CARTESIAN_POINT ( 'NONE',  ( 0.1562500000000000000, 1.913510623667739463E-17, 2.484999999999999432 ) ) ;
#210 = EDGE_CURVE ( 'NONE', #58, #68, #113, .T. ) ;
#211 = DIRECTION ( 'NONE',  ( 0.0000000000000000000, 0.0000000000000000000, 1.000000000000000000 ) ) ;
#212 = DIRECTION ( 'NONE',  ( -1.000000000000000000, 0.0000000000000000000, 0.0000000000000000000 ) ) ;
#213 = VECTOR ( 'NONE', #180, 39.37007874015748143 ) ;
#214 = AXIS2_PLACEMENT_3D ( 'NONE', #65, #196, #293 ) ;
#215 = CARTESIAN_POINT ( 'NONE',  ( 0.0000000000000000000, 0.0000000000000000000, 1.707404996040164512E-17 ) ) ;
#216 = ORIENTED_EDGE ( 'NONE', *, *, #61, .F. ) ;
#217 = ADVANCED_FACE ( 'NONE', ( #185 ), #132, .T. ) ;
#218 = CARTESIAN_POINT ( 'NONE',  ( 0.0000000000000000000, 0.0000000000000000000, 0.8129999999999997229 ) ) ;
#219 = AXIS2_PLACEMENT_3D ( 'NONE', #77, #102, #280 ) ;
#220 = ORIENTED_EDGE ( 'NONE', *, *, #225, .F. ) ;
#221 = FACE_OUTER_BOUND ( 'NONE', #66, .T. ) ;
#222 = CIRCLE ( 'NONE', #241, 0.1562500000000000000 ) ;
#223 = CONICAL_SURFACE ( 'NONE', #151, 0.1412499999999994871, 0.7853981633974391752 ) ;
#224 = VERTEX_POINT ( 'NONE', #136 ) ;
#225 = EDGE_CURVE ( 'NONE', #248, #89, #191, .T. ) ;
#226 = ORIENTED_EDGE ( 'NONE', *, *, #84, .F. ) ;
#227 = CARTESIAN_POINT ( 'NONE',  ( 0.0000000000000000000, 0.0000000000000000000, 2.500000000000000000 ) ) ;
#228 = DIRECTION ( 'NONE',  ( 1.000000000000000000, 0.0000000000000000000, 0.0000000000000000000 ) ) ;
#229 = VECTOR ( 'NONE', #262, 39.37007874015748143 ) ;
#230 = FILL_AREA_STYLE_COLOUR ( '', #64 ) ;
#231 = EDGE_CURVE ( 'NONE', #224, #278, #56, .T. ) ;
#232 = CARTESIAN_POINT ( 'NONE',  ( 0.1562500000000000000, 1.913510623667739463E-17, 0.8129999999999997229 ) ) ;
#233 = DIRECTION ( 'NONE',  ( -1.000000000000000000, 0.0000000000000000000, 0.0000000000000000000 ) ) ;
#234 = UNCERTAINTY_MEASURE_WITH_UNIT (LENGTH_MEASURE( 1.000000000000000082E-05 ), #162, 'distance_accuracy_value', 'NONE');
#235 = DIRECTION ( 'NONE',  ( -1.000000000000000000, 0.0000000000000000000, 0.0000000000000000000 ) ) ;
#236 =( NAMED_UNIT ( * ) SI_UNIT ( $, .STERADIAN. ) SOLID_ANGLE_UNIT ( ) );
#237 = CARTESIAN_POINT ( 'NONE',  ( 0.0000000000000000000, 0.0000000000000000000, 2.500000000000000000 ) ) ;
#238 = CIRCLE ( 'NONE', #326, 0.007499999999999999722 ) ;
#239 = PRESENTATION_LAYER_ASSIGNMENT (  '', '', ( #69 ) ) ;
#240 = CARTESIAN_POINT ( 'NONE',  ( 0.0000000000000000000, 0.0000000000000000000, 2.500000000000000000 ) ) ;
#241 = AXIS2_PLACEMENT_3D ( 'NONE', #28, #254, #54 ) ;
#242 = AXIS2_PLACEMENT_3D ( 'NONE', #33, #211, #30 ) ;
#243 = CARTESIAN_POINT ( 'NONE',  ( 0.0000000000000000000, 0.0000000000000000000, 0.0000000000000000000 ) ) ;
#244 = EDGE_LOOP ( 'NONE', ( #226, #297, #322, #125 ) ) ;
#245 = SHAPE_DEFINITION_REPRESENTATION ( #31, #95 ) ;
#246 = ORIENTED_EDGE ( 'NONE', *, *, #104, .F. ) ;
#247 = LENGTH_MEASURE_WITH_UNIT ( LENGTH_MEASURE( 0.02539999999999999897 ), #86 );
#248 = VERTEX_POINT ( 'NONE', #134 ) ;
#249 =( GEOMETRIC_REPRESENTATION_CONTEXT ( 3 ) GLOBAL_UNCERTAINTY_ASSIGNED_CONTEXT ( ( #234 ) ) GLOBAL_UNIT_ASSIGNED_CONTEXT ( ( #162, #142, #236 ) ) REPRESENTATION_CONTEXT ( 'NONE', 'WORKASPACE' ) );
#250 = ORIENTED_EDGE ( 'NONE', *, *, #148, .F. ) ;
#251 = ORIENTED_EDGE ( 'NONE', *, *, #169, .T. ) ;
#252 = DIRECTION ( 'NONE',  ( -1.000000000000000000, 0.0000000000000000000, 0.0000000000000000000 ) ) ;
#253 = ADVANCED_FACE ( 'NONE', ( #189 ), #115, .T. ) ;
#254 = DIRECTION ( 'NONE',  ( 0.0000000000000000000, 0.0000000000000000000, -1.000000000000000000 ) ) ;
#255 = DIRECTION ( 'NONE',  ( -0.0000000000000000000, -0.0000000000000000000, -1.000000000000000000 ) ) ;
#256 = ADVANCED_FACE ( 'NONE', ( #164 ), #57, .T. ) ;
#257 = CARTESIAN_POINT ( 'NONE',  ( 0.1562000000000000888, 0.0000000000000000000, 0.8129999999999999449 ) ) ;
#258 = DIRECTION ( 'NONE',  ( -1.000000000000000000, 0.0000000000000000000, 0.0000000000000000000 ) ) ;
#259 = VECTOR ( 'NONE', #73, 39.37007874015748854 ) ;
#260 = CARTESIAN_POINT ( 'NONE',  ( 0.0000000000000000000, 0.0000000000000000000, 0.8129999999999997229 ) ) ;
#261 = SURFACE_SIDE_STYLE ('',( #37 ) ) ;
#262 = DIRECTION ( 'NONE',  ( -0.0000000000000000000, -0.0000000000000000000, -1.000000000000000000 ) ) ;
#263 = ADVANCED_FACE ( 'NONE', ( #112 ), #165, .T. ) ;
#264 = PLANE ( 'NONE',  #103 ) ;
#265 = COLOUR_RGB ( '',0.7921568627450980005, 0.8196078431372548767, 0.9333333333333333481 ) ;
#266 = FACE_OUTER_BOUND ( 'NONE', #244, .T. ) ;
#267 = SURFACE_STYLE_USAGE ( .BOTH. , #321 ) ;
#268 = ADVANCED_FACE ( 'NONE', ( #106 ), #223, .T. ) ;
#269 = ORIENTED_EDGE ( 'NONE', *, *, #21, .T. ) ;
#270 = CIRCLE ( 'NONE', #320, 0.1562500000000000000 ) ;
#271 = APPLICATION_PROTOCOL_DEFINITION ( 'draft international standard', 'automotive_design', 1998, #101 ) ;
#272 = EDGE_LOOP ( 'NONE', ( #216, #300, #295, #274 ) ) ;
#273 = DIRECTION ( 'NONE',  ( 0.0000000000000000000, 0.0000000000000000000, 1.000000000000000000 ) ) ;
#274 = ORIENTED_EDGE ( 'NONE', *, *, #72, .F. ) ;
#275 = ORIENTED_EDGE ( 'NONE', *, *, #210, .F. ) ;
#276 = EDGE_CURVE ( 'NONE', #68, #58, #139, .T. ) ;
#277 = AXIS2_PLACEMENT_3D ( 'NONE', #55, #108, #235 ) ;
#278 = VERTEX_POINT ( 'NONE', #310 ) ;
#279 = DIRECTION ( 'NONE',  ( -1.000000000000000000, 0.0000000000000000000, 0.0000000000000000000 ) ) ;
#280 = DIRECTION ( 'NONE',  ( -1.000000000000000000, 0.0000000000000000000, 0.0000000000000000000 ) ) ;
#281 = CARTESIAN_POINT ( 'NONE',  ( -0.1562500000000000000, 0.0000000000000000000, 0.8129999999999997229 ) ) ;
#282 = PLANE ( 'NONE',  #286 ) ;
#283 = CARTESIAN_POINT ( 'NONE',  ( 0.007499999999999999722, 0.0000000000000000000, 1.707404996040164512E-17 ) ) ;
#284 = CARTESIAN_POINT ( 'NONE',  ( -0.1562000000000000333, 0.0000000000000000000, 0.0000000000000000000 ) ) ;
#285 = DIRECTION ( 'NONE',  ( 1.000000000000000000, 0.0000000000000000000, -0.0000000000000000000 ) ) ;
#286 = AXIS2_PLACEMENT_3D ( 'NONE', #257, #159, #98 ) ;
#287 = DIRECTION ( 'NONE',  ( 0.0000000000000000000, 0.0000000000000000000, 1.000000000000000000 ) ) ;
#288 = CARTESIAN_POINT ( 'NONE',  ( 0.1562000000000000055, 0.0000000000000000000, 0.1486999999999994160 ) ) ;
#289 = ORIENTED_EDGE ( 'NONE', *, *, #231, .F. ) ;
#290 = PRODUCT_DEFINITION_CONTEXT ( 'detailed design', #137, 'design' ) ;
#291 = DIRECTION ( 'NONE',  ( -1.000000000000000000, 0.0000000000000000000, 0.0000000000000000000 ) ) ;
#292 = AXIS2_PLACEMENT_3D ( 'NONE', #218, #161, #258 ) ;
#293 = DIRECTION ( 'NONE',  ( -1.000000000000000000, 0.0000000000000000000, 0.0000000000000000000 ) ) ;
#294 = PRODUCT_DEFINITION ( 'UNKNOWN', '', #109, #290 ) ;
#295 = ORIENTED_EDGE ( 'NONE', *, *, #21, .F. ) ;
#296 =( LENGTH_UNIT ( ) NAMED_UNIT ( * ) SI_UNIT ( $, .METRE. ) );
#297 = ORIENTED_EDGE ( 'NONE', *, *, #130, .T. ) ;
#298 = CIRCLE ( 'NONE', #207, 0.1562000000000000888 ) ;
#299 =( NAMED_UNIT ( * ) SI_UNIT ( $, .STERADIAN. ) SOLID_ANGLE_UNIT ( ) );
#300 = ORIENTED_EDGE ( 'NONE', *, *, #148, .T. ) ;
#301 = ORIENTED_EDGE ( 'NONE', *, *, #27, .T. ) ;
#302 = ORIENTED_EDGE ( 'NONE', *, *, #210, .T. ) ;
#303 = AXIS2_PLACEMENT_3D ( 'NONE', #5, #7, #312 ) ;
#304 = CARTESIAN_POINT ( 'NONE',  ( 0.1412499999999994871, 1.729813603795630110E-17, 2.500000000000000000 ) ) ;
#305 = LINE ( 'NONE', #71, #213 ) ;
#306 = DIRECTION ( 'NONE',  ( -0.0000000000000000000, -0.0000000000000000000, -1.000000000000000000 ) ) ;
#307 = STYLED_ITEM ( 'NONE', ( #111 ), #190 ) ;
#308 = CARTESIAN_POINT ( 'NONE',  ( 0.1412499999999994871, 1.821662113731684786E-17, 2.500000000000000000 ) ) ;
#309 = FACE_BOUND ( 'NONE', #192, .T. ) ;
#310 = CARTESIAN_POINT ( 'NONE',  ( -0.1562000000000000055, 1.912898300268165665E-17, 0.1486999999999994160 ) ) ;
#311 = VECTOR ( 'NONE', #306, 39.37007874015748143 ) ;
#312 = DIRECTION ( 'NONE',  ( -1.000000000000000000, 0.0000000000000000000, 0.0000000000000000000 ) ) ;
#313 = LENGTH_MEASURE_WITH_UNIT ( LENGTH_MEASURE( 0.02539999999999999897 ), #83 );
#314 = ADVANCED_FACE ( 'NONE', ( #266 ), #208, .T. ) ;
#315 = ORIENTED_EDGE ( 'NONE', *, *, #61, .T. ) ;
#316 = VERTEX_POINT ( 'NONE', #170 ) ;
#317 = DIMENSIONAL_EXPONENTS ( 1.000000000000000000, 0.0000000000000000000, 0.0000000000000000000, 0.0000000000000000000, 0.0000000000000000000, 0.0000000000000000000, 0.0000000000000000000 ) ;
#318 = CYLINDRICAL_SURFACE ( 'NONE', #51, 0.1562500000000000000 ) ;
#319 = EDGE_CURVE ( 'NONE', #224, #316, #41, .T. ) ;
#320 = AXIS2_PLACEMENT_3D ( 'NONE', #154, #127, #327 ) ;
#321 = SURFACE_SIDE_STYLE ('',( #175 ) ) ;
#322 = ORIENTED_EDGE ( 'NONE', *, *, #99, .T. ) ;
#323 = ORIENTED_EDGE ( 'NONE', *, *, #99, .F. ) ;
#324 = ADVANCED_FACE ( 'NONE', ( #145 ), #121, .F. ) ;
#325 = LINE ( 'NONE', #304, #40 ) ;
#326 = AXIS2_PLACEMENT_3D ( 'NONE', #328, #23, #252 ) ;
#327 = DIRECTION ( 'NONE',  ( 1.000000000000000000, 0.0000000000000000000, 0.0000000000000000000 ) ) ;
#328 = CARTESIAN_POINT ( 'NONE',  ( 0.0000000000000000000, 0.0000000000000000000, 1.707404996040164512E-17 ) ) ;
#329 = LINE ( 'NONE', #105, #311 ) ;
ENDSEC;
END-ISO-10303-21;
