ISO-10303-21;
HEADER;
FILE_DESCRIPTION (( 'STEP AP214' ),
    '1' );
FILE_NAME ('59806.STEP',
    '2023-07-12T13:05:33',
    ( '' ),
    ( '' ),
    'SwSTEP 2.0',
    'SolidWorks 2023',
    '' );
FILE_SCHEMA (( 'AUTOMOTIVE_DESIGN' ));
ENDSEC;

DATA;
#1 = APPLICATION_PROTOCOL_DEFINITION ( 'draft international standard', 'automotive_design', 1998, #57 ) ;
#2 = ADVANCED_FACE ( 'NONE', ( #67 ), #142, .F. ) ;
#3 = SURFACE_STYLE_FILL_AREA ( #296 ) ;
#4 = FACE_OUTER_BOUND ( 'NONE', #102, .T. ) ;
#5 = FILL_AREA_STYLE_COLOUR ( '', #100 ) ;
#6 = COLOUR_RGB ( '',0.7921568627450980005, 0.8196078431372548767, 0.9333333333333333481 ) ;
#7 = DIMENSIONAL_EXPONENTS ( 1.000000000000000000, 0.000000000000000000, 0.000000000000000000, 0.000000000000000000, 0.000000000000000000, 0.000000000000000000, 0.000000000000000000 ) ;
#8 = APPLICATION_CONTEXT ( 'automotive_design' ) ;
#9 = PRESENTATION_LAYER_ASSIGNMENT (  '', '', ( #215 ) ) ;
#10 =( NAMED_UNIT ( * ) SI_UNIT ( $, .STERADIAN. ) SOLID_ANGLE_UNIT ( ) );
#11 =( NAMED_UNIT ( * ) SI_UNIT ( $, .STERADIAN. ) SOLID_ANGLE_UNIT ( ) );
#12 = SURFACE_STYLE_USAGE ( .BOTH. , #280 ) ;
#13 = EDGE_CURVE ( 'NONE', #135, #83, #41, .T. ) ;
#14 = CARTESIAN_POINT ( 'NONE',  ( 4.659139252587974440E-36, 2.643616628575702054E-19, 0.000000000000000000 ) ) ;
#15 = FILL_AREA_STYLE ('',( #151 ) ) ;
#16 = PRESENTATION_LAYER_ASSIGNMENT (  '', '', ( #95 ) ) ;
#17 = EDGE_CURVE ( 'NONE', #21, #135, #245, .T. ) ;
#18 = DIRECTION ( 'NONE',  ( -1.199974473742344140E-16, 1.000000000000000000, -0.000000000000000000 ) ) ;
#19 = DIRECTION ( 'NONE',  ( 1.000000000000000000, 0.000000000000000000, 0.000000000000000000 ) ) ;
#20 =( LENGTH_UNIT ( ) NAMED_UNIT ( * ) SI_UNIT ( $, .METRE. ) );
#21 = VERTEX_POINT ( 'NONE', #165 ) ;
#22 = CARTESIAN_POINT ( 'NONE',  ( 6.123233995736772199E-17, 2.500000000000000000, 0.000000000000000000 ) ) ;
#23 = AXIS2_PLACEMENT_3D ( 'NONE', #96, #292, #199 ) ;
#24 = ORIENTED_EDGE ( 'NONE', *, *, #218, .T. ) ;
#25 =( NAMED_UNIT ( * ) PLANE_ANGLE_UNIT ( ) SI_UNIT ( $, .RADIAN. ) );
#26 = FILL_AREA_STYLE ('',( #86 ) ) ;
#27 = SURFACE_SIDE_STYLE ('',( #170 ) ) ;
#28 =( GEOMETRIC_REPRESENTATION_CONTEXT ( 3 ) GLOBAL_UNCERTAINTY_ASSIGNED_CONTEXT ( ( #304 ) ) GLOBAL_UNIT_ASSIGNED_CONTEXT ( ( #289, #233, #189 ) ) REPRESENTATION_CONTEXT ( 'NONE', 'WORKASPACE' ) );
#29 = PRESENTATION_STYLE_ASSIGNMENT (( #220 ) ) ;
#30 = FACE_OUTER_BOUND ( 'NONE', #76, .T. ) ;
#31 =( CONVERSION_BASED_UNIT ( 'INCH', #74 ) LENGTH_UNIT ( ) NAMED_UNIT ( #224 ) );
#32 = CYLINDRICAL_SURFACE ( 'NONE', #126, 0.1249999999999998335 ) ;
#33 = ORIENTED_EDGE ( 'NONE', *, *, #198, .F. ) ;
#34 = MECHANICAL_DESIGN_GEOMETRIC_PRESENTATION_REPRESENTATION (  '', ( #230 ), #127 ) ;
#35 = DIRECTION ( 'NONE',  ( -1.762411085717134754E-17, -1.000000000000000000, -0.000000000000000000 ) ) ;
#36 = FACE_OUTER_BOUND ( 'NONE', #194, .T. ) ;
#37 = VECTOR ( 'NONE', #140, 39.37007874015748143 ) ;
#38 = DIRECTION ( 'NONE',  ( -1.000000000000000000, 1.762411085717134754E-17, 0.000000000000000000 ) ) ;
#39 = CARTESIAN_POINT ( 'NONE',  ( 0.1250000000000000278, 2.500000000000000000, 0.000000000000000000 ) ) ;
#40 = SURFACE_STYLE_FILL_AREA ( #282 ) ;
#41 = LINE ( 'NONE', #209, #94 ) ;
#42 = CARTESIAN_POINT ( 'NONE',  ( 2.899956267070462878E-18, 0.1645448267190429414, 0.000000000000000000 ) ) ;
#43 = FACE_OUTER_BOUND ( 'NONE', #55, .T. ) ;
#44 = AXIS2_PLACEMENT_3D ( 'NONE', #22, #109, #132 ) ;
#45 = AXIS2_PLACEMENT_3D ( 'NONE', #180, #207, #302 ) ;
#46 = PRESENTATION_STYLE_ASSIGNMENT (( #72 ) ) ;
#47 = DIRECTION ( 'NONE',  ( -1.000000000000000000, 0.000000000000000000, 0.000000000000000000 ) ) ;
#48 = EDGE_CURVE ( 'NONE', #135, #21, #279, .T. ) ;
#49 = LENGTH_MEASURE_WITH_UNIT ( LENGTH_MEASURE( 0.02539999999999999897 ), #93 );
#50 = FILL_AREA_STYLE ('',( #265 ) ) ;
#51 = PRODUCT_DEFINITION ( 'UNKNOWN', '', #101, #61 ) ;
#52 = STYLED_ITEM ( 'NONE', ( #164 ), #90 ) ;
#53 = CIRCLE ( 'NONE', #145, 0.02999999999999999889 ) ;
#54 = DIMENSIONAL_EXPONENTS ( 1.000000000000000000, 0.000000000000000000, 0.000000000000000000, 0.000000000000000000, 0.000000000000000000, 0.000000000000000000, 0.000000000000000000 ) ;
#55 = EDGE_LOOP ( 'NONE', ( #277, #33, #187, #290 ) ) ;
#56 = ADVANCED_BREP_SHAPE_REPRESENTATION ( '59806', ( #270, #152, #169 ), #267 ) ;
#57 = APPLICATION_CONTEXT ( 'automotive_design' ) ;
#58 =( GEOMETRIC_REPRESENTATION_CONTEXT ( 3 ) GLOBAL_UNCERTAINTY_ASSIGNED_CONTEXT ( ( #300 ) ) GLOBAL_UNIT_ASSIGNED_CONTEXT ( ( #241, #68, #197 ) ) REPRESENTATION_CONTEXT ( 'NONE', 'WORKASPACE' ) );
#59 = CARTESIAN_POINT ( 'NONE',  ( 0.02999999999999999889, 0.000000000000000000, 9.491012693391989451E-18 ) ) ;
#60 = ADVANCED_FACE ( 'NONE', ( #4 ), #248, .T. ) ;
#61 = PRODUCT_DEFINITION_CONTEXT ( 'detailed design', #57, 'design' ) ;
#62 = AXIS2_PLACEMENT_3D ( 'NONE', #195, #122, #75 ) ;
#63 = ORIENTED_EDGE ( 'NONE', *, *, #190, .T. ) ;
#64 = DIRECTION ( 'NONE',  ( 1.762411085717134754E-17, 1.000000000000000000, 0.000000000000000000 ) ) ;
#65 = ADVANCED_FACE ( 'NONE', ( #36 ), #134, .T. ) ;
#66 = SURFACE_STYLE_USAGE ( .BOTH. , #213 ) ;
#67 = FACE_OUTER_BOUND ( 'NONE', #82, .T. ) ;
#68 =( NAMED_UNIT ( * ) PLANE_ANGLE_UNIT ( ) SI_UNIT ( $, .RADIAN. ) );
#69 = ORIENTED_EDGE ( 'NONE', *, *, #276, .T. ) ;
#70 = PRODUCT ( '59806', '59806', '', ( #235 ) ) ;
#71 = DIRECTION ( 'NONE',  ( -1.000000000000000000, -1.199974473742344140E-16, 0.000000000000000000 ) ) ;
#72 = SURFACE_STYLE_USAGE ( .BOTH. , #27 ) ;
#73 = VECTOR ( 'NONE', #305, 39.37007874015748143 ) ;
#74 = LENGTH_MEASURE_WITH_UNIT ( LENGTH_MEASURE( 0.02539999999999999897 ), #118 );
#75 = DIRECTION ( 'NONE',  ( -1.000000000000000000, 0.000000000000000000, 0.000000000000000000 ) ) ;
#76 = EDGE_LOOP ( 'NONE', ( #166, #110 ) ) ;
#77 = AXIS2_PLACEMENT_3D ( 'NONE', #285, #139, #238 ) ;
#78 = EDGE_LOOP ( 'NONE', ( #299, #298 ) ) ;
#79 =( NAMED_UNIT ( * ) PLANE_ANGLE_UNIT ( ) SI_UNIT ( $, .RADIAN. ) );
#80 = CARTESIAN_POINT ( 'NONE',  ( 9.318278505175948881E-36, 5.287233257151404107E-19, 0.000000000000000000 ) ) ;
#81 = CARTESIAN_POINT ( 'NONE',  ( -0.02999999999999999889, 1.057446651430280821E-18, 0.000000000000000000 ) ) ;
#82 = EDGE_LOOP ( 'NONE', ( #173, #63 ) ) ;
#83 = VERTEX_POINT ( 'NONE', #231 ) ;
#84 = PRESENTATION_LAYER_ASSIGNMENT (  '', '', ( #185 ) ) ;
#85 = MECHANICAL_DESIGN_GEOMETRIC_PRESENTATION_REPRESENTATION (  '', ( #215 ), #186 ) ;
#86 = FILL_AREA_STYLE_COLOUR ( '', #6 ) ;
#87 = DIRECTION ( 'NONE',  ( -1.199974473742344140E-16, 1.000000000000000000, -0.000000000000000000 ) ) ;
#88 = SURFACE_STYLE_FILL_AREA ( #26 ) ;
#89 = ORIENTED_EDGE ( 'NONE', *, *, #13, .T. ) ;
#90 = ADVANCED_FACE ( 'NONE', ( #237 ), #262, .T. ) ;
#91 =( LENGTH_UNIT ( ) NAMED_UNIT ( * ) SI_UNIT ( $, .METRE. ) );
#92 = DIMENSIONAL_EXPONENTS ( 1.000000000000000000, 0.000000000000000000, 0.000000000000000000, 0.000000000000000000, 0.000000000000000000, 0.000000000000000000, 0.000000000000000000 ) ;
#93 =( LENGTH_UNIT ( ) NAMED_UNIT ( * ) SI_UNIT ( $, .METRE. ) );
#94 = VECTOR ( 'NONE', #87, 39.37007874015748143 ) ;
#95 = STYLED_ITEM ( 'NONE', ( #46 ), #240 ) ;
#96 = CARTESIAN_POINT ( 'NONE',  ( 2.899956267070462108E-18, 0.1645448267190429414, 0.000000000000000000 ) ) ;
#97 =( NAMED_UNIT ( * ) PLANE_ANGLE_UNIT ( ) SI_UNIT ( $, .RADIAN. ) );
#98 = ORIENTED_EDGE ( 'NONE', *, *, #121, .F. ) ;
#99 = CARTESIAN_POINT ( 'NONE',  ( 0.02999999999999999889, 0.000000000000000000, 3.673940397442059190E-18 ) ) ;
#100 = COLOUR_RGB ( '',1.000000000000000000, 0.000000000000000000, 0.000000000000000000 ) ;
#101 = PRODUCT_DEFINITION_FORMATION_WITH_SPECIFIED_SOURCE ( 'ANY', '', #70, .NOT_KNOWN. ) ;
#102 = EDGE_LOOP ( 'NONE', ( #123, #177 ) ) ;
#103 =( NAMED_UNIT ( * ) SI_UNIT ( $, .STERADIAN. ) SOLID_ANGLE_UNIT ( ) );
#104 =( NAMED_UNIT ( * ) SI_UNIT ( $, .STERADIAN. ) SOLID_ANGLE_UNIT ( ) );
#105 = AXIS2_PLACEMENT_3D ( 'NONE', #264, #243, #47 ) ;
#106 = DIRECTION ( 'NONE',  ( -1.000000000000000000, 0.000000000000000000, 0.000000000000000000 ) ) ;
#107 = FILL_AREA_STYLE_COLOUR ( '', #295 ) ;
#108 = CONICAL_SURFACE ( 'NONE', #236, 0.02999999999999999889, 0.5235987755983000369 ) ;
#109 = DIRECTION ( 'NONE',  ( -1.199974473742344140E-16, 1.000000000000000000, -0.000000000000000000 ) ) ;
#110 = ORIENTED_EDGE ( 'NONE', *, *, #17, .F. ) ;
#111 = CARTESIAN_POINT ( 'NONE',  ( 9.318278505175948881E-36, 5.287233257151404107E-19, 0.000000000000000000 ) ) ;
#112 = VERTEX_POINT ( 'NONE', #255 ) ;
#113 = CLOSED_SHELL ( 'NONE', ( #291, #188, #65, #2 ) ) ;
#114 = PRESENTATION_LAYER_ASSIGNMENT (  '', '', ( #52 ) ) ;
#115 = PLANE ( 'NONE',  #219 ) ;
#116 = DIMENSIONAL_EXPONENTS ( 1.000000000000000000, 0.000000000000000000, 0.000000000000000000, 0.000000000000000000, 0.000000000000000000, 0.000000000000000000, 0.000000000000000000 ) ;
#117 = DIRECTION ( 'NONE',  ( -1.762411085717134754E-17, -1.000000000000000000, -0.000000000000000000 ) ) ;
#118 =( LENGTH_UNIT ( ) NAMED_UNIT ( * ) SI_UNIT ( $, .METRE. ) );
#119 = CARTESIAN_POINT ( 'NONE',  ( -0.1250000000000000278, 0.1645448267190429414, 0.000000000000000000 ) ) ;
#120 = MECHANICAL_DESIGN_GEOMETRIC_PRESENTATION_REPRESENTATION (  '', ( #185 ), #28 ) ;
#121 = EDGE_CURVE ( 'NONE', #83, #287, #136, .T. ) ;
#122 = DIRECTION ( 'NONE',  ( -1.199974473742344140E-16, 1.000000000000000000, -0.000000000000000000 ) ) ;
#123 = ORIENTED_EDGE ( 'NONE', *, *, #198, .T. ) ;
#124 = LENGTH_MEASURE_WITH_UNIT ( LENGTH_MEASURE( 0.02539999999999999897 ), #226 );
#125 = UNCERTAINTY_MEASURE_WITH_UNIT (LENGTH_MEASURE( 1.000000000000000082E-05 ), #216, 'distance_accuracy_value', 'NONE');
#126 = AXIS2_PLACEMENT_3D ( 'NONE', #202, #253, #106 ) ;
#127 =( GEOMETRIC_REPRESENTATION_CONTEXT ( 3 ) GLOBAL_UNCERTAINTY_ASSIGNED_CONTEXT ( ( #130 ) ) GLOBAL_UNIT_ASSIGNED_CONTEXT ( ( #31, #181, #11 ) ) REPRESENTATION_CONTEXT ( 'NONE', 'WORKASPACE' ) );
#128 = ORIENTED_EDGE ( 'NONE', *, *, #183, .F. ) ;
#129 = COLOUR_RGB ( '',0.7921568627450980005, 0.8196078431372548767, 0.9333333333333333481 ) ;
#130 = UNCERTAINTY_MEASURE_WITH_UNIT (LENGTH_MEASURE( 1.000000000000000082E-05 ), #31, 'distance_accuracy_value', 'NONE');
#131 =( CONVERSION_BASED_UNIT ( 'INCH', #137 ) LENGTH_UNIT ( ) NAMED_UNIT ( #268 ) );
#132 = DIRECTION ( 'NONE',  ( -1.000000000000000000, 0.000000000000000000, 0.000000000000000000 ) ) ;
#133 = DIRECTION ( 'NONE',  ( 1.199974473742344140E-16, -1.000000000000000000, 0.000000000000000000 ) ) ;
#134 = CYLINDRICAL_SURFACE ( 'NONE', #44, 0.1249999999999998335 ) ;
#135 = VERTEX_POINT ( 'NONE', #309 ) ;
#136 = CIRCLE ( 'NONE', #288, 0.1249999999999999584 ) ;
#137 = LENGTH_MEASURE_WITH_UNIT ( LENGTH_MEASURE( 0.02539999999999999897 ), #20 );
#138 = EDGE_CURVE ( 'NONE', #225, #112, #196, .T. ) ;
#139 = DIRECTION ( 'NONE',  ( -1.199974473742344140E-16, 1.000000000000000000, -0.000000000000000000 ) ) ;
#140 = DIRECTION ( 'NONE',  ( -0.5000000000000009992, 0.8660254037844380415, 0.000000000000000000 ) ) ;
#141 = DIRECTION ( 'NONE',  ( -1.199974473742344140E-16, 1.000000000000000000, 0.000000000000000000 ) ) ;
#142 = PLANE ( 'NONE',  #294 ) ;
#143 = MECHANICAL_DESIGN_GEOMETRIC_PRESENTATION_REPRESENTATION (  '', ( #95 ), #308 ) ;
#144 = CARTESIAN_POINT ( 'NONE',  ( 3.414809992080329023E-16, 0.1645448267190429414, 0.000000000000000000 ) ) ;
#145 = AXIS2_PLACEMENT_3D ( 'NONE', #80, #35, #278 ) ;
#146 =( LENGTH_UNIT ( ) NAMED_UNIT ( * ) SI_UNIT ( $, .METRE. ) );
#147 = SURFACE_STYLE_USAGE ( .BOTH. , #168 ) ;
#148 = COLOUR_RGB ( '',1.000000000000000000, 0.000000000000000000, 0.000000000000000000 ) ;
#149 = PRESENTATION_STYLE_ASSIGNMENT (( #12 ) ) ;
#150 = ORIENTED_EDGE ( 'NONE', *, *, #17, .T. ) ;
#151 = FILL_AREA_STYLE_COLOUR ( '', #129 ) ;
#152 = MANIFOLD_SOLID_BREP ( 'Revolve - Tool Body (Tipped Off)', #113 ) ;
#153 = AXIS2_PLACEMENT_3D ( 'NONE', #171, #117, #297 ) ;
#154 = DIRECTION ( 'NONE',  ( -1.000000000000000000, 1.762411085717134754E-17, 0.000000000000000000 ) ) ;
#155 = LENGTH_MEASURE_WITH_UNIT ( LENGTH_MEASURE( 0.02539999999999999897 ), #206 );
#156 = ORIENTED_EDGE ( 'NONE', *, *, #13, .F. ) ;
#157 = SURFACE_STYLE_USAGE ( .BOTH. , #284 ) ;
#158 = COLOUR_RGB ( '',1.000000000000000000, 0.000000000000000000, 0.000000000000000000 ) ;
#159 = CIRCLE ( 'NONE', #45, 0.1250000000000000278 ) ;
#160 = ORIENTED_EDGE ( 'NONE', *, *, #218, .F. ) ;
#161 = DIRECTION ( 'NONE',  ( 0.000000000000000000, 0.000000000000000000, 1.000000000000000000 ) ) ;
#162 = LINE ( 'NONE', #261, #37 ) ;
#163 = VECTOR ( 'NONE', #242, 39.37007874015748143 ) ;
#164 = PRESENTATION_STYLE_ASSIGNMENT (( #66 ) ) ;
#165 = CARTESIAN_POINT ( 'NONE',  ( 0.1250000000000000278, 0.1645448267190428582, 1.530808498934190276E-17 ) ) ;
#166 = ORIENTED_EDGE ( 'NONE', *, *, #48, .F. ) ;
#167 = LINE ( 'NONE', #272, #163 ) ;
#168 = SURFACE_SIDE_STYLE ('',( #271 ) ) ;
#169 = AXIS2_PLACEMENT_3D ( 'NONE', #191, #161, #19 ) ;
#170 = SURFACE_STYLE_FILL_AREA ( #50 ) ;
#171 = CARTESIAN_POINT ( 'NONE',  ( 9.318278505175948881E-36, 5.287233257151404107E-19, 0.000000000000000000 ) ) ;
#172 = UNCERTAINTY_MEASURE_WITH_UNIT (LENGTH_MEASURE( 1.000000000000000082E-05 ), #131, 'distance_accuracy_value', 'NONE');
#173 = ORIENTED_EDGE ( 'NONE', *, *, #121, .T. ) ;
#174 = CIRCLE ( 'NONE', #62, 0.1249999999999999584 ) ;
#175 = FILL_AREA_STYLE_COLOUR ( '', #158 ) ;
#176 = DIMENSIONAL_EXPONENTS ( 1.000000000000000000, 0.000000000000000000, 0.000000000000000000, 0.000000000000000000, 0.000000000000000000, 0.000000000000000000, 0.000000000000000000 ) ;
#177 = ORIENTED_EDGE ( 'NONE', *, *, #260, .T. ) ;
#178 = SURFACE_STYLE_FILL_AREA ( #15 ) ;
#179 = DIRECTION ( 'NONE',  ( -1.762411085717134754E-17, -1.000000000000000000, 0.000000000000000000 ) ) ;
#180 = CARTESIAN_POINT ( 'NONE',  ( 2.899956267070462878E-18, 0.1645448267190429414, 0.000000000000000000 ) ) ;
#181 =( NAMED_UNIT ( * ) PLANE_ANGLE_UNIT ( ) SI_UNIT ( $, .RADIAN. ) );
#182 = DIRECTION ( 'NONE',  ( 1.000000000000000000, -1.762411085717134754E-17, 0.000000000000000000 ) ) ;
#183 = EDGE_CURVE ( 'NONE', #257, #225, #162, .T. ) ;
#184 = PRESENTATION_STYLE_ASSIGNMENT (( #157 ) ) ;
#185 = STYLED_ITEM ( 'NONE', ( #184 ), #152 ) ;
#186 =( GEOMETRIC_REPRESENTATION_CONTEXT ( 3 ) GLOBAL_UNCERTAINTY_ASSIGNED_CONTEXT ( ( #227 ) ) GLOBAL_UNIT_ASSIGNED_CONTEXT ( ( #254, #252, #103 ) ) REPRESENTATION_CONTEXT ( 'NONE', 'WORKASPACE' ) );
#187 = ORIENTED_EDGE ( 'NONE', *, *, #183, .T. ) ;
#188 = ADVANCED_FACE ( 'NONE', ( #30 ), #115, .F. ) ;
#189 =( NAMED_UNIT ( * ) SI_UNIT ( $, .STERADIAN. ) SOLID_ANGLE_UNIT ( ) );
#190 = EDGE_CURVE ( 'NONE', #287, #83, #174, .T. ) ;
#191 = CARTESIAN_POINT ( 'NONE',  ( 0.000000000000000000, 0.000000000000000000, 0.000000000000000000 ) ) ;
#192 = MECHANICAL_DESIGN_GEOMETRIC_PRESENTATION_REPRESENTATION (  '', ( #52 ), #256 ) ;
#193 = LENGTH_MEASURE_WITH_UNIT ( LENGTH_MEASURE( 0.02539999999999999897 ), #91 );
#194 = EDGE_LOOP ( 'NONE', ( #160, #150, #89, #281 ) ) ;
#195 = CARTESIAN_POINT ( 'NONE',  ( 6.123233995736772199E-17, 2.500000000000000000, 0.000000000000000000 ) ) ;
#196 = CIRCLE ( 'NONE', #246, 0.1250000000000000278 ) ;
#197 =( NAMED_UNIT ( * ) SI_UNIT ( $, .STERADIAN. ) SOLID_ANGLE_UNIT ( ) );
#198 = EDGE_CURVE ( 'NONE', #257, #274, #204, .T. ) ;
#199 = DIRECTION ( 'NONE',  ( -1.000000000000000000, 1.762411085717134754E-17, 0.000000000000000000 ) ) ;
#200 = PLANE ( 'NONE',  #23 ) ;
#201 = PRESENTATION_STYLE_ASSIGNMENT (( #147 ) ) ;
#202 = CARTESIAN_POINT ( 'NONE',  ( 6.123233995736772199E-17, 2.500000000000000000, 0.000000000000000000 ) ) ;
#203 = CLOSED_SHELL ( 'NONE', ( #90, #228, #240, #60 ) ) ;
#204 = CIRCLE ( 'NONE', #153, 0.02999999999999999889 ) ;
#205 = ORIENTED_EDGE ( 'NONE', *, *, #48, .T. ) ;
#206 =( LENGTH_UNIT ( ) NAMED_UNIT ( * ) SI_UNIT ( $, .METRE. ) );
#207 = DIRECTION ( 'NONE',  ( -1.762411085717134754E-17, -1.000000000000000000, -0.000000000000000000 ) ) ;
#208 = PRESENTATION_LAYER_ASSIGNMENT (  '', '', ( #230 ) ) ;
#209 = CARTESIAN_POINT ( 'NONE',  ( -0.1249999999999997641, 2.500000000000000000, 0.000000000000000000 ) ) ;
#210 = MECHANICAL_DESIGN_GEOMETRIC_PRESENTATION_REPRESENTATION (  '', ( #214 ), #58 ) ;
#211 = EDGE_LOOP ( 'NONE', ( #250, #307, #69, #128 ) ) ;
#212 = SHAPE_DEFINITION_REPRESENTATION ( #259, #56 ) ;
#213 = SURFACE_SIDE_STYLE ('',( #40 ) ) ;
#214 = STYLED_ITEM ( 'NONE', ( #29 ), #228 ) ;
#215 = STYLED_ITEM ( 'NONE', ( #149 ), #270 ) ;
#216 =( CONVERSION_BASED_UNIT ( 'INCH', #247 ) LENGTH_UNIT ( ) NAMED_UNIT ( #92 ) );
#217 = FACE_OUTER_BOUND ( 'NONE', #78, .T. ) ;
#218 = EDGE_CURVE ( 'NONE', #21, #287, #167, .T. ) ;
#219 = AXIS2_PLACEMENT_3D ( 'NONE', #144, #141, #71 ) ;
#220 = SURFACE_STYLE_USAGE ( .BOTH. , #221 ) ;
#221 = SURFACE_SIDE_STYLE ('',( #3 ) ) ;
#222 = FILL_AREA_STYLE ('',( #175 ) ) ;
#223 = DIRECTION ( 'NONE',  ( 1.762411085717134754E-17, 1.000000000000000000, 0.000000000000000000 ) ) ;
#224 = DIMENSIONAL_EXPONENTS ( 1.000000000000000000, 0.000000000000000000, 0.000000000000000000, 0.000000000000000000, 0.000000000000000000, 0.000000000000000000, 0.000000000000000000 ) ;
#225 = VERTEX_POINT ( 'NONE', #119 ) ;
#226 =( LENGTH_UNIT ( ) NAMED_UNIT ( * ) SI_UNIT ( $, .METRE. ) );
#227 = UNCERTAINTY_MEASURE_WITH_UNIT (LENGTH_MEASURE( 1.000000000000000082E-05 ), #254, 'distance_accuracy_value', 'NONE');
#228 = ADVANCED_FACE ( 'NONE', ( #217 ), #200, .T. ) ;
#229 =( CONVERSION_BASED_UNIT ( 'INCH', #155 ) LENGTH_UNIT ( ) NAMED_UNIT ( #54 ) );
#230 = STYLED_ITEM ( 'NONE', ( #201 ), #60 ) ;
#231 = CARTESIAN_POINT ( 'NONE',  ( -0.1249999999999999029, 2.500000000000000000, 0.000000000000000000 ) ) ;
#232 = APPLICATION_PROTOCOL_DEFINITION ( 'draft international standard', 'automotive_design', 1998, #8 ) ;
#233 =( NAMED_UNIT ( * ) PLANE_ANGLE_UNIT ( ) SI_UNIT ( $, .RADIAN. ) );
#234 = DIRECTION ( 'NONE',  ( 1.000000000000000000, 1.199974473742344140E-16, 0.000000000000000000 ) ) ;
#235 = PRODUCT_CONTEXT ( 'NONE', #8, 'mechanical' ) ;
#236 = AXIS2_PLACEMENT_3D ( 'NONE', #269, #223, #154 ) ;
#237 = FACE_OUTER_BOUND ( 'NONE', #211, .T. ) ;
#238 = DIRECTION ( 'NONE',  ( -1.000000000000000000, 0.000000000000000000, 0.000000000000000000 ) ) ;
#239 = DIRECTION ( 'NONE',  ( -1.000000000000000000, 0.000000000000000000, 0.000000000000000000 ) ) ;
#240 = ADVANCED_FACE ( 'NONE', ( #43 ), #108, .T. ) ;
#241 =( CONVERSION_BASED_UNIT ( 'INCH', #49 ) LENGTH_UNIT ( ) NAMED_UNIT ( #116 ) );
#242 = DIRECTION ( 'NONE',  ( -1.199974473742344140E-16, 1.000000000000000000, -0.000000000000000000 ) ) ;
#243 = DIRECTION ( 'NONE',  ( -1.199974473742344140E-16, 1.000000000000000000, -0.000000000000000000 ) ) ;
#244 = EDGE_CURVE ( 'NONE', #274, #112, #251, .T. ) ;
#245 = CIRCLE ( 'NONE', #77, 0.1249999999999996947 ) ;
#246 = AXIS2_PLACEMENT_3D ( 'NONE', #42, #306, #258 ) ;
#247 = LENGTH_MEASURE_WITH_UNIT ( LENGTH_MEASURE( 0.02539999999999999897 ), #146 );
#248 = PLANE ( 'NONE',  #273 ) ;
#249 = CARTESIAN_POINT ( 'NONE',  ( 0.1250000000000000278, 2.500000000000000000, 1.530808498934190276E-17 ) ) ;
#250 = ORIENTED_EDGE ( 'NONE', *, *, #260, .F. ) ;
#251 = LINE ( 'NONE', #99, #73 ) ;
#252 =( NAMED_UNIT ( * ) PLANE_ANGLE_UNIT ( ) SI_UNIT ( $, .RADIAN. ) );
#253 = DIRECTION ( 'NONE',  ( -1.199974473742344140E-16, 1.000000000000000000, -0.000000000000000000 ) ) ;
#254 =( CONVERSION_BASED_UNIT ( 'INCH', #124 ) LENGTH_UNIT ( ) NAMED_UNIT ( #7 ) );
#255 = CARTESIAN_POINT ( 'NONE',  ( 0.1250000000000000000, 0.1645448267190429414, 1.530808498934191817E-17 ) ) ;
#256 =( GEOMETRIC_REPRESENTATION_CONTEXT ( 3 ) GLOBAL_UNCERTAINTY_ASSIGNED_CONTEXT ( ( #172 ) ) GLOBAL_UNIT_ASSIGNED_CONTEXT ( ( #131, #25, #263 ) ) REPRESENTATION_CONTEXT ( 'NONE', 'WORKASPACE' ) );
#257 = VERTEX_POINT ( 'NONE', #81 ) ;
#258 = DIRECTION ( 'NONE',  ( 1.000000000000000000, 0.000000000000000000, 0.000000000000000000 ) ) ;
#259 = PRODUCT_DEFINITION_SHAPE ( 'NONE', 'NONE',  #51 ) ;
#260 = EDGE_CURVE ( 'NONE', #274, #257, #53, .T. ) ;
#261 = CARTESIAN_POINT ( 'NONE',  ( -0.02999999999999999889, 1.057446651430280821E-18, 0.000000000000000000 ) ) ;
#262 = CONICAL_SURFACE ( 'NONE', #266, 0.02999999999999999889, 0.5235987755983000369 ) ;
#263 =( NAMED_UNIT ( * ) SI_UNIT ( $, .STERADIAN. ) SOLID_ANGLE_UNIT ( ) );
#264 = CARTESIAN_POINT ( 'NONE',  ( 3.414809992080329023E-16, 0.1645448267190428582, 0.000000000000000000 ) ) ;
#265 = FILL_AREA_STYLE_COLOUR ( '', #148 ) ;
#266 = AXIS2_PLACEMENT_3D ( 'NONE', #111, #64, #38 ) ;
#267 =( GEOMETRIC_REPRESENTATION_CONTEXT ( 3 ) GLOBAL_UNCERTAINTY_ASSIGNED_CONTEXT ( ( #275 ) ) GLOBAL_UNIT_ASSIGNED_CONTEXT ( ( #229, #79, #10 ) ) REPRESENTATION_CONTEXT ( 'NONE', 'WORKASPACE' ) );
#268 = DIMENSIONAL_EXPONENTS ( 1.000000000000000000, 0.000000000000000000, 0.000000000000000000, 0.000000000000000000, 0.000000000000000000, 0.000000000000000000, 0.000000000000000000 ) ;
#269 = CARTESIAN_POINT ( 'NONE',  ( 9.318278505175948881E-36, 5.287233257151404107E-19, 0.000000000000000000 ) ) ;
#270 = MANIFOLD_SOLID_BREP ( 'Revolve - Cutting Edge', #203 ) ;
#271 = SURFACE_STYLE_FILL_AREA ( #222 ) ;
#272 = CARTESIAN_POINT ( 'NONE',  ( 0.1249999999999999029, 2.500000000000000000, 1.530808498934189352E-17 ) ) ;
#273 = AXIS2_PLACEMENT_3D ( 'NONE', #14, #179, #182 ) ;
#274 = VERTEX_POINT ( 'NONE', #59 ) ;
#275 = UNCERTAINTY_MEASURE_WITH_UNIT (LENGTH_MEASURE( 1.000000000000000082E-05 ), #229, 'distance_accuracy_value', 'NONE');
#276 = EDGE_CURVE ( 'NONE', #112, #225, #159, .T. ) ;
#277 = ORIENTED_EDGE ( 'NONE', *, *, #244, .F. ) ;
#278 = DIRECTION ( 'NONE',  ( 1.000000000000000000, -1.762411085717134754E-17, 0.000000000000000000 ) ) ;
#279 = CIRCLE ( 'NONE', #105, 0.1249999999999996947 ) ;
#280 = SURFACE_SIDE_STYLE ('',( #178 ) ) ;
#281 = ORIENTED_EDGE ( 'NONE', *, *, #190, .F. ) ;
#282 = FILL_AREA_STYLE ('',( #107 ) ) ;
#283 = PRESENTATION_LAYER_ASSIGNMENT (  '', '', ( #214 ) ) ;
#284 = SURFACE_SIDE_STYLE ('',( #88 ) ) ;
#285 = CARTESIAN_POINT ( 'NONE',  ( 3.414809992080329023E-16, 0.1645448267190428582, 0.000000000000000000 ) ) ;
#286 = CARTESIAN_POINT ( 'NONE',  ( 6.123233995736772199E-17, 2.500000000000000000, 0.000000000000000000 ) ) ;
#287 = VERTEX_POINT ( 'NONE', #249 ) ;
#288 = AXIS2_PLACEMENT_3D ( 'NONE', #286, #18, #239 ) ;
#289 =( CONVERSION_BASED_UNIT ( 'INCH', #193 ) LENGTH_UNIT ( ) NAMED_UNIT ( #176 ) );
#290 = ORIENTED_EDGE ( 'NONE', *, *, #138, .T. ) ;
#291 = ADVANCED_FACE ( 'NONE', ( #303 ), #32, .T. ) ;
#292 = DIRECTION ( 'NONE',  ( 1.762411085717134754E-17, 1.000000000000000000, 0.000000000000000000 ) ) ;
#293 = PRODUCT_RELATED_PRODUCT_CATEGORY ( 'part', '', ( #70 ) ) ;
#294 = AXIS2_PLACEMENT_3D ( 'NONE', #39, #133, #234 ) ;
#295 = COLOUR_RGB ( '',1.000000000000000000, 0.000000000000000000, 0.000000000000000000 ) ;
#296 = FILL_AREA_STYLE ('',( #5 ) ) ;
#297 = DIRECTION ( 'NONE',  ( 1.000000000000000000, -1.762411085717134754E-17, 0.000000000000000000 ) ) ;
#298 = ORIENTED_EDGE ( 'NONE', *, *, #276, .F. ) ;
#299 = ORIENTED_EDGE ( 'NONE', *, *, #138, .F. ) ;
#300 = UNCERTAINTY_MEASURE_WITH_UNIT (LENGTH_MEASURE( 1.000000000000000082E-05 ), #241, 'distance_accuracy_value', 'NONE');
#301 = EDGE_LOOP ( 'NONE', ( #205, #24, #98, #156 ) ) ;
#302 = DIRECTION ( 'NONE',  ( 1.000000000000000000, 0.000000000000000000, 0.000000000000000000 ) ) ;
#303 = FACE_OUTER_BOUND ( 'NONE', #301, .T. ) ;
#304 = UNCERTAINTY_MEASURE_WITH_UNIT (LENGTH_MEASURE( 1.000000000000000082E-05 ), #289, 'distance_accuracy_value', 'NONE');
#305 = DIRECTION ( 'NONE',  ( 0.5000000000000009992, 0.8660254037844380415, 6.123233995736778362E-17 ) ) ;
#306 = DIRECTION ( 'NONE',  ( -1.762411085717134754E-17, -1.000000000000000000, -0.000000000000000000 ) ) ;
#307 = ORIENTED_EDGE ( 'NONE', *, *, #244, .T. ) ;
#308 =( GEOMETRIC_REPRESENTATION_CONTEXT ( 3 ) GLOBAL_UNCERTAINTY_ASSIGNED_CONTEXT ( ( #125 ) ) GLOBAL_UNIT_ASSIGNED_CONTEXT ( ( #216, #97, #104 ) ) REPRESENTATION_CONTEXT ( 'NONE', 'WORKASPACE' ) );
#309 = CARTESIAN_POINT ( 'NONE',  ( -0.1249999999999993477, 0.1645448267190428582, 0.000000000000000000 ) ) ;
ENDSEC;
END-ISO-10303-21;
