ISO-10303-21;
HEADER;
FILE_DESCRIPTION (( 'STEP AP214' ),
    '1' );
FILE_NAME ('59756.STEP',
    '2023-07-24T15:56:17',
    ( '' ),
    ( '' ),
    'SwSTEP 2.0',
    'SolidWorks 2023',
    '' );
FILE_SCHEMA (( 'AUTOMOTIVE_DESIGN' ));
ENDSEC;

DATA;
#1 =( NAMED_UNIT ( * ) SI_UNIT ( $, .STERADIAN. ) SOLID_ANGLE_UNIT ( ) );
#2 =( LENGTH_UNIT ( ) NAMED_UNIT ( * ) SI_UNIT ( .MILLI., .METRE. ) );
#3 = FACE_OUTER_BOUND ( 'NONE', #129, .T. ) ;
#4 = AXIS2_PLACEMENT_3D ( 'NONE', #70, #88, #181 ) ;
#5 = AXIS2_PLACEMENT_3D ( 'NONE', #200, #68, #14 ) ;
#6 = PRESENTATION_LAYER_ASSIGNMENT (  '', '', ( #41 ) ) ;
#7 = EDGE_CURVE ( 'NONE', #105, #58, #263, .T. ) ;
#8 = VERTEX_POINT ( 'NONE', #65 ) ;
#9 = COLOUR_RGB ( '',1.000000000000000000, 0.000000000000000000, 0.000000000000000000 ) ;
#10 = UNCERTAINTY_MEASURE_WITH_UNIT (LENGTH_MEASURE( 1.000000000000000082E-05 ), #224, 'distance_accuracy_value', 'NONE');
#11 = ORIENTED_EDGE ( 'NONE', *, *, #12, .F. ) ;
#12 = EDGE_CURVE ( 'NONE', #85, #8, #109, .T. ) ;
#13 =( GEOMETRIC_REPRESENTATION_CONTEXT ( 3 ) GLOBAL_UNCERTAINTY_ASSIGNED_CONTEXT ( ( #19 ) ) GLOBAL_UNIT_ASSIGNED_CONTEXT ( ( #102, #23, #53 ) ) REPRESENTATION_CONTEXT ( 'NONE', 'WORKASPACE' ) );
#14 = DIRECTION ( 'NONE',  ( 0.000000000000000000, 0.000000000000000000, -1.000000000000000000 ) ) ;
#15 = DIRECTION ( 'NONE',  ( 1.000000000000000000, 2.245185798436817151E-17, 0.000000000000000000 ) ) ;
#16 = SURFACE_STYLE_USAGE ( .BOTH. , #225 ) ;
#17 = DIRECTION ( 'NONE',  ( -2.245185798436817151E-17, 1.000000000000000000, -0.000000000000000000 ) ) ;
#18 = FACE_OUTER_BOUND ( 'NONE', #59, .T. ) ;
#19 = UNCERTAINTY_MEASURE_WITH_UNIT (LENGTH_MEASURE( 1.000000000000000082E-05 ), #102, 'distance_accuracy_value', 'NONE');
#20 = AXIS2_PLACEMENT_3D ( 'NONE', #278, #197, #262 ) ;
#21 = PRESENTATION_STYLE_ASSIGNMENT (( #144 ) ) ;
#22 = SURFACE_SIDE_STYLE ('',( #146 ) ) ;
#23 =( NAMED_UNIT ( * ) PLANE_ANGLE_UNIT ( ) SI_UNIT ( $, .RADIAN. ) );
#24 = PRESENTATION_LAYER_ASSIGNMENT (  '', '', ( #159 ) ) ;
#25 = CIRCLE ( 'NONE', #143, 10.00000000000000000 ) ;
#26 = ORIENTED_EDGE ( 'NONE', *, *, #87, .F. ) ;
#27 = CARTESIAN_POINT ( 'NONE',  ( -10.00000000000000355, 100.0000000000000000, 0.000000000000000000 ) ) ;
#28 = ORIENTED_EDGE ( 'NONE', *, *, #33, .T. ) ;
#29 = ORIENTED_EDGE ( 'NONE', *, *, #221, .F. ) ;
#30 = MECHANICAL_DESIGN_GEOMETRIC_PRESENTATION_REPRESENTATION (  '', ( #94 ), #264 ) ;
#31 = VECTOR ( 'NONE', #62, 1000.000000000000000 ) ;
#32 = CARTESIAN_POINT ( 'NONE',  ( 10.00000000000000178, 100.0000000000000000, 1.224646799147353454E-15 ) ) ;
#33 = EDGE_CURVE ( 'NONE', #8, #148, #117, .T. ) ;
#34 = DIRECTION ( 'NONE',  ( 0.000000000000000000, 0.000000000000000000, 1.000000000000000000 ) ) ;
#35 =( NAMED_UNIT ( * ) SI_UNIT ( $, .STERADIAN. ) SOLID_ANGLE_UNIT ( ) );
#36 = DIRECTION ( 'NONE',  ( -0.000000000000000000, -1.000000000000000000, -0.000000000000000000 ) ) ;
#37 = CARTESIAN_POINT ( 'NONE',  ( 0.000000000000000000, 0.000000000000000000, 0.000000000000000000 ) ) ;
#38 = COLOUR_RGB ( '',0.7921568627450980005, 0.8196078431372548767, 0.9333333333333333481 ) ;
#39 = AXIS2_PLACEMENT_3D ( 'NONE', #100, #166, #71 ) ;
#40 =( LENGTH_UNIT ( ) NAMED_UNIT ( * ) SI_UNIT ( .MILLI., .METRE. ) );
#41 = STYLED_ITEM ( 'NONE', ( #79 ), #112 ) ;
#42 = SURFACE_STYLE_FILL_AREA ( #101 ) ;
#43 = APPLICATION_CONTEXT ( 'automotive_design' ) ;
#44 = SURFACE_STYLE_FILL_AREA ( #90 ) ;
#45 = DIRECTION ( 'NONE',  ( -1.000000000000000000, 0.000000000000000000, 0.000000000000000000 ) ) ;
#46 = CARTESIAN_POINT ( 'NONE',  ( -10.00000000000000000, 40.00000000000000000, 0.000000000000000000 ) ) ;
#47 = SURFACE_SIDE_STYLE ('',( #249 ) ) ;
#48 = AXIS2_PLACEMENT_3D ( 'NONE', #266, #36, #133 ) ;
#49 =( LENGTH_UNIT ( ) NAMED_UNIT ( * ) SI_UNIT ( .MILLI., .METRE. ) );
#50 = CIRCLE ( 'NONE', #229, 10.00000000000000355 ) ;
#51 = CARTESIAN_POINT ( 'NONE',  ( 0.000000000000000000, 0.000000000000000000, 0.000000000000000000 ) ) ;
#52 = DIRECTION ( 'NONE',  ( 0.000000000000000000, 0.000000000000000000, -1.000000000000000000 ) ) ;
#53 =( NAMED_UNIT ( * ) SI_UNIT ( $, .STERADIAN. ) SOLID_ANGLE_UNIT ( ) );
#54 = AXIS2_PLACEMENT_3D ( 'NONE', #215, #66, #15 ) ;
#55 = ADVANCED_FACE ( 'NONE', ( #176 ), #280, .T. ) ;
#56 = ORIENTED_EDGE ( 'NONE', *, *, #238, .F. ) ;
#57 = ORIENTED_EDGE ( 'NONE', *, *, #206, .T. ) ;
#58 = VERTEX_POINT ( 'NONE', #32 ) ;
#59 = EDGE_LOOP ( 'NONE', ( #259, #257, #126, #106 ) ) ;
#60 = UNCERTAINTY_MEASURE_WITH_UNIT (LENGTH_MEASURE( 1.000000000000000082E-05 ), #2, 'distance_accuracy_value', 'NONE');
#61 = PRODUCT ( '59756', '59756', '', ( #222 ) ) ;
#62 = DIRECTION ( 'NONE',  ( -0.000000000000000000, -1.000000000000000000, -0.000000000000000000 ) ) ;
#63 =( LENGTH_UNIT ( ) NAMED_UNIT ( * ) SI_UNIT ( .MILLI., .METRE. ) );
#64 = AXIS2_PLACEMENT_3D ( 'NONE', #69, #268, #45 ) ;
#65 = CARTESIAN_POINT ( 'NONE',  ( 1.224646799147353256E-15, 40.00000000000000000, 10.00000000000000000 ) ) ;
#66 = DIRECTION ( 'NONE',  ( 2.245185798436817151E-17, -1.000000000000000000, 0.000000000000000000 ) ) ;
#67 =( NAMED_UNIT ( * ) SI_UNIT ( $, .STERADIAN. ) SOLID_ANGLE_UNIT ( ) );
#68 = DIRECTION ( 'NONE',  ( -0.000000000000000000, -1.000000000000000000, -0.000000000000000000 ) ) ;
#69 = CARTESIAN_POINT ( 'NONE',  ( 1.925929944387235853E-31, 40.00000000000000000, 0.000000000000000000 ) ) ;
#70 = CARTESIAN_POINT ( 'NONE',  ( -1.347111479062090180E-15, 100.0000000000000000, 0.000000000000000000 ) ) ;
#71 = DIRECTION ( 'NONE',  ( 0.000000000000000000, 0.000000000000000000, -1.000000000000000000 ) ) ;
#72 = CYLINDRICAL_SURFACE ( 'NONE', #128, 10.00000000000000000 ) ;
#73 = SURFACE_STYLE_USAGE ( .BOTH. , #124 ) ;
#74 = PRODUCT_RELATED_PRODUCT_CATEGORY ( 'part', '', ( #61 ) ) ;
#75 = DIRECTION ( 'NONE',  ( -1.000000000000000000, 0.000000000000000000, 0.000000000000000000 ) ) ;
#76 =( NAMED_UNIT ( * ) PLANE_ANGLE_UNIT ( ) SI_UNIT ( $, .RADIAN. ) );
#77 = SURFACE_STYLE_FILL_AREA ( #118 ) ;
#78 = AXIS2_PLACEMENT_3D ( 'NONE', #240, #89, #265 ) ;
#79 = PRESENTATION_STYLE_ASSIGNMENT (( #251 ) ) ;
#80 = VERTEX_POINT ( 'NONE', #260 ) ;
#81 = DIRECTION ( 'NONE',  ( -2.245185798436817151E-17, 1.000000000000000000, -0.000000000000000000 ) ) ;
#82 = ORIENTED_EDGE ( 'NONE', *, *, #288, .T. ) ;
#83 = PLANE ( 'NONE',  #54 ) ;
#84 = STYLED_ITEM ( 'NONE', ( #158 ), #91 ) ;
#85 = VERTEX_POINT ( 'NONE', #155 ) ;
#86 = FACE_OUTER_BOUND ( 'NONE', #199, .T. ) ;
#87 = EDGE_CURVE ( 'NONE', #8, #85, #174, .T. ) ;
#88 = DIRECTION ( 'NONE',  ( -2.245185798436817151E-17, 1.000000000000000000, -0.000000000000000000 ) ) ;
#89 = DIRECTION ( 'NONE',  ( -2.245185798436817151E-17, 1.000000000000000000, 0.000000000000000000 ) ) ;
#90 = FILL_AREA_STYLE ('',( #237 ) ) ;
#91 = MANIFOLD_SOLID_BREP ( 'Revolve - Cutting Edge', #169 ) ;
#92 = DIRECTION ( 'NONE',  ( -1.000000000000000000, 0.000000000000000000, 0.000000000000000000 ) ) ;
#93 = FACE_OUTER_BOUND ( 'NONE', #127, .T. ) ;
#94 = STYLED_ITEM ( 'NONE', ( #168 ), #104 ) ;
#95 = AXIS2_PLACEMENT_3D ( 'NONE', #208, #17, #182 ) ;
#96 = DIRECTION ( 'NONE',  ( -2.245185798436817151E-17, 1.000000000000000000, -0.000000000000000000 ) ) ;
#97 = CYLINDRICAL_SURFACE ( 'NONE', #20, 10.00000000000000000 ) ;
#98 = SURFACE_STYLE_USAGE ( .BOTH. , #121 ) ;
#99 = MANIFOLD_SOLID_BREP ( 'Revolve - Tool Body (Straight Shanked)', #119 ) ;
#100 = CARTESIAN_POINT ( 'NONE',  ( 0.000000000000000000, 0.000000000000000000, 0.000000000000000000 ) ) ;
#101 = FILL_AREA_STYLE ('',( #282 ) ) ;
#102 =( LENGTH_UNIT ( ) NAMED_UNIT ( * ) SI_UNIT ( .MILLI., .METRE. ) );
#103 = SURFACE_SIDE_STYLE ('',( #141 ) ) ;
#104 = ADVANCED_FACE ( 'NONE', ( #93 ), #123, .T. ) ;
#105 = VERTEX_POINT ( 'NONE', #164 ) ;
#106 = ORIENTED_EDGE ( 'NONE', *, *, #226, .F. ) ;
#107 = UNCERTAINTY_MEASURE_WITH_UNIT (LENGTH_MEASURE( 1.000000000000000082E-05 ), #183, 'distance_accuracy_value', 'NONE');
#108 = ORIENTED_EDGE ( 'NONE', *, *, #7, .T. ) ;
#109 = CIRCLE ( 'NONE', #5, 10.00000000000000000 ) ;
#110 =( GEOMETRIC_REPRESENTATION_CONTEXT ( 3 ) GLOBAL_UNCERTAINTY_ASSIGNED_CONTEXT ( ( #107 ) ) GLOBAL_UNIT_ASSIGNED_CONTEXT ( ( #183, #76, #284 ) ) REPRESENTATION_CONTEXT ( 'NONE', 'WORKASPACE' ) );
#111 = ORIENTED_EDGE ( 'NONE', *, *, #147, .F. ) ;
#112 = ADVANCED_FACE ( 'NONE', ( #3 ), #72, .T. ) ;
#113 = CARTESIAN_POINT ( 'NONE',  ( 1.224646799147353256E-15, 0.000000000000000000, 10.00000000000000000 ) ) ;
#114 = VECTOR ( 'NONE', #157, 1000.000000000000000 ) ;
#115 = DIRECTION ( 'NONE',  ( 1.000000000000000000, 0.000000000000000000, 0.000000000000000000 ) ) ;
#116 =( NAMED_UNIT ( * ) PLANE_ANGLE_UNIT ( ) SI_UNIT ( $, .RADIAN. ) );
#117 = LINE ( 'NONE', #113, #134 ) ;
#118 = FILL_AREA_STYLE ('',( #231 ) ) ;
#119 = CLOSED_SHELL ( 'NONE', ( #212, #195, #55, #161 ) ) ;
#120 =( GEOMETRIC_REPRESENTATION_CONTEXT ( 3 ) GLOBAL_UNCERTAINTY_ASSIGNED_CONTEXT ( ( #150 ) ) GLOBAL_UNIT_ASSIGNED_CONTEXT ( ( #63, #241, #67 ) ) REPRESENTATION_CONTEXT ( 'NONE', 'WORKASPACE' ) );
#121 = SURFACE_SIDE_STYLE ('',( #42 ) ) ;
#122 = FACE_OUTER_BOUND ( 'NONE', #153, .T. ) ;
#123 = PLANE ( 'NONE',  #142 ) ;
#124 = SURFACE_SIDE_STYLE ('',( #77 ) ) ;
#125 =( GEOMETRIC_REPRESENTATION_CONTEXT ( 3 ) GLOBAL_UNCERTAINTY_ASSIGNED_CONTEXT ( ( #10 ) ) GLOBAL_UNIT_ASSIGNED_CONTEXT ( ( #224, #167, #35 ) ) REPRESENTATION_CONTEXT ( 'NONE', 'WORKASPACE' ) );
#126 = ORIENTED_EDGE ( 'NONE', *, *, #202, .T. ) ;
#127 = EDGE_LOOP ( 'NONE', ( #220, #171 ) ) ;
#128 = AXIS2_PLACEMENT_3D ( 'NONE', #271, #160, #248 ) ;
#129 = EDGE_LOOP ( 'NONE', ( #190, #28, #29, #173 ) ) ;
#130 = PRESENTATION_LAYER_ASSIGNMENT (  '', '', ( #94 ) ) ;
#131 = ORIENTED_EDGE ( 'NONE', *, *, #7, .F. ) ;
#132 = VERTEX_POINT ( 'NONE', #46 ) ;
#133 = DIRECTION ( 'NONE',  ( 0.000000000000000000, 0.000000000000000000, -1.000000000000000000 ) ) ;
#134 = VECTOR ( 'NONE', #196, 1000.000000000000000 ) ;
#135 = CIRCLE ( 'NONE', #170, 10.00000000000000000 ) ;
#136 = FILL_AREA_STYLE ('',( #223 ) ) ;
#137 = CARTESIAN_POINT ( 'NONE',  ( 10.00000000000000000, 100.0000000000000000, 1.224646799147353454E-15 ) ) ;
#138 = DIRECTION ( 'NONE',  ( 0.000000000000000000, 1.000000000000000000, 0.000000000000000000 ) ) ;
#139 = FILL_AREA_STYLE_COLOUR ( '', #9 ) ;
#140 = CARTESIAN_POINT ( 'NONE',  ( 0.000000000000000000, 40.00000000000000000, 0.000000000000000000 ) ) ;
#141 = SURFACE_STYLE_FILL_AREA ( #286 ) ;
#142 = AXIS2_PLACEMENT_3D ( 'NONE', #207, #204, #52 ) ;
#143 = AXIS2_PLACEMENT_3D ( 'NONE', #51, #243, #145 ) ;
#144 = SURFACE_STYLE_USAGE ( .BOTH. , #47 ) ;
#145 = DIRECTION ( 'NONE',  ( 0.000000000000000000, 0.000000000000000000, -1.000000000000000000 ) ) ;
#146 = SURFACE_STYLE_FILL_AREA ( #136 ) ;
#147 = EDGE_CURVE ( 'NONE', #132, #232, #188, .T. ) ;
#148 = VERTEX_POINT ( 'NONE', #172 ) ;
#149 = STYLED_ITEM ( 'NONE', ( #21 ), #272 ) ;
#150 = UNCERTAINTY_MEASURE_WITH_UNIT (LENGTH_MEASURE( 1.000000000000000082E-05 ), #63, 'distance_accuracy_value', 'NONE');
#151 = PLANE ( 'NONE',  #78 ) ;
#152 = UNCERTAINTY_MEASURE_WITH_UNIT (LENGTH_MEASURE( 1.000000000000000082E-05 ), #49, 'distance_accuracy_value', 'NONE');
#153 = EDGE_LOOP ( 'NONE', ( #213, #108, #281, #111 ) ) ;
#154 = DIRECTION ( 'NONE',  ( -1.000000000000000000, 0.000000000000000000, 0.000000000000000000 ) ) ;
#155 = CARTESIAN_POINT ( 'NONE',  ( 0.000000000000000000, 40.00000000000000000, -10.00000000000000000 ) ) ;
#156 = AXIS2_PLACEMENT_3D ( 'NONE', #140, #138, #247 ) ;
#157 = DIRECTION ( 'NONE',  ( -2.245185798436817151E-17, 1.000000000000000000, -0.000000000000000000 ) ) ;
#158 = PRESENTATION_STYLE_ASSIGNMENT (( #16 ) ) ;
#159 = STYLED_ITEM ( 'NONE', ( #163 ), #99 ) ;
#160 = DIRECTION ( 'NONE',  ( -0.000000000000000000, -1.000000000000000000, -0.000000000000000000 ) ) ;
#161 = ADVANCED_FACE ( 'NONE', ( #255 ), #83, .F. ) ;
#162 = PRESENTATION_STYLE_ASSIGNMENT (( #73 ) ) ;
#163 = PRESENTATION_STYLE_ASSIGNMENT (( #98 ) ) ;
#164 = CARTESIAN_POINT ( 'NONE',  ( 10.00000000000000000, 40.00000000000000000, 1.224646799147353454E-15 ) ) ;
#165 = CIRCLE ( 'NONE', #95, 10.00000000000000355 ) ;
#166 = DIRECTION ( 'NONE',  ( -0.000000000000000000, -1.000000000000000000, -0.000000000000000000 ) ) ;
#167 =( NAMED_UNIT ( * ) PLANE_ANGLE_UNIT ( ) SI_UNIT ( $, .RADIAN. ) );
#168 = PRESENTATION_STYLE_ASSIGNMENT (( #230 ) ) ;
#169 = CLOSED_SHELL ( 'NONE', ( #112, #252, #272, #104 ) ) ;
#170 = AXIS2_PLACEMENT_3D ( 'NONE', #186, #96, #92 ) ;
#171 = ORIENTED_EDGE ( 'NONE', *, *, #226, .T. ) ;
#172 = CARTESIAN_POINT ( 'NONE',  ( 1.224646799147353256E-15, 0.000000000000000000, 10.00000000000000000 ) ) ;
#173 = ORIENTED_EDGE ( 'NONE', *, *, #202, .F. ) ;
#174 = CIRCLE ( 'NONE', #48, 10.00000000000000000 ) ;
#175 = CARTESIAN_POINT ( 'NONE',  ( -1.347111479062090180E-15, 100.0000000000000000, 0.000000000000000000 ) ) ;
#176 = FACE_OUTER_BOUND ( 'NONE', #214, .T. ) ;
#177 = DIRECTION ( 'NONE',  ( -2.245185798436817151E-17, 1.000000000000000000, -0.000000000000000000 ) ) ;
#178 = PRODUCT_DEFINITION ( 'UNKNOWN', '', #245, #216 ) ;
#179 = CIRCLE ( 'NONE', #64, 10.00000000000000000 ) ;
#180 = EDGE_LOOP ( 'NONE', ( #254, #82 ) ) ;
#181 = DIRECTION ( 'NONE',  ( -1.000000000000000000, 0.000000000000000000, 0.000000000000000000 ) ) ;
#182 = DIRECTION ( 'NONE',  ( -1.000000000000000000, 0.000000000000000000, 0.000000000000000000 ) ) ;
#183 =( LENGTH_UNIT ( ) NAMED_UNIT ( * ) SI_UNIT ( .MILLI., .METRE. ) );
#184 =( NAMED_UNIT ( * ) PLANE_ANGLE_UNIT ( ) SI_UNIT ( $, .RADIAN. ) );
#185 = FILL_AREA_STYLE_COLOUR ( '', #211 ) ;
#186 = CARTESIAN_POINT ( 'NONE',  ( 1.925929944387235853E-31, 40.00000000000000000, 0.000000000000000000 ) ) ;
#187 = MECHANICAL_DESIGN_GEOMETRIC_PRESENTATION_REPRESENTATION (  '', ( #149 ), #13 ) ;
#188 = LINE ( 'NONE', #27, #275 ) ;
#189 = MECHANICAL_DESIGN_GEOMETRIC_PRESENTATION_REPRESENTATION (  '', ( #270 ), #198 ) ;
#190 = ORIENTED_EDGE ( 'NONE', *, *, #12, .T. ) ;
#191 = UNCERTAINTY_MEASURE_WITH_UNIT (LENGTH_MEASURE( 1.000000000000000082E-05 ), #40, 'distance_accuracy_value', 'NONE');
#192 = MECHANICAL_DESIGN_GEOMETRIC_PRESENTATION_REPRESENTATION (  '', ( #159 ), #269 ) ;
#193 = LINE ( 'NONE', #261, #31 ) ;
#194 = COLOUR_RGB ( '',1.000000000000000000, 0.000000000000000000, 0.000000000000000000 ) ;
#195 = ADVANCED_FACE ( 'NONE', ( #86 ), #151, .F. ) ;
#196 = DIRECTION ( 'NONE',  ( -0.000000000000000000, -1.000000000000000000, -0.000000000000000000 ) ) ;
#197 = DIRECTION ( 'NONE',  ( -0.000000000000000000, -1.000000000000000000, -0.000000000000000000 ) ) ;
#198 =( GEOMETRIC_REPRESENTATION_CONTEXT ( 3 ) GLOBAL_UNCERTAINTY_ASSIGNED_CONTEXT ( ( #191 ) ) GLOBAL_UNIT_ASSIGNED_CONTEXT ( ( #40, #116, #1 ) ) REPRESENTATION_CONTEXT ( 'NONE', 'WORKASPACE' ) );
#199 = EDGE_LOOP ( 'NONE', ( #56, #239 ) ) ;
#200 = CARTESIAN_POINT ( 'NONE',  ( 0.000000000000000000, 40.00000000000000000, 0.000000000000000000 ) ) ;
#201 = PLANE ( 'NONE',  #156 ) ;
#202 = EDGE_CURVE ( 'NONE', #85, #80, #193, .T. ) ;
#203 = CARTESIAN_POINT ( 'NONE',  ( -1.347111479062090180E-15, 100.0000000000000000, 0.000000000000000000 ) ) ;
#204 = DIRECTION ( 'NONE',  ( 0.000000000000000000, -1.000000000000000000, -0.000000000000000000 ) ) ;
#205 = PRESENTATION_LAYER_ASSIGNMENT (  '', '', ( #149 ) ) ;
#206 = EDGE_CURVE ( 'NONE', #105, #132, #179, .T. ) ;
#207 = CARTESIAN_POINT ( 'NONE',  ( 0.000000000000000000, 0.000000000000000000, 0.000000000000000000 ) ) ;
#208 = CARTESIAN_POINT ( 'NONE',  ( -1.347111479062090180E-15, 100.0000000000000000, 0.000000000000000000 ) ) ;
#209 =( NAMED_UNIT ( * ) PLANE_ANGLE_UNIT ( ) SI_UNIT ( $, .RADIAN. ) );
#210 = ADVANCED_BREP_SHAPE_REPRESENTATION ( '59756', ( #91, #99, #253 ), #120 ) ;
#211 = COLOUR_RGB ( '',1.000000000000000000, 0.000000000000000000, 0.000000000000000000 ) ;
#212 = ADVANCED_FACE ( 'NONE', ( #122 ), #285, .T. ) ;
#213 = ORIENTED_EDGE ( 'NONE', *, *, #238, .T. ) ;
#214 = EDGE_LOOP ( 'NONE', ( #131, #57, #235, #256 ) ) ;
#215 = CARTESIAN_POINT ( 'NONE',  ( 10.00000000000000178, 100.0000000000000000, 0.000000000000000000 ) ) ;
#216 = PRODUCT_DEFINITION_CONTEXT ( 'detailed design', #43, 'design' ) ;
#217 = PRESENTATION_LAYER_ASSIGNMENT (  '', '', ( #84 ) ) ;
#218 = AXIS2_PLACEMENT_3D ( 'NONE', #203, #250, #75 ) ;
#219 = APPLICATION_PROTOCOL_DEFINITION ( 'draft international standard', 'automotive_design', 1998, #283 ) ;
#220 = ORIENTED_EDGE ( 'NONE', *, *, #221, .T. ) ;
#221 = EDGE_CURVE ( 'NONE', #80, #148, #258, .T. ) ;
#222 = PRODUCT_CONTEXT ( 'NONE', #283, 'mechanical' ) ;
#223 = FILL_AREA_STYLE_COLOUR ( '', #228 ) ;
#224 =( LENGTH_UNIT ( ) NAMED_UNIT ( * ) SI_UNIT ( .MILLI., .METRE. ) );
#225 = SURFACE_SIDE_STYLE ('',( #44 ) ) ;
#226 = EDGE_CURVE ( 'NONE', #148, #80, #25, .T. ) ;
#227 =( NAMED_UNIT ( * ) SI_UNIT ( $, .STERADIAN. ) SOLID_ANGLE_UNIT ( ) );
#228 = COLOUR_RGB ( '',1.000000000000000000, 0.000000000000000000, 0.000000000000000000 ) ;
#229 = AXIS2_PLACEMENT_3D ( 'NONE', #175, #177, #154 ) ;
#230 = SURFACE_STYLE_USAGE ( .BOTH. , #22 ) ;
#231 = FILL_AREA_STYLE_COLOUR ( '', #194 ) ;
#232 = VERTEX_POINT ( 'NONE', #267 ) ;
#233 = PRESENTATION_LAYER_ASSIGNMENT (  '', '', ( #270 ) ) ;
#234 = EDGE_LOOP ( 'NONE', ( #11, #26 ) ) ;
#235 = ORIENTED_EDGE ( 'NONE', *, *, #147, .T. ) ;
#236 = SHAPE_DEFINITION_REPRESENTATION ( #242, #210 ) ;
#237 = FILL_AREA_STYLE_COLOUR ( '', #38 ) ;
#238 = EDGE_CURVE ( 'NONE', #132, #105, #135, .T. ) ;
#239 = ORIENTED_EDGE ( 'NONE', *, *, #206, .F. ) ;
#240 = CARTESIAN_POINT ( 'NONE',  ( 2.520429634751184325E-33, 40.00000000000000000, 0.000000000000000000 ) ) ;
#241 =( NAMED_UNIT ( * ) PLANE_ANGLE_UNIT ( ) SI_UNIT ( $, .RADIAN. ) );
#242 = PRODUCT_DEFINITION_SHAPE ( 'NONE', 'NONE',  #178 ) ;
#243 = DIRECTION ( 'NONE',  ( -0.000000000000000000, -1.000000000000000000, -0.000000000000000000 ) ) ;
#244 = MECHANICAL_DESIGN_GEOMETRIC_PRESENTATION_REPRESENTATION (  '', ( #84 ), #125 ) ;
#245 = PRODUCT_DEFINITION_FORMATION_WITH_SPECIFIED_SOURCE ( 'ANY', '', #61, .NOT_KNOWN. ) ;
#246 = EDGE_CURVE ( 'NONE', #232, #58, #165, .T. ) ;
#247 = DIRECTION ( 'NONE',  ( 0.000000000000000000, -0.000000000000000000, 1.000000000000000000 ) ) ;
#248 = DIRECTION ( 'NONE',  ( 0.000000000000000000, 0.000000000000000000, -1.000000000000000000 ) ) ;
#249 = SURFACE_STYLE_FILL_AREA ( #273 ) ;
#250 = DIRECTION ( 'NONE',  ( -2.245185798436817151E-17, 1.000000000000000000, -0.000000000000000000 ) ) ;
#251 = SURFACE_STYLE_USAGE ( .BOTH. , #103 ) ;
#252 = ADVANCED_FACE ( 'NONE', ( #274 ), #201, .T. ) ;
#253 = AXIS2_PLACEMENT_3D ( 'NONE', #37, #34, #115 ) ;
#254 = ORIENTED_EDGE ( 'NONE', *, *, #246, .T. ) ;
#255 = FACE_OUTER_BOUND ( 'NONE', #180, .T. ) ;
#256 = ORIENTED_EDGE ( 'NONE', *, *, #288, .F. ) ;
#257 = ORIENTED_EDGE ( 'NONE', *, *, #87, .T. ) ;
#258 = CIRCLE ( 'NONE', #39, 10.00000000000000000 ) ;
#259 = ORIENTED_EDGE ( 'NONE', *, *, #33, .F. ) ;
#260 = CARTESIAN_POINT ( 'NONE',  ( 0.000000000000000000, 0.000000000000000000, -10.00000000000000000 ) ) ;
#261 = CARTESIAN_POINT ( 'NONE',  ( 0.000000000000000000, 0.000000000000000000, -10.00000000000000000 ) ) ;
#262 = DIRECTION ( 'NONE',  ( 0.000000000000000000, 0.000000000000000000, -1.000000000000000000 ) ) ;
#263 = LINE ( 'NONE', #137, #114 ) ;
#264 =( GEOMETRIC_REPRESENTATION_CONTEXT ( 3 ) GLOBAL_UNCERTAINTY_ASSIGNED_CONTEXT ( ( #60 ) ) GLOBAL_UNIT_ASSIGNED_CONTEXT ( ( #2, #184, #276 ) ) REPRESENTATION_CONTEXT ( 'NONE', 'WORKASPACE' ) );
#265 = DIRECTION ( 'NONE',  ( -1.000000000000000000, -2.245185798436817151E-17, 0.000000000000000000 ) ) ;
#266 = CARTESIAN_POINT ( 'NONE',  ( 0.000000000000000000, 40.00000000000000000, 0.000000000000000000 ) ) ;
#267 = CARTESIAN_POINT ( 'NONE',  ( -10.00000000000000533, 100.0000000000000000, 0.000000000000000000 ) ) ;
#268 = DIRECTION ( 'NONE',  ( -2.245185798436817151E-17, 1.000000000000000000, -0.000000000000000000 ) ) ;
#269 =( GEOMETRIC_REPRESENTATION_CONTEXT ( 3 ) GLOBAL_UNCERTAINTY_ASSIGNED_CONTEXT ( ( #152 ) ) GLOBAL_UNIT_ASSIGNED_CONTEXT ( ( #49, #209, #227 ) ) REPRESENTATION_CONTEXT ( 'NONE', 'WORKASPACE' ) );
#270 = STYLED_ITEM ( 'NONE', ( #162 ), #252 ) ;
#271 = CARTESIAN_POINT ( 'NONE',  ( 0.000000000000000000, 0.000000000000000000, 0.000000000000000000 ) ) ;
#272 = ADVANCED_FACE ( 'NONE', ( #18 ), #97, .T. ) ;
#273 = FILL_AREA_STYLE ('',( #185 ) ) ;
#274 = FACE_OUTER_BOUND ( 'NONE', #234, .T. ) ;
#275 = VECTOR ( 'NONE', #81, 1000.000000000000000 ) ;
#276 =( NAMED_UNIT ( * ) SI_UNIT ( $, .STERADIAN. ) SOLID_ANGLE_UNIT ( ) );
#277 = COLOUR_RGB ( '',0.7921568627450980005, 0.8196078431372548767, 0.9333333333333333481 ) ;
#278 = CARTESIAN_POINT ( 'NONE',  ( 0.000000000000000000, 0.000000000000000000, 0.000000000000000000 ) ) ;
#279 = APPLICATION_PROTOCOL_DEFINITION ( 'draft international standard', 'automotive_design', 1998, #43 ) ;
#280 = CYLINDRICAL_SURFACE ( 'NONE', #4, 10.00000000000000178 ) ;
#281 = ORIENTED_EDGE ( 'NONE', *, *, #246, .F. ) ;
#282 = FILL_AREA_STYLE_COLOUR ( '', #277 ) ;
#283 = APPLICATION_CONTEXT ( 'automotive_design' ) ;
#284 =( NAMED_UNIT ( * ) SI_UNIT ( $, .STERADIAN. ) SOLID_ANGLE_UNIT ( ) );
#285 = CYLINDRICAL_SURFACE ( 'NONE', #218, 10.00000000000000178 ) ;
#286 = FILL_AREA_STYLE ('',( #139 ) ) ;
#287 = MECHANICAL_DESIGN_GEOMETRIC_PRESENTATION_REPRESENTATION (  '', ( #41 ), #110 ) ;
#288 = EDGE_CURVE ( 'NONE', #58, #232, #50, .T. ) ;
ENDSEC;
END-ISO-10303-21;
