ISO-10303-21;
HEADER;
FILE_DESCRIPTION (( 'STEP AP214' ),
    '1' );
FILE_NAME ('Micro_GEMM-010-3X.STEP',
    '2021-09-01T21:13:21',
    ( '' ),
    ( '' ),
    'SwSTEP 2.0',
    'SolidWorks 2020',
    '' );
FILE_SCHEMA (( 'AUTOMOTIVE_DESIGN' ));
ENDSEC;

DATA;
#1 = CARTESIAN_POINT ( 'NONE',  ( 0.01966531499999996796, 0.0000000000000000000, 0.1181099999999999650 ) ) ;
#2 = VERTEX_POINT ( 'NONE', #41 ) ;
#3 = ORIENTED_EDGE ( 'NONE', *, *, #182, .F. ) ;
#4 = AXIS2_PLACEMENT_3D ( 'NONE', #113, #68, #75 ) ;
#5 = CARTESIAN_POINT ( 'NONE',  ( 4.182168873229443489E-17, 0.0000000000000000000, 0.3415000044209671182 ) ) ;
#6 = EDGE_CURVE ( 'NONE', #205, #218, #258, .T. ) ;
#7 = VERTEX_POINT ( 'NONE', #89 ) ;
#8 = ORIENTED_EDGE ( 'NONE', *, *, #6, .T. ) ;
#9 = AXIS2_PLACEMENT_3D ( 'NONE', #282, #103, #268 ) ;
#10 = DIRECTION ( 'NONE',  ( 0.0000000000000000000, 0.0000000000000000000, -1.000000000000000000 ) ) ;
#11 = ADVANCED_FACE ( 'NONE', ( #22 ), #277, .T. ) ;
#12 = SURFACE_STYLE_FILL_AREA ( #33 ) ;
#13 = DIRECTION ( 'NONE',  ( 0.0000000000000000000, 0.0000000000000000000, 1.000000000000000000 ) ) ;
#14 = DIRECTION ( 'NONE',  ( -0.0000000000000000000, -0.0000000000000000000, -1.000000000000000000 ) ) ;
#15 = FILL_AREA_STYLE_COLOUR ( '', #129 ) ;
#16 = CARTESIAN_POINT ( 'NONE',  ( 1.446430334472938160E-17, 0.0000000000000000000, 0.1181099999999999650 ) ) ;
#17 = VECTOR ( 'NONE', #48, 39.37007874015748854 ) ;
#18 = ORIENTED_EDGE ( 'NONE', *, *, #116, .T. ) ;
#19 = SURFACE_STYLE_USAGE ( .BOTH. , #281 ) ;
#20 = ORIENTED_EDGE ( 'NONE', *, *, #116, .F. ) ;
#21 = VECTOR ( 'NONE', #227, 39.37007874015748143 ) ;
#22 = FACE_OUTER_BOUND ( 'NONE', #232, .T. ) ;
#23 = CARTESIAN_POINT ( 'NONE',  ( 0.0000000000000000000, 0.0000000000000000000, 1.496062999999999921 ) ) ;
#24 = PRODUCT ( 'Micro_GEMM-010-3X', 'Micro_GEMM-010-3X', '', ( #265 ) ) ;
#25 =( NAMED_UNIT ( * ) PLANE_ANGLE_UNIT ( ) SI_UNIT ( $, .RADIAN. ) );
#26 = ADVANCED_FACE ( 'NONE', ( #27 ), #162, .F. ) ;
#27 = FACE_OUTER_BOUND ( 'NONE', #237, .T. ) ;
#28 = ORIENTED_EDGE ( 'NONE', *, *, #74, .T. ) ;
#29 = DIRECTION ( 'NONE',  ( 1.000000000000000000, 0.0000000000000000000, 0.0000000000000000000 ) ) ;
#30 = EDGE_CURVE ( 'NONE', #153, #254, #224, .T. ) ;
#31 = AXIS2_PLACEMENT_3D ( 'NONE', #124, #298, #44 ) ;
#32 = CARTESIAN_POINT ( 'NONE',  ( 2.949324855037690456E-34, 0.0000000000000000000, 2.408306506897438479E-18 ) ) ;
#33 = FILL_AREA_STYLE ('',( #15 ) ) ;
#34 = CARTESIAN_POINT ( 'NONE',  ( 2.949324855037690456E-34, 0.0000000000000000000, 2.408306506897438479E-18 ) ) ;
#35 = VECTOR ( 'NONE', #215, 39.37007874015748143 ) ;
#36 = ORIENTED_EDGE ( 'NONE', *, *, #263, .F. ) ;
#37 = CARTESIAN_POINT ( 'NONE',  ( 0.0000000000000000000, 0.0000000000000000000, 1.481063000000000240 ) ) ;
#38 = AXIS2_PLACEMENT_3D ( 'NONE', #164, #125, #212 ) ;
#39 = APPLICATION_CONTEXT ( 'automotive_design' ) ;
#40 =( CONVERSION_BASED_UNIT ( 'INCH', #144 ) LENGTH_UNIT ( ) NAMED_UNIT ( #96 ) );
#41 = CARTESIAN_POINT ( 'NONE',  ( 0.01966531499999996796, 2.408306506897438479E-18, -4.739000847409537175E-34 ) ) ;
#42 = EDGE_CURVE ( 'NONE', #295, #153, #133, .T. ) ;
#43 = ORIENTED_EDGE ( 'NONE', *, *, #233, .F. ) ;
#44 = DIRECTION ( 'NONE',  ( 1.000000000000000000, 0.0000000000000000000, 0.0000000000000000000 ) ) ;
#45 = AXIS2_PLACEMENT_3D ( 'NONE', #97, #285, #52 ) ;
#46 = CIRCLE ( 'NONE', #241, 0.04405500000000001082 ) ;
#47 = DIRECTION ( 'NONE',  ( -1.224646799147352961E-16, -0.0000000000000000000, -1.000000000000000000 ) ) ;
#48 = DIRECTION ( 'NONE',  ( 0.7071067811865536790, 8.659560562355008046E-17, -0.7071067811865412445 ) ) ;
#49 = DIRECTION ( 'NONE',  ( -1.000000000000000000, 0.0000000000000000000, 0.0000000000000000000 ) ) ;
#50 = UNCERTAINTY_MEASURE_WITH_UNIT (LENGTH_MEASURE( 1.000000000000000082E-05 ), #149, 'distance_accuracy_value', 'NONE');
#51 = ADVANCED_BREP_SHAPE_REPRESENTATION ( 'Micro_GEMM-010-3X', ( #157, #9 ), #73 ) ;
#52 = DIRECTION ( 'NONE',  ( 1.000000000000000000, 0.0000000000000000000, -0.0000000000000000000 ) ) ;
#53 = ORIENTED_EDGE ( 'NONE', *, *, #199, .F. ) ;
#54 = FACE_OUTER_BOUND ( 'NONE', #201, .T. ) ;
#55 = CARTESIAN_POINT ( 'NONE',  ( -0.05905499999999998251, 0.0000000000000000000, 1.496062999999999921 ) ) ;
#56 = CARTESIAN_POINT ( 'NONE',  ( 0.0000000000000000000, 0.0000000000000000000, 1.496062999999999921 ) ) ;
#57 = ADVANCED_FACE ( 'NONE', ( #60 ), #80, .T. ) ;
#58 = FACE_OUTER_BOUND ( 'NONE', #84, .T. ) ;
#59 = AXIS2_PLACEMENT_3D ( 'NONE', #292, #105, #194 ) ;
#60 = FACE_OUTER_BOUND ( 'NONE', #93, .T. ) ;
#61 = ADVANCED_FACE ( 'NONE', ( #58 ), #179, .T. ) ;
#62 = DIRECTION ( 'NONE',  ( 1.000000000000000000, 0.0000000000000000000, 0.0000000000000000000 ) ) ;
#63 = AXIS2_PLACEMENT_3D ( 'NONE', #195, #173, #107 ) ;
#64 = PRODUCT_DEFINITION_FORMATION_WITH_SPECIFIED_SOURCE ( 'ANY', '', #24, .NOT_KNOWN. ) ;
#65 = PRESENTATION_STYLE_ASSIGNMENT (( #19 ) ) ;
#66 = DIRECTION ( 'NONE',  ( 1.000000000000000000, 0.0000000000000000000, -0.0000000000000000000 ) ) ;
#67 = CARTESIAN_POINT ( 'NONE',  ( -0.04405500000000001082, 0.0000000000000000000, 1.496062999999999921 ) ) ;
#68 = DIRECTION ( 'NONE',  ( 0.0000000000000000000, 0.0000000000000000000, -1.000000000000000000 ) ) ;
#69 = ORIENTED_EDGE ( 'NONE', *, *, #244, .F. ) ;
#70 = APPLICATION_PROTOCOL_DEFINITION ( 'draft international standard', 'automotive_design', 1998, #39 ) ;
#71 = ORIENTED_EDGE ( 'NONE', *, *, #30, .T. ) ;
#72 = AXIS2_PLACEMENT_3D ( 'NONE', #121, #236, #66 ) ;
#73 =( GEOMETRIC_REPRESENTATION_CONTEXT ( 3 ) GLOBAL_UNCERTAINTY_ASSIGNED_CONTEXT ( ( #284 ) ) GLOBAL_UNIT_ASSIGNED_CONTEXT ( ( #40, #92, #141 ) ) REPRESENTATION_CONTEXT ( 'NONE', 'WORKASPACE' ) );
#74 = EDGE_CURVE ( 'NONE', #295, #2, #273, .T. ) ;
#75 = DIRECTION ( 'NONE',  ( -1.000000000000000000, 0.0000000000000000000, 0.0000000000000000000 ) ) ;
#76 = AXIS2_PLACEMENT_3D ( 'NONE', #122, #188, #261 ) ;
#77 = ORIENTED_EDGE ( 'NONE', *, *, #206, .F. ) ;
#78 = ORIENTED_EDGE ( 'NONE', *, *, #87, .T. ) ;
#79 = CARTESIAN_POINT ( 'NONE',  ( 0.05905499999999998251, 7.232151672364692341E-18, 1.481063000000000240 ) ) ;
#80 = CYLINDRICAL_SURFACE ( 'NONE', #190, 0.05905499999999998251 ) ;
#81 =( GEOMETRIC_REPRESENTATION_CONTEXT ( 3 ) GLOBAL_UNCERTAINTY_ASSIGNED_CONTEXT ( ( #50 ) ) GLOBAL_UNIT_ASSIGNED_CONTEXT ( ( #149, #25, #208 ) ) REPRESENTATION_CONTEXT ( 'NONE', 'WORKASPACE' ) );
#82 = FACE_OUTER_BOUND ( 'NONE', #126, .T. ) ;
#83 = ADVANCED_FACE ( 'NONE', ( #54 ), #240, .T. ) ;
#84 = EDGE_LOOP ( 'NONE', ( #110, #28, #186, #171 ) ) ;
#85 = DIRECTION ( 'NONE',  ( -1.000000000000000000, 0.0000000000000000000, 0.0000000000000000000 ) ) ;
#86 = CARTESIAN_POINT ( 'NONE',  ( 0.01966531499999996796, 0.0000000000000000000, 0.1181099999999999650 ) ) ;
#87 = EDGE_CURVE ( 'NONE', #119, #254, #223, .T. ) ;
#88 = AXIS2_PLACEMENT_3D ( 'NONE', #198, #181, #226 ) ;
#89 = CARTESIAN_POINT ( 'NONE',  ( -0.04405500000000001082, 0.0000000000000000000, 1.496062999999999921 ) ) ;
#90 = CARTESIAN_POINT ( 'NONE',  ( -0.05905499999999993394, 0.0000000000000000000, 0.3415000044209671182 ) ) ;
#91 = EDGE_LOOP ( 'NONE', ( #142, #8, #170, #69 ) ) ;
#92 =( NAMED_UNIT ( * ) PLANE_ANGLE_UNIT ( ) SI_UNIT ( $, .RADIAN. ) );
#93 = EDGE_LOOP ( 'NONE', ( #77, #18, #78, #184 ) ) ;
#94 = CIRCLE ( 'NONE', #220, 0.05905499999999998251 ) ;
#95 = MECHANICAL_DESIGN_GEOMETRIC_PRESENTATION_REPRESENTATION (  '', ( #150 ), #81 ) ;
#96 = DIMENSIONAL_EXPONENTS ( 1.000000000000000000, 0.0000000000000000000, 0.0000000000000000000, 0.0000000000000000000, 0.0000000000000000000, 0.0000000000000000000, 0.0000000000000000000 ) ;
#97 = CARTESIAN_POINT ( 'NONE',  ( 0.0000000000000000000, 0.0000000000000000000, 0.0000000000000000000 ) ) ;
#98 = PRODUCT_DEFINITION ( 'UNKNOWN', '', #64, #127 ) ;
#99 = SHAPE_DEFINITION_REPRESENTATION ( #136, #51 ) ;
#100 = CIRCLE ( 'NONE', #274, 0.01966531499999996796 ) ;
#101 = VECTOR ( 'NONE', #289, 39.37007874015748854 ) ;
#102 = VERTEX_POINT ( 'NONE', #245 ) ;
#103 = DIRECTION ( 'NONE',  ( 0.0000000000000000000, 0.0000000000000000000, 1.000000000000000000 ) ) ;
#104 = SURFACE_SIDE_STYLE ('',( #12 ) ) ;
#105 = DIRECTION ( 'NONE',  ( 0.0000000000000000000, 0.0000000000000000000, -1.000000000000000000 ) ) ;
#106 = LENGTH_MEASURE_WITH_UNIT ( LENGTH_MEASURE( 0.02539999999999999897 ), #135 );
#107 = DIRECTION ( 'NONE',  ( 1.000000000000000000, 0.0000000000000000000, 0.0000000000000000000 ) ) ;
#108 = CIRCLE ( 'NONE', #130, 0.05905499999999998251 ) ;
#109 = CARTESIAN_POINT ( 'NONE',  ( 0.05905500000000002414, 7.232151672364696963E-18, 0.3415000044209671182 ) ) ;
#110 = ORIENTED_EDGE ( 'NONE', *, *, #276, .T. ) ;
#111 = AXIS2_PLACEMENT_3D ( 'NONE', #56, #221, #267 ) ;
#112 = CONICAL_SURFACE ( 'NONE', #59, 0.04405500000000001082, 0.7853981633974570498 ) ;
#113 = CARTESIAN_POINT ( 'NONE',  ( 0.0000000000000000000, 0.0000000000000000000, 1.496062999999999921 ) ) ;
#114 = DIRECTION ( 'NONE',  ( -1.000000000000000000, 0.0000000000000000000, 1.224646799147352714E-16 ) ) ;
#115 = EDGE_LOOP ( 'NONE', ( #230, #3, #151, #71 ) ) ;
#116 = EDGE_CURVE ( 'NONE', #218, #119, #299, .T. ) ;
#117 =( LENGTH_UNIT ( ) NAMED_UNIT ( * ) SI_UNIT ( $, .METRE. ) );
#118 = CONICAL_SURFACE ( 'NONE', #4, 0.04405500000000001082, 0.7853981633974570498 ) ;
#119 = VERTEX_POINT ( 'NONE', #238 ) ;
#120 = LINE ( 'NONE', #217, #203 ) ;
#121 = CARTESIAN_POINT ( 'NONE',  ( 0.0000000000000000000, 0.0000000000000000000, 1.496062999999999921 ) ) ;
#122 = CARTESIAN_POINT ( 'NONE',  ( 1.446430334472938160E-17, 0.0000000000000000000, 0.1181099999999999650 ) ) ;
#123 = FILL_AREA_STYLE_COLOUR ( '', #145 ) ;
#124 = CARTESIAN_POINT ( 'NONE',  ( 1.446430334472938160E-17, 0.0000000000000000000, 0.1181099999999999650 ) ) ;
#125 = DIRECTION ( 'NONE',  ( -1.224646799147352961E-16, -0.0000000000000000000, -1.000000000000000000 ) ) ;
#126 = EDGE_LOOP ( 'NONE', ( #180, #43, #219, #20 ) ) ;
#127 = PRODUCT_DEFINITION_CONTEXT ( 'detailed design', #143, 'design' ) ;
#128 = EDGE_LOOP ( 'NONE', ( #211, #252, #36, #146 ) ) ;
#129 = COLOUR_RGB ( '',0.7921568627450980005, 0.8196078431372548767, 0.9333333333333333481 ) ;
#130 = AXIS2_PLACEMENT_3D ( 'NONE', #5, #168, #210 ) ;
#131 = DIRECTION ( 'NONE',  ( -1.224646799147352961E-16, -0.0000000000000000000, -1.000000000000000000 ) ) ;
#132 = FACE_OUTER_BOUND ( 'NONE', #91, .T. ) ;
#133 = LINE ( 'NONE', #86, #21 ) ;
#134 = EDGE_CURVE ( 'NONE', #102, #2, #100, .T. ) ;
#135 =( LENGTH_UNIT ( ) NAMED_UNIT ( * ) SI_UNIT ( $, .METRE. ) );
#136 = PRODUCT_DEFINITION_SHAPE ( 'NONE', 'NONE',  #98 ) ;
#137 = DIRECTION ( 'NONE',  ( 1.000000000000000000, 0.0000000000000000000, 0.0000000000000000000 ) ) ;
#138 = DIRECTION ( 'NONE',  ( -1.224646799147352961E-16, -0.0000000000000000000, -1.000000000000000000 ) ) ;
#139 =( GEOMETRIC_REPRESENTATION_CONTEXT ( 3 ) GLOBAL_UNCERTAINTY_ASSIGNED_CONTEXT ( ( #191 ) ) GLOBAL_UNIT_ASSIGNED_CONTEXT ( ( #247, #271, #242 ) ) REPRESENTATION_CONTEXT ( 'NONE', 'WORKASPACE' ) );
#140 = ADVANCED_FACE ( 'NONE', ( #272 ), #243, .T. ) ;
#141 =( NAMED_UNIT ( * ) SI_UNIT ( $, .STERADIAN. ) SOLID_ANGLE_UNIT ( ) );
#142 = ORIENTED_EDGE ( 'NONE', *, *, #172, .F. ) ;
#143 = APPLICATION_CONTEXT ( 'automotive_design' ) ;
#144 = LENGTH_MEASURE_WITH_UNIT ( LENGTH_MEASURE( 0.02539999999999999897 ), #260 );
#145 = COLOUR_RGB ( '',0.7921568627450980005, 0.8196078431372548767, 0.9333333333333333481 ) ;
#146 = ORIENTED_EDGE ( 'NONE', *, *, #87, .F. ) ;
#147 = EDGE_CURVE ( 'NONE', #119, #218, #94, .T. ) ;
#148 = SURFACE_STYLE_FILL_AREA ( #257 ) ;
#149 =( CONVERSION_BASED_UNIT ( 'INCH', #234 ) LENGTH_UNIT ( ) NAMED_UNIT ( #283 ) );
#150 = STYLED_ITEM ( 'NONE', ( #65 ), #51 ) ;
#151 = ORIENTED_EDGE ( 'NONE', *, *, #42, .T. ) ;
#152 = ORIENTED_EDGE ( 'NONE', *, *, #225, .T. ) ;
#153 = VERTEX_POINT ( 'NONE', #109 ) ;
#154 = APPLICATION_PROTOCOL_DEFINITION ( 'draft international standard', 'automotive_design', 1998, #143 ) ;
#155 = VECTOR ( 'NONE', #296, 39.37007874015748143 ) ;
#156 = CLOSED_SHELL ( 'NONE', ( #61, #83, #159, #140, #57, #11, #253, #228, #259, #26 ) ) ;
#157 = MANIFOLD_SOLID_BREP ( 'Cut-Revolve1', #156 ) ;
#158 = CARTESIAN_POINT ( 'NONE',  ( 0.0000000000000000000, 0.0000000000000000000, 1.496062999999999921 ) ) ;
#159 = ADVANCED_FACE ( 'NONE', ( #132 ), #112, .T. ) ;
#160 = DIRECTION ( 'NONE',  ( -1.224646799147352961E-16, -0.0000000000000000000, -1.000000000000000000 ) ) ;
#161 = CONICAL_SURFACE ( 'NONE', #31, 0.01966531499999995408, 0.1745329251994340025 ) ;
#162 = PLANE ( 'NONE',  #45 ) ;
#163 = DIRECTION ( 'NONE',  ( -1.224646799147352961E-16, -0.0000000000000000000, -1.000000000000000000 ) ) ;
#164 = CARTESIAN_POINT ( 'NONE',  ( 0.0000000000000000000, 0.0000000000000000000, 0.0000000000000000000 ) ) ;
#165 = VERTEX_POINT ( 'NONE', #290 ) ;
#166 = STYLED_ITEM ( 'NONE', ( #178 ), #157 ) ;
#167 = ORIENTED_EDGE ( 'NONE', *, *, #263, .T. ) ;
#168 = DIRECTION ( 'NONE',  ( -1.224646799147352961E-16, -0.0000000000000000000, -1.000000000000000000 ) ) ;
#169 = CIRCLE ( 'NONE', #197, 0.01966531499999995408 ) ;
#170 = ORIENTED_EDGE ( 'NONE', *, *, #147, .F. ) ;
#171 = ORIENTED_EDGE ( 'NONE', *, *, #294, .F. ) ;
#172 = EDGE_CURVE ( 'NONE', #205, #7, #275, .T. ) ;
#173 = DIRECTION ( 'NONE',  ( 0.0000000000000000000, 0.0000000000000000000, -1.000000000000000000 ) ) ;
#174 = LINE ( 'NONE', #202, #35 ) ;
#175 = CARTESIAN_POINT ( 'NONE',  ( 0.0000000000000000000, 0.0000000000000000000, 1.496062999999999921 ) ) ;
#176 = PRESENTATION_LAYER_ASSIGNMENT (  '', '', ( #150 ) ) ;
#177 = DIRECTION ( 'NONE',  ( -1.224646799147352961E-16, -0.0000000000000000000, -1.000000000000000000 ) ) ;
#178 = PRESENTATION_STYLE_ASSIGNMENT (( #288 ) ) ;
#179 = CYLINDRICAL_SURFACE ( 'NONE', #88, 0.01966531499999995755 ) ;
#180 = ORIENTED_EDGE ( 'NONE', *, *, #6, .F. ) ;
#181 = DIRECTION ( 'NONE',  ( -1.224646799147352961E-16, -0.0000000000000000000, -1.000000000000000000 ) ) ;
#182 = EDGE_CURVE ( 'NONE', #295, #165, #169, .T. ) ;
#183 = LINE ( 'NONE', #287, #207 ) ;
#184 = ORIENTED_EDGE ( 'NONE', *, *, #30, .F. ) ;
#185 = FACE_OUTER_BOUND ( 'NONE', #189, .T. ) ;
#186 = ORIENTED_EDGE ( 'NONE', *, *, #134, .F. ) ;
#187 = ORIENTED_EDGE ( 'NONE', *, *, #42, .F. ) ;
#188 = DIRECTION ( 'NONE',  ( -1.224646799147352961E-16, -0.0000000000000000000, -1.000000000000000000 ) ) ;
#189 = EDGE_LOOP ( 'NONE', ( #286, #280, #264, #53 ) ) ;
#190 = AXIS2_PLACEMENT_3D ( 'NONE', #158, #14, #85 ) ;
#191 = UNCERTAINTY_MEASURE_WITH_UNIT (LENGTH_MEASURE( 1.000000000000000082E-05 ), #247, 'distance_accuracy_value', 'NONE');
#192 = ORIENTED_EDGE ( 'NONE', *, *, #276, .F. ) ;
#193 = CARTESIAN_POINT ( 'NONE',  ( 4.182168873229443489E-17, 0.0000000000000000000, 0.3415000044209671182 ) ) ;
#194 = DIRECTION ( 'NONE',  ( -1.000000000000000000, 0.0000000000000000000, 0.0000000000000000000 ) ) ;
#195 = CARTESIAN_POINT ( 'NONE',  ( 0.0000000000000000000, 0.0000000000000000000, 1.481063000000000240 ) ) ;
#196 = VECTOR ( 'NONE', #177, 39.37007874015748143 ) ;
#197 = AXIS2_PLACEMENT_3D ( 'NONE', #248, #138, #49 ) ;
#198 = CARTESIAN_POINT ( 'NONE',  ( 0.0000000000000000000, 0.0000000000000000000, 0.0000000000000000000 ) ) ;
#199 = EDGE_CURVE ( 'NONE', #2, #102, #235, .T. ) ;
#200 = LINE ( 'NONE', #67, #101 ) ;
#201 = EDGE_LOOP ( 'NONE', ( #192, #152, #167, #187 ) ) ;
#202 = CARTESIAN_POINT ( 'NONE',  ( -0.01966531499999994367, 2.408306506897437709E-18, 0.1181099999999999650 ) ) ;
#203 = VECTOR ( 'NONE', #47, 39.37007874015748143 ) ;
#204 = PRODUCT_RELATED_PRODUCT_CATEGORY ( 'part', '', ( #24 ) ) ;
#205 = VERTEX_POINT ( 'NONE', #249 ) ;
#206 = EDGE_CURVE ( 'NONE', #218, #153, #183, .T. ) ;
#207 = VECTOR ( 'NONE', #239, 39.37007874015748143 ) ;
#208 =( NAMED_UNIT ( * ) SI_UNIT ( $, .STERADIAN. ) SOLID_ANGLE_UNIT ( ) );
#209 = ORIENTED_EDGE ( 'NONE', *, *, #172, .T. ) ;
#210 = DIRECTION ( 'NONE',  ( 1.000000000000000000, 0.0000000000000000000, 0.0000000000000000000 ) ) ;
#211 = ORIENTED_EDGE ( 'NONE', *, *, #147, .T. ) ;
#212 = DIRECTION ( 'NONE',  ( -1.000000000000000000, 0.0000000000000000000, 1.224646799147352961E-16 ) ) ;
#213 = FACE_OUTER_BOUND ( 'NONE', #115, .T. ) ;
#214 = DIRECTION ( 'NONE',  ( 0.0000000000000000000, 0.0000000000000000000, 1.000000000000000000 ) ) ;
#215 = DIRECTION ( 'NONE',  ( -0.1736481776669312749, 2.126576849575784241E-17, 0.9848077530122077983 ) ) ;
#216 = DIMENSIONAL_EXPONENTS ( 1.000000000000000000, 0.0000000000000000000, 0.0000000000000000000, 0.0000000000000000000, 0.0000000000000000000, 0.0000000000000000000, 0.0000000000000000000 ) ;
#217 = CARTESIAN_POINT ( 'NONE',  ( -0.01966531499999995755, 0.0000000000000000000, 2.408306506897437709E-18 ) ) ;
#218 = VERTEX_POINT ( 'NONE', #79 ) ;
#219 = ORIENTED_EDGE ( 'NONE', *, *, #244, .T. ) ;
#220 = AXIS2_PLACEMENT_3D ( 'NONE', #37, #10, #137 ) ;
#221 = DIRECTION ( 'NONE',  ( -0.0000000000000000000, -0.0000000000000000000, -1.000000000000000000 ) ) ;
#222 = DIRECTION ( 'NONE',  ( 1.224646799147352961E-16, 0.0000000000000000000, 1.000000000000000000 ) ) ;
#223 = LINE ( 'NONE', #55, #155 ) ;
#224 = CIRCLE ( 'NONE', #255, 0.05905499999999998251 ) ;
#225 = EDGE_CURVE ( 'NONE', #165, #254, #174, .T. ) ;
#226 = DIRECTION ( 'NONE',  ( -1.000000000000000000, 0.0000000000000000000, 1.224646799147352961E-16 ) ) ;
#227 = DIRECTION ( 'NONE',  ( 0.1736481776669314969, 0.0000000000000000000, 0.9848077530122077983 ) ) ;
#228 = ADVANCED_FACE ( 'NONE', ( #213 ), #161, .T. ) ;
#229 = PRESENTATION_LAYER_ASSIGNMENT (  '', '', ( #166 ) ) ;
#230 = ORIENTED_EDGE ( 'NONE', *, *, #225, .F. ) ;
#231 = AXIS2_PLACEMENT_3D ( 'NONE', #16, #222, #270 ) ;
#232 = EDGE_LOOP ( 'NONE', ( #246, #209 ) ) ;
#233 = EDGE_CURVE ( 'NONE', #7, #205, #46, .T. ) ;
#234 = LENGTH_MEASURE_WITH_UNIT ( LENGTH_MEASURE( 0.02539999999999999897 ), #117 );
#235 = CIRCLE ( 'NONE', #256, 0.01966531499999996796 ) ;
#236 = DIRECTION ( 'NONE',  ( 0.0000000000000000000, 0.0000000000000000000, 1.000000000000000000 ) ) ;
#237 = EDGE_LOOP ( 'NONE', ( #279, #266 ) ) ;
#238 = CARTESIAN_POINT ( 'NONE',  ( -0.05905499999999998251, 0.0000000000000000000, 1.481063000000000240 ) ) ;
#239 = DIRECTION ( 'NONE',  ( -0.0000000000000000000, -0.0000000000000000000, -1.000000000000000000 ) ) ;
#240 = CONICAL_SURFACE ( 'NONE', #231, 0.01966531499999995408, 0.1745329251994340025 ) ;
#241 = AXIS2_PLACEMENT_3D ( 'NONE', #23, #214, #62 ) ;
#242 =( NAMED_UNIT ( * ) SI_UNIT ( $, .STERADIAN. ) SOLID_ANGLE_UNIT ( ) );
#243 = CYLINDRICAL_SURFACE ( 'NONE', #111, 0.05905499999999998251 ) ;
#244 = EDGE_CURVE ( 'NONE', #7, #119, #200, .T. ) ;
#245 = CARTESIAN_POINT ( 'NONE',  ( -0.01966531499999996796, 0.0000000000000000000, 4.816613013794876958E-18 ) ) ;
#246 = ORIENTED_EDGE ( 'NONE', *, *, #233, .T. ) ;
#247 =( CONVERSION_BASED_UNIT ( 'INCH', #106 ) LENGTH_UNIT ( ) NAMED_UNIT ( #216 ) );
#248 = CARTESIAN_POINT ( 'NONE',  ( 1.446430334472938160E-17, 0.0000000000000000000, 0.1181099999999999650 ) ) ;
#249 = CARTESIAN_POINT ( 'NONE',  ( 0.04405500000000001082, 6.313666573004179469E-18, 1.496062999999999921 ) ) ;
#250 = MECHANICAL_DESIGN_GEOMETRIC_PRESENTATION_REPRESENTATION (  '', ( #166 ), #139 ) ;
#251 = DIRECTION ( 'NONE',  ( 1.000000000000000000, 0.0000000000000000000, 0.0000000000000000000 ) ) ;
#252 = ORIENTED_EDGE ( 'NONE', *, *, #206, .T. ) ;
#253 = ADVANCED_FACE ( 'NONE', ( #82 ), #118, .T. ) ;
#254 = VERTEX_POINT ( 'NONE', #90 ) ;
#255 = AXIS2_PLACEMENT_3D ( 'NONE', #193, #160, #29 ) ;
#256 = AXIS2_PLACEMENT_3D ( 'NONE', #32, #163, #114 ) ;
#257 = FILL_AREA_STYLE ('',( #123 ) ) ;
#258 = LINE ( 'NONE', #297, #17 ) ;
#259 = ADVANCED_FACE ( 'NONE', ( #185 ), #278, .T. ) ;
#260 =( LENGTH_UNIT ( ) NAMED_UNIT ( * ) SI_UNIT ( $, .METRE. ) );
#261 = DIRECTION ( 'NONE',  ( -1.000000000000000000, 0.0000000000000000000, 0.0000000000000000000 ) ) ;
#262 = CIRCLE ( 'NONE', #76, 0.01966531499999995408 ) ;
#263 = EDGE_CURVE ( 'NONE', #254, #153, #108, .T. ) ;
#264 = ORIENTED_EDGE ( 'NONE', *, *, #294, .T. ) ;
#265 = PRODUCT_CONTEXT ( 'NONE', #39, 'mechanical' ) ;
#266 = ORIENTED_EDGE ( 'NONE', *, *, #199, .T. ) ;
#267 = DIRECTION ( 'NONE',  ( -1.000000000000000000, 0.0000000000000000000, 0.0000000000000000000 ) ) ;
#268 = DIRECTION ( 'NONE',  ( 1.000000000000000000, 0.0000000000000000000, 0.0000000000000000000 ) ) ;
#269 = AXIS2_PLACEMENT_3D ( 'NONE', #175, #13, #251 ) ;
#270 = DIRECTION ( 'NONE',  ( 1.000000000000000000, 0.0000000000000000000, 0.0000000000000000000 ) ) ;
#271 =( NAMED_UNIT ( * ) PLANE_ANGLE_UNIT ( ) SI_UNIT ( $, .RADIAN. ) );
#272 = FACE_OUTER_BOUND ( 'NONE', #128, .T. ) ;
#273 = LINE ( 'NONE', #293, #196 ) ;
#274 = AXIS2_PLACEMENT_3D ( 'NONE', #34, #131, #291 ) ;
#275 = CIRCLE ( 'NONE', #269, 0.04405500000000001082 ) ;
#276 = EDGE_CURVE ( 'NONE', #165, #295, #262, .T. ) ;
#277 = PLANE ( 'NONE',  #72 ) ;
#278 = CYLINDRICAL_SURFACE ( 'NONE', #38, 0.01966531499999995755 ) ;
#279 = ORIENTED_EDGE ( 'NONE', *, *, #134, .T. ) ;
#280 = ORIENTED_EDGE ( 'NONE', *, *, #182, .T. ) ;
#281 = SURFACE_SIDE_STYLE ('',( #148 ) ) ;
#282 = CARTESIAN_POINT ( 'NONE',  ( 0.0000000000000000000, 0.0000000000000000000, 0.0000000000000000000 ) ) ;
#283 = DIMENSIONAL_EXPONENTS ( 1.000000000000000000, 0.0000000000000000000, 0.0000000000000000000, 0.0000000000000000000, 0.0000000000000000000, 0.0000000000000000000, 0.0000000000000000000 ) ;
#284 = UNCERTAINTY_MEASURE_WITH_UNIT (LENGTH_MEASURE( 1.000000000000000082E-05 ), #40, 'distance_accuracy_value', 'NONE');
#285 = DIRECTION ( 'NONE',  ( 0.0000000000000000000, 0.0000000000000000000, 1.000000000000000000 ) ) ;
#286 = ORIENTED_EDGE ( 'NONE', *, *, #74, .F. ) ;
#287 = CARTESIAN_POINT ( 'NONE',  ( 0.05905499999999998251, 7.232151672364692341E-18, 1.496062999999999921 ) ) ;
#288 = SURFACE_STYLE_USAGE ( .BOTH. , #104 ) ;
#289 = DIRECTION ( 'NONE',  ( -0.7071067811865536790, 0.0000000000000000000, -0.7071067811865412445 ) ) ;
#290 = CARTESIAN_POINT ( 'NONE',  ( -0.01966531499999994367, 4.820229089631064447E-18, 0.1181099999999999650 ) ) ;
#291 = DIRECTION ( 'NONE',  ( -1.000000000000000000, 0.0000000000000000000, 1.224646799147352714E-16 ) ) ;
#292 = CARTESIAN_POINT ( 'NONE',  ( 0.0000000000000000000, 0.0000000000000000000, 1.496062999999999921 ) ) ;
#293 = CARTESIAN_POINT ( 'NONE',  ( 0.01966531499999995755, 2.408306506897438094E-18, -2.408306506897437709E-18 ) ) ;
#294 = EDGE_CURVE ( 'NONE', #165, #102, #120, .T. ) ;
#295 = VERTEX_POINT ( 'NONE', #1 ) ;
#296 = DIRECTION ( 'NONE',  ( -0.0000000000000000000, -0.0000000000000000000, -1.000000000000000000 ) ) ;
#297 = CARTESIAN_POINT ( 'NONE',  ( 0.04405500000000001082, 5.395181473643666598E-18, 1.496062999999999921 ) ) ;
#298 = DIRECTION ( 'NONE',  ( 1.224646799147352961E-16, 0.0000000000000000000, 1.000000000000000000 ) ) ;
#299 = CIRCLE ( 'NONE', #63, 0.05905499999999998251 ) ;
ENDSEC;
END-ISO-10303-21;
