ISO-10303-21;
HEADER;
FILE_DESCRIPTION (( 'STEP AP214' ),
    '1' );
FILE_NAME ('59585.STEP',
    '2023-07-24T15:12:59',
    ( '' ),
    ( '' ),
    'SwSTEP 2.0',
    'SolidWorks 2023',
    '' );
FILE_SCHEMA (( 'AUTOMOTIVE_DESIGN' ));
ENDSEC;

DATA;
#1 = DIRECTION ( 'NONE',  ( -1.000000000000000000, 0.000000000000000000, 0.000000000000000000 ) ) ;
#2 = CARTESIAN_POINT ( 'NONE',  ( 0.000000000000000000, 18.00000000000000000, 0.000000000000000000 ) ) ;
#3 = AXIS2_PLACEMENT_3D ( 'NONE', #60, #120, #144 ) ;
#4 = DIRECTION ( 'NONE',  ( 1.000000000000000000, 0.000000000000000000, 0.000000000000000000 ) ) ;
#5 = FACE_OUTER_BOUND ( 'NONE', #192, .T. ) ;
#6 = CLOSED_SHELL ( 'NONE', ( #370, #257, #148, #330, #87, #28 ) ) ;
#7 = EDGE_CURVE ( 'NONE', #252, #255, #218, .T. ) ;
#8 = SURFACE_SIDE_STYLE ('',( #239 ) ) ;
#9 = VERTEX_POINT ( 'NONE', #134 ) ;
#10 = APPLICATION_CONTEXT ( 'automotive_design' ) ;
#11 = PRESENTATION_STYLE_ASSIGNMENT (( #322 ) ) ;
#12 = PRESENTATION_LAYER_ASSIGNMENT (  '', '', ( #45 ) ) ;
#13 = AXIS2_PLACEMENT_3D ( 'NONE', #25, #59, #367 ) ;
#14 = DIRECTION ( 'NONE',  ( -0.000000000000000000, -1.000000000000000000, -0.000000000000000000 ) ) ;
#15 = SURFACE_STYLE_FILL_AREA ( #226 ) ;
#16 = PRODUCT_DEFINITION_SHAPE ( 'NONE', 'NONE',  #186 ) ;
#17 = CARTESIAN_POINT ( 'NONE',  ( 7.347880794884118750E-16, 1.000000000000000000, 6.000000000000000000 ) ) ;
#18 = CARTESIAN_POINT ( 'NONE',  ( 5.421010862427522170E-15, 18.00000000000000000, 0.000000000000000000 ) ) ;
#19 = EDGE_LOOP ( 'NONE', ( #70, #80, #299, #48 ) ) ;
#20 = LINE ( 'NONE', #253, #146 ) ;
#21 = CARTESIAN_POINT ( 'NONE',  ( 5.421010862427522170E-15, 18.00000000000000355, 0.000000000000000000 ) ) ;
#22 = EDGE_CURVE ( 'NONE', #195, #9, #272, .T. ) ;
#23 = CARTESIAN_POINT ( 'NONE',  ( 0.000000000000000000, 1.000000000000000000, 0.000000000000000000 ) ) ;
#24 = SURFACE_STYLE_USAGE ( .BOTH. , #337 ) ;
#25 = CARTESIAN_POINT ( 'NONE',  ( 0.000000000000000000, 1.000000000000000000, 0.000000000000000000 ) ) ;
#26 = CARTESIAN_POINT ( 'NONE',  ( 5.999999999999996447, 75.00000000000000000, 7.347880794884117764E-16 ) ) ;
#27 = DIRECTION ( 'NONE',  ( 0.000000000000000000, 0.000000000000000000, -1.000000000000000000 ) ) ;
#28 = ADVANCED_FACE ( 'NONE', ( #285 ), #140, .T. ) ;
#29 =( NAMED_UNIT ( * ) PLANE_ANGLE_UNIT ( ) SI_UNIT ( $, .RADIAN. ) );
#30 = SURFACE_STYLE_FILL_AREA ( #58 ) ;
#31 = FILL_AREA_STYLE ('',( #314 ) ) ;
#32 = DIRECTION ( 'NONE',  ( -1.208874916035850209E-16, 1.000000000000000000, -0.000000000000000000 ) ) ;
#33 = AXIS2_PLACEMENT_3D ( 'NONE', #18, #135, #78 ) ;
#34 = CARTESIAN_POINT ( 'NONE',  ( -5.999999999999989342, 18.00000000000000355, 0.000000000000000000 ) ) ;
#35 = CARTESIAN_POINT ( 'NONE',  ( 6.000000000000000000, 75.00000000000000000, 0.000000000000000000 ) ) ;
#36 =( LENGTH_UNIT ( ) NAMED_UNIT ( * ) SI_UNIT ( .MILLI., .METRE. ) );
#37 = COLOUR_RGB ( '',1.000000000000000000, 0.000000000000000000, 0.000000000000000000 ) ;
#38 = ORIENTED_EDGE ( 'NONE', *, *, #79, .T. ) ;
#39 = MECHANICAL_DESIGN_GEOMETRIC_PRESENTATION_REPRESENTATION (  '', ( #220 ), #132 ) ;
#40 = UNCERTAINTY_MEASURE_WITH_UNIT (LENGTH_MEASURE( 1.000000000000000082E-05 ), #227, 'distance_accuracy_value', 'NONE');
#41 = SURFACE_STYLE_FILL_AREA ( #212 ) ;
#42 = UNCERTAINTY_MEASURE_WITH_UNIT (LENGTH_MEASURE( 1.000000000000000082E-05 ), #256, 'distance_accuracy_value', 'NONE');
#43 = SURFACE_STYLE_USAGE ( .BOTH. , #81 ) ;
#44 = ORIENTED_EDGE ( 'NONE', *, *, #74, .T. ) ;
#45 = STYLED_ITEM ( 'NONE', ( #102 ), #131 ) ;
#46 = CARTESIAN_POINT ( 'NONE',  ( -1.469576158976823750E-15, 75.00000000000000000, 0.000000000000000000 ) ) ;
#47 = ORIENTED_EDGE ( 'NONE', *, *, #164, .T. ) ;
#48 = ORIENTED_EDGE ( 'NONE', *, *, #164, .F. ) ;
#49 = CARTESIAN_POINT ( 'NONE',  ( 0.000000000000000000, 0.000000000000000000, 0.000000000000000000 ) ) ;
#50 = TOROIDAL_SURFACE ( 'NONE', #13, 5.000000000000000000, 0.9999999999999995559 ) ;
#51 =( NAMED_UNIT ( * ) SI_UNIT ( $, .STERADIAN. ) SOLID_ANGLE_UNIT ( ) );
#52 = EDGE_LOOP ( 'NONE', ( #240, #112 ) ) ;
#53 = DIRECTION ( 'NONE',  ( -1.000000000000000000, 0.000000000000000000, 0.000000000000000000 ) ) ;
#54 = CYLINDRICAL_SURFACE ( 'NONE', #66, 6.000000000000000000 ) ;
#55 = SURFACE_STYLE_USAGE ( .BOTH. , #347 ) ;
#56 = AXIS2_PLACEMENT_3D ( 'NONE', #21, #187, #53 ) ;
#57 = DIRECTION ( 'NONE',  ( 0.000000000000000000, 0.000000000000000000, -1.000000000000000000 ) ) ;
#58 = FILL_AREA_STYLE ('',( #90 ) ) ;
#59 = DIRECTION ( 'NONE',  ( -0.000000000000000000, -1.000000000000000000, -0.000000000000000000 ) ) ;
#60 = CARTESIAN_POINT ( 'NONE',  ( 0.000000000000000000, 18.00000000000000000, 0.000000000000000000 ) ) ;
#61 =( NAMED_UNIT ( * ) PLANE_ANGLE_UNIT ( ) SI_UNIT ( $, .RADIAN. ) );
#62 = LINE ( 'NONE', #208, #151 ) ;
#63 = EDGE_CURVE ( 'NONE', #9, #353, #117, .T. ) ;
#64 = CARTESIAN_POINT ( 'NONE',  ( 0.000000000000000000, 18.00000000000000000, -6.000000000000000000 ) ) ;
#65 = UNCERTAINTY_MEASURE_WITH_UNIT (LENGTH_MEASURE( 1.000000000000000082E-05 ), #303, 'distance_accuracy_value', 'NONE');
#66 = AXIS2_PLACEMENT_3D ( 'NONE', #346, #173, #338 ) ;
#67 = CARTESIAN_POINT ( 'NONE',  ( 0.000000000000000000, 1.000000000000000000, 0.000000000000000000 ) ) ;
#68 = PLANE ( 'NONE',  #33 ) ;
#69 = DIRECTION ( 'NONE',  ( -1.000000000000000000, 0.000000000000000000, 0.000000000000000000 ) ) ;
#70 = ORIENTED_EDGE ( 'NONE', *, *, #22, .T. ) ;
#71 = PRESENTATION_LAYER_ASSIGNMENT (  '', '', ( #258 ) ) ;
#72 = MECHANICAL_DESIGN_GEOMETRIC_PRESENTATION_REPRESENTATION (  '', ( #251 ), #178 ) ;
#73 = STYLED_ITEM ( 'NONE', ( #217 ), #330 ) ;
#74 = EDGE_CURVE ( 'NONE', #353, #243, #307, .T. ) ;
#75 = CARTESIAN_POINT ( 'NONE',  ( 0.000000000000000000, 0.000000000000000000, 0.000000000000000000 ) ) ;
#76 = ORIENTED_EDGE ( 'NONE', *, *, #321, .T. ) ;
#77 = UNCERTAINTY_MEASURE_WITH_UNIT (LENGTH_MEASURE( 1.000000000000000082E-05 ), #262, 'distance_accuracy_value', 'NONE');
#78 = DIRECTION ( 'NONE',  ( -1.000000000000000000, -1.208874916035850209E-16, 0.000000000000000000 ) ) ;
#79 = EDGE_CURVE ( 'NONE', #9, #195, #273, .T. ) ;
#80 = ORIENTED_EDGE ( 'NONE', *, *, #63, .T. ) ;
#81 = SURFACE_SIDE_STYLE ('',( #225 ) ) ;
#82 = CARTESIAN_POINT ( 'NONE',  ( 0.000000000000000000, 1.000000000000000000, -5.000000000000000000 ) ) ;
#83 = COLOUR_RGB ( '',1.000000000000000000, 0.000000000000000000, 0.000000000000000000 ) ;
#84 = PRODUCT_CONTEXT ( 'NONE', #10, 'mechanical' ) ;
#85 = ORIENTED_EDGE ( 'NONE', *, *, #343, .F. ) ;
#86 = EDGE_CURVE ( 'NONE', #193, #106, #368, .T. ) ;
#87 = ADVANCED_FACE ( 'NONE', ( #89 ), #290, .T. ) ;
#88 = SURFACE_STYLE_FILL_AREA ( #31 ) ;
#89 = FACE_OUTER_BOUND ( 'NONE', #359, .T. ) ;
#90 = FILL_AREA_STYLE_COLOUR ( '', #297 ) ;
#91 = AXIS2_PLACEMENT_3D ( 'NONE', #345, #291, #203 ) ;
#92 =( NAMED_UNIT ( * ) SI_UNIT ( $, .STERADIAN. ) SOLID_ANGLE_UNIT ( ) );
#93 =( NAMED_UNIT ( * ) SI_UNIT ( $, .STERADIAN. ) SOLID_ANGLE_UNIT ( ) );
#94 = CYLINDRICAL_SURFACE ( 'NONE', #264, 5.999999999999998224 ) ;
#95 = FILL_AREA_STYLE ('',( #260 ) ) ;
#96 = SURFACE_SIDE_STYLE ('',( #41 ) ) ;
#97 = MECHANICAL_DESIGN_GEOMETRIC_PRESENTATION_REPRESENTATION (  '', ( #258 ), #103 ) ;
#98 = CIRCLE ( 'NONE', #116, 5.000000000000000000 ) ;
#99 = CARTESIAN_POINT ( 'NONE',  ( 0.000000000000000000, 0.000000000000000000, -5.000000000000000000 ) ) ;
#100 = DIRECTION ( 'NONE',  ( 0.000000000000000000, -1.000000000000000000, -0.000000000000000000 ) ) ;
#101 = ORIENTED_EDGE ( 'NONE', *, *, #158, .T. ) ;
#102 = PRESENTATION_STYLE_ASSIGNMENT (( #320 ) ) ;
#103 =( GEOMETRIC_REPRESENTATION_CONTEXT ( 3 ) GLOBAL_UNCERTAINTY_ASSIGNED_CONTEXT ( ( #283 ) ) GLOBAL_UNIT_ASSIGNED_CONTEXT ( ( #128, #242, #159 ) ) REPRESENTATION_CONTEXT ( 'NONE', 'WORKASPACE' ) );
#104 =( NAMED_UNIT ( * ) SI_UNIT ( $, .STERADIAN. ) SOLID_ANGLE_UNIT ( ) );
#105 = CARTESIAN_POINT ( 'NONE',  ( 0.000000000000000000, 18.00000000000000000, 0.000000000000000000 ) ) ;
#106 = VERTEX_POINT ( 'NONE', #198 ) ;
#107 = SURFACE_STYLE_USAGE ( .BOTH. , #334 ) ;
#108 = ORIENTED_EDGE ( 'NONE', *, *, #318, .T. ) ;
#109 = PRESENTATION_LAYER_ASSIGNMENT (  '', '', ( #220 ) ) ;
#110 = EDGE_LOOP ( 'NONE', ( #167, #76, #306, #224 ) ) ;
#111 = FILL_AREA_STYLE_COLOUR ( '', #83 ) ;
#112 = ORIENTED_EDGE ( 'NONE', *, *, #309, .F. ) ;
#113 = FACE_OUTER_BOUND ( 'NONE', #143, .T. ) ;
#114 = ORIENTED_EDGE ( 'NONE', *, *, #158, .F. ) ;
#115 = PRESENTATION_LAYER_ASSIGNMENT (  '', '', ( #249 ) ) ;
#116 = AXIS2_PLACEMENT_3D ( 'NONE', #49, #119, #57 ) ;
#117 = LINE ( 'NONE', #26, #199 ) ;
#118 = FACE_OUTER_BOUND ( 'NONE', #110, .T. ) ;
#119 = DIRECTION ( 'NONE',  ( -0.000000000000000000, -1.000000000000000000, -0.000000000000000000 ) ) ;
#120 = DIRECTION ( 'NONE',  ( 0.000000000000000000, 1.000000000000000000, 0.000000000000000000 ) ) ;
#121 = APPLICATION_PROTOCOL_DEFINITION ( 'draft international standard', 'automotive_design', 1998, #10 ) ;
#122 = AXIS2_PLACEMENT_3D ( 'NONE', #46, #332, #69 ) ;
#123 = MANIFOLD_SOLID_BREP ( 'Revolve - Tool Body (Straight Shanked)', #129 ) ;
#124 = DIRECTION ( 'NONE',  ( 1.208874916035850209E-16, -1.000000000000000000, 0.000000000000000000 ) ) ;
#125 = COLOUR_RGB ( '',0.7921568627450980005, 0.8196078431372548767, 0.9333333333333333481 ) ;
#126 =( GEOMETRIC_REPRESENTATION_CONTEXT ( 3 ) GLOBAL_UNCERTAINTY_ASSIGNED_CONTEXT ( ( #65 ) ) GLOBAL_UNIT_ASSIGNED_CONTEXT ( ( #303, #61, #177 ) ) REPRESENTATION_CONTEXT ( 'NONE', 'WORKASPACE' ) );
#127 =( NAMED_UNIT ( * ) PLANE_ANGLE_UNIT ( ) SI_UNIT ( $, .RADIAN. ) );
#128 =( LENGTH_UNIT ( ) NAMED_UNIT ( * ) SI_UNIT ( .MILLI., .METRE. ) );
#129 = CLOSED_SHELL ( 'NONE', ( #141, #294, #270, #216 ) ) ;
#130 = COLOUR_RGB ( '',1.000000000000000000, 0.000000000000000000, 0.000000000000000000 ) ;
#131 = MANIFOLD_SOLID_BREP ( 'Revolve - Cutting Edge', #6 ) ;
#132 =( GEOMETRIC_REPRESENTATION_CONTEXT ( 3 ) GLOBAL_UNCERTAINTY_ASSIGNED_CONTEXT ( ( #204 ) ) GLOBAL_UNIT_ASSIGNED_CONTEXT ( ( #160, #223, #51 ) ) REPRESENTATION_CONTEXT ( 'NONE', 'WORKASPACE' ) );
#133 = FILL_AREA_STYLE ('',( #170 ) ) ;
#134 = CARTESIAN_POINT ( 'NONE',  ( 6.000000000000000000, 18.00000000000000355, 7.347880794884119736E-16 ) ) ;
#135 = DIRECTION ( 'NONE',  ( -1.208874916035850209E-16, 1.000000000000000000, 0.000000000000000000 ) ) ;
#136 = ORIENTED_EDGE ( 'NONE', *, *, #309, .T. ) ;
#137 =( GEOMETRIC_REPRESENTATION_CONTEXT ( 3 ) GLOBAL_UNCERTAINTY_ASSIGNED_CONTEXT ( ( #180 ) ) GLOBAL_UNIT_ASSIGNED_CONTEXT ( ( #248, #278, #92 ) ) REPRESENTATION_CONTEXT ( 'NONE', 'WORKASPACE' ) );
#138 = TOROIDAL_SURFACE ( 'NONE', #183, 5.000000000000000000, 0.9999999999999995559 ) ;
#139 = DIRECTION ( 'NONE',  ( 0.000000000000000000, 0.000000000000000000, -1.000000000000000000 ) ) ;
#140 = PLANE ( 'NONE',  #3 ) ;
#141 = ADVANCED_FACE ( 'NONE', ( #155 ), #94, .T. ) ;
#142 = DIRECTION ( 'NONE',  ( -0.000000000000000000, -1.000000000000000000, -0.000000000000000000 ) ) ;
#143 = EDGE_LOOP ( 'NONE', ( #335, #228 ) ) ;
#144 = DIRECTION ( 'NONE',  ( 0.000000000000000000, -0.000000000000000000, 1.000000000000000000 ) ) ;
#145 =( GEOMETRIC_REPRESENTATION_CONTEXT ( 3 ) GLOBAL_UNCERTAINTY_ASSIGNED_CONTEXT ( ( #42 ) ) GLOBAL_UNIT_ASSIGNED_CONTEXT ( ( #256, #197, #259 ) ) REPRESENTATION_CONTEXT ( 'NONE', 'WORKASPACE' ) );
#146 = VECTOR ( 'NONE', #336, 1000.000000000000000 ) ;
#147 = APPLICATION_CONTEXT ( 'automotive_design' ) ;
#148 = ADVANCED_FACE ( 'NONE', ( #5 ), #213, .T. ) ;
#149 = CARTESIAN_POINT ( 'NONE',  ( -1.469576158976823750E-15, 75.00000000000000000, 0.000000000000000000 ) ) ;
#150 = DIRECTION ( 'NONE',  ( -0.000000000000000000, -1.000000000000000000, -0.000000000000000000 ) ) ;
#151 = VECTOR ( 'NONE', #293, 1000.000000000000000 ) ;
#152 = CARTESIAN_POINT ( 'NONE',  ( 5.421010862427522170E-15, 18.00000000000000355, 0.000000000000000000 ) ) ;
#153 = CARTESIAN_POINT ( 'NONE',  ( -1.469576158976823750E-15, 75.00000000000000000, 0.000000000000000000 ) ) ;
#154 = CARTESIAN_POINT ( 'NONE',  ( 0.000000000000000000, 1.000000000000000000, -6.000000000000000000 ) ) ;
#155 = FACE_OUTER_BOUND ( 'NONE', #19, .T. ) ;
#156 = AXIS2_PLACEMENT_3D ( 'NONE', #75, #363, #139 ) ;
#157 = VERTEX_POINT ( 'NONE', #325 ) ;
#158 = EDGE_CURVE ( 'NONE', #308, #252, #313, .T. ) ;
#159 =( NAMED_UNIT ( * ) SI_UNIT ( $, .STERADIAN. ) SOLID_ANGLE_UNIT ( ) );
#160 =( LENGTH_UNIT ( ) NAMED_UNIT ( * ) SI_UNIT ( .MILLI., .METRE. ) );
#161 = AXIS2_PLACEMENT_3D ( 'NONE', #201, #233, #315 ) ;
#162 = UNCERTAINTY_MEASURE_WITH_UNIT (LENGTH_MEASURE( 1.000000000000000082E-05 ), #36, 'distance_accuracy_value', 'NONE');
#163 = FACE_OUTER_BOUND ( 'NONE', #280, .T. ) ;
#164 = EDGE_CURVE ( 'NONE', #195, #243, #62, .T. ) ;
#165 = PRESENTATION_STYLE_ASSIGNMENT (( #24 ) ) ;
#166 = DIRECTION ( 'NONE',  ( -1.224646799147352468E-16, 0.000000000000000000, -1.000000000000000000 ) ) ;
#167 = ORIENTED_EDGE ( 'NONE', *, *, #86, .T. ) ;
#168 = CARTESIAN_POINT ( 'NONE',  ( 0.000000000000000000, 1.000000000000000000, 0.000000000000000000 ) ) ;
#169 = DIRECTION ( 'NONE',  ( -1.000000000000000000, 0.000000000000000000, 0.000000000000000000 ) ) ;
#170 = FILL_AREA_STYLE_COLOUR ( '', #181 ) ;
#171 = EDGE_LOOP ( 'NONE', ( #302, #38, #47, #254 ) ) ;
#172 = APPLICATION_PROTOCOL_DEFINITION ( 'draft international standard', 'automotive_design', 1998, #147 ) ;
#173 = DIRECTION ( 'NONE',  ( -0.000000000000000000, -1.000000000000000000, -0.000000000000000000 ) ) ;
#174 = AXIS2_PLACEMENT_3D ( 'NONE', #35, #124, #352 ) ;
#175 =( NAMED_UNIT ( * ) SI_UNIT ( $, .STERADIAN. ) SOLID_ANGLE_UNIT ( ) );
#176 = SURFACE_SIDE_STYLE ('',( #30 ) ) ;
#177 =( NAMED_UNIT ( * ) SI_UNIT ( $, .STERADIAN. ) SOLID_ANGLE_UNIT ( ) );
#178 =( GEOMETRIC_REPRESENTATION_CONTEXT ( 3 ) GLOBAL_UNCERTAINTY_ASSIGNED_CONTEXT ( ( #215 ) ) GLOBAL_UNIT_ASSIGNED_CONTEXT ( ( #236, #205, #289 ) ) REPRESENTATION_CONTEXT ( 'NONE', 'WORKASPACE' ) );
#179 = CIRCLE ( 'NONE', #156, 5.000000000000000000 ) ;
#180 = UNCERTAINTY_MEASURE_WITH_UNIT (LENGTH_MEASURE( 1.000000000000000082E-05 ), #248, 'distance_accuracy_value', 'NONE');
#181 = COLOUR_RGB ( '',1.000000000000000000, 0.000000000000000000, 0.000000000000000000 ) ;
#182 = FILL_AREA_STYLE ('',( #210 ) ) ;
#183 = AXIS2_PLACEMENT_3D ( 'NONE', #168, #142, #276 ) ;
#184 = DIRECTION ( 'NONE',  ( -0.000000000000000000, -1.000000000000000000, -0.000000000000000000 ) ) ;
#185 = DIRECTION ( 'NONE',  ( -0.000000000000000000, -1.000000000000000000, -0.000000000000000000 ) ) ;
#186 = PRODUCT_DEFINITION ( 'UNKNOWN', '', #360, #357 ) ;
#187 = DIRECTION ( 'NONE',  ( -1.208874916035850209E-16, 1.000000000000000000, -0.000000000000000000 ) ) ;
#188 = MECHANICAL_DESIGN_GEOMETRIC_PRESENTATION_REPRESENTATION (  '', ( #45 ), #350 ) ;
#189 = VECTOR ( 'NONE', #185, 1000.000000000000000 ) ;
#190 = ORIENTED_EDGE ( 'NONE', *, *, #277, .T. ) ;
#191 = CARTESIAN_POINT ( 'NONE',  ( 7.347880794884119736E-16, 0.000000000000000000, 6.000000000000000000 ) ) ;
#192 = EDGE_LOOP ( 'NONE', ( #108, #221 ) ) ;
#193 = VERTEX_POINT ( 'NONE', #64 ) ;
#194 = AXIS2_PLACEMENT_3D ( 'NONE', #153, #267, #266 ) ;
#195 = VERTEX_POINT ( 'NONE', #34 ) ;
#196 = PRESENTATION_STYLE_ASSIGNMENT (( #344 ) ) ;
#197 =( NAMED_UNIT ( * ) PLANE_ANGLE_UNIT ( ) SI_UNIT ( $, .RADIAN. ) );
#198 = CARTESIAN_POINT ( 'NONE',  ( 7.347880794884119736E-16, 18.00000000000000000, 6.000000000000000000 ) ) ;
#199 = VECTOR ( 'NONE', #32, 1000.000000000000000 ) ;
#200 = MECHANICAL_DESIGN_GEOMETRIC_PRESENTATION_REPRESENTATION (  '', ( #73 ), #126 ) ;
#201 = CARTESIAN_POINT ( 'NONE',  ( -1.469576158976823750E-15, 75.00000000000000000, 0.000000000000000000 ) ) ;
#202 = DIRECTION ( 'NONE',  ( 0.000000000000000000, 0.000000000000000000, 1.000000000000000000 ) ) ;
#203 = DIRECTION ( 'NONE',  ( 0.000000000000000000, 0.000000000000000000, -1.000000000000000000 ) ) ;
#204 = UNCERTAINTY_MEASURE_WITH_UNIT (LENGTH_MEASURE( 1.000000000000000082E-05 ), #160, 'distance_accuracy_value', 'NONE');
#205 =( NAMED_UNIT ( * ) PLANE_ANGLE_UNIT ( ) SI_UNIT ( $, .RADIAN. ) );
#206 = STYLED_ITEM ( 'NONE', ( #231 ), #87 ) ;
#207 = PRESENTATION_LAYER_ASSIGNMENT (  '', '', ( #288 ) ) ;
#208 = CARTESIAN_POINT ( 'NONE',  ( -6.000000000000000000, 75.00000000000000000, 0.000000000000000000 ) ) ;
#209 = EDGE_CURVE ( 'NONE', #243, #353, #300, .T. ) ;
#210 = FILL_AREA_STYLE_COLOUR ( '', #238 ) ;
#211 = PRODUCT ( '59585', '59585', '', ( #84 ) ) ;
#212 = FILL_AREA_STYLE ('',( #245 ) ) ;
#213 = PLANE ( 'NONE',  #356 ) ;
#214 = ORIENTED_EDGE ( 'NONE', *, *, #318, .F. ) ;
#215 = UNCERTAINTY_MEASURE_WITH_UNIT (LENGTH_MEASURE( 1.000000000000000082E-05 ), #236, 'distance_accuracy_value', 'NONE');
#216 = ADVANCED_FACE ( 'NONE', ( #319 ), #295, .F. ) ;
#217 = PRESENTATION_STYLE_ASSIGNMENT (( #43 ) ) ;
#218 = CIRCLE ( 'NONE', #229, 1.000000000000000000 ) ;
#219 = SURFACE_STYLE_FILL_AREA ( #133 ) ;
#220 = STYLED_ITEM ( 'NONE', ( #305 ), #257 ) ;
#221 = ORIENTED_EDGE ( 'NONE', *, *, #343, .T. ) ;
#222 =( GEOMETRIC_REPRESENTATION_CONTEXT ( 3 ) GLOBAL_UNCERTAINTY_ASSIGNED_CONTEXT ( ( #40 ) ) GLOBAL_UNIT_ASSIGNED_CONTEXT ( ( #227, #311, #175 ) ) REPRESENTATION_CONTEXT ( 'NONE', 'WORKASPACE' ) );
#223 =( NAMED_UNIT ( * ) PLANE_ANGLE_UNIT ( ) SI_UNIT ( $, .RADIAN. ) );
#224 = ORIENTED_EDGE ( 'NONE', *, *, #277, .F. ) ;
#225 = SURFACE_STYLE_FILL_AREA ( #247 ) ;
#226 = FILL_AREA_STYLE ('',( #275 ) ) ;
#227 =( LENGTH_UNIT ( ) NAMED_UNIT ( * ) SI_UNIT ( .MILLI., .METRE. ) );
#228 = ORIENTED_EDGE ( 'NONE', *, *, #79, .F. ) ;
#229 = AXIS2_PLACEMENT_3D ( 'NONE', #82, #169, #282 ) ;
#230 = MECHANICAL_DESIGN_GEOMETRIC_PRESENTATION_REPRESENTATION (  '', ( #288 ), #222 ) ;
#231 = PRESENTATION_STYLE_ASSIGNMENT (( #55 ) ) ;
#232 = CARTESIAN_POINT ( 'NONE',  ( 6.000000000000000000, 75.00000000000000000, 7.347880794884119736E-16 ) ) ;
#233 = DIRECTION ( 'NONE',  ( -1.208874916035850209E-16, 1.000000000000000000, -0.000000000000000000 ) ) ;
#234 =( GEOMETRIC_REPRESENTATION_CONTEXT ( 3 ) GLOBAL_UNCERTAINTY_ASSIGNED_CONTEXT ( ( #77 ) ) GLOBAL_UNIT_ASSIGNED_CONTEXT ( ( #262, #29, #93 ) ) REPRESENTATION_CONTEXT ( 'NONE', 'WORKASPACE' ) );
#235 = SURFACE_SIDE_STYLE ('',( #88 ) ) ;
#236 =( LENGTH_UNIT ( ) NAMED_UNIT ( * ) SI_UNIT ( .MILLI., .METRE. ) );
#237 = CARTESIAN_POINT ( 'NONE',  ( -6.000000000000003553, 75.00000000000000000, 0.000000000000000000 ) ) ;
#238 = COLOUR_RGB ( '',1.000000000000000000, 0.000000000000000000, 0.000000000000000000 ) ;
#239 = SURFACE_STYLE_FILL_AREA ( #182 ) ;
#240 = ORIENTED_EDGE ( 'NONE', *, *, #86, .F. ) ;
#241 = DIRECTION ( 'NONE',  ( -1.208874916035850209E-16, 1.000000000000000000, -0.000000000000000000 ) ) ;
#242 =( NAMED_UNIT ( * ) PLANE_ANGLE_UNIT ( ) SI_UNIT ( $, .RADIAN. ) );
#243 = VERTEX_POINT ( 'NONE', #237 ) ;
#244 = AXIS2_PLACEMENT_3D ( 'NONE', #152, #342, #1 ) ;
#245 = FILL_AREA_STYLE_COLOUR ( '', #125 ) ;
#246 = AXIS2_PLACEMENT_3D ( 'NONE', #105, #14, #250 ) ;
#247 = FILL_AREA_STYLE ('',( #111 ) ) ;
#248 =( LENGTH_UNIT ( ) NAMED_UNIT ( * ) SI_UNIT ( .MILLI., .METRE. ) );
#249 = STYLED_ITEM ( 'NONE', ( #165 ), #28 ) ;
#250 = DIRECTION ( 'NONE',  ( 0.000000000000000000, 0.000000000000000000, -1.000000000000000000 ) ) ;
#251 = STYLED_ITEM ( 'NONE', ( #348 ), #123 ) ;
#252 = VERTEX_POINT ( 'NONE', #154 ) ;
#253 = CARTESIAN_POINT ( 'NONE',  ( 0.000000000000000000, 0.000000000000000000, -6.000000000000000000 ) ) ;
#254 = ORIENTED_EDGE ( 'NONE', *, *, #74, .F. ) ;
#255 = VERTEX_POINT ( 'NONE', #99 ) ;
#256 =( LENGTH_UNIT ( ) NAMED_UNIT ( * ) SI_UNIT ( .MILLI., .METRE. ) );
#257 = ADVANCED_FACE ( 'NONE', ( #163 ), #138, .T. ) ;
#258 = STYLED_ITEM ( 'NONE', ( #11 ), #148 ) ;
#259 =( NAMED_UNIT ( * ) SI_UNIT ( $, .STERADIAN. ) SOLID_ANGLE_UNIT ( ) );
#260 = FILL_AREA_STYLE_COLOUR ( '', #130 ) ;
#261 = EDGE_CURVE ( 'NONE', #308, #157, #317, .T. ) ;
#262 =( LENGTH_UNIT ( ) NAMED_UNIT ( * ) SI_UNIT ( .MILLI., .METRE. ) );
#263 = SURFACE_STYLE_FILL_AREA ( #95 ) ;
#264 = AXIS2_PLACEMENT_3D ( 'NONE', #149, #241, #349 ) ;
#265 = SURFACE_STYLE_USAGE ( .BOTH. , #176 ) ;
#266 = DIRECTION ( 'NONE',  ( -1.000000000000000000, 0.000000000000000000, 0.000000000000000000 ) ) ;
#267 = DIRECTION ( 'NONE',  ( -1.208874916035850209E-16, 1.000000000000000000, -0.000000000000000000 ) ) ;
#268 = PRESENTATION_LAYER_ASSIGNMENT (  '', '', ( #251 ) ) ;
#269 = ORIENTED_EDGE ( 'NONE', *, *, #7, .T. ) ;
#270 = ADVANCED_FACE ( 'NONE', ( #358 ), #365, .T. ) ;
#271 = ADVANCED_BREP_SHAPE_REPRESENTATION ( '59585', ( #131, #123, #351 ), #234 ) ;
#272 = CIRCLE ( 'NONE', #56, 5.999999999999994671 ) ;
#273 = CIRCLE ( 'NONE', #244, 5.999999999999994671 ) ;
#274 = DIRECTION ( 'NONE',  ( 1.000000000000000000, 0.000000000000000000, -1.224646799147353207E-16 ) ) ;
#275 = FILL_AREA_STYLE_COLOUR ( '', #37 ) ;
#276 = DIRECTION ( 'NONE',  ( 0.000000000000000000, 0.000000000000000000, -1.000000000000000000 ) ) ;
#277 = EDGE_CURVE ( 'NONE', #193, #252, #20, .T. ) ;
#278 =( NAMED_UNIT ( * ) PLANE_ANGLE_UNIT ( ) SI_UNIT ( $, .RADIAN. ) );
#279 = DIRECTION ( 'NONE',  ( 0.000000000000000000, 0.000000000000000000, -1.000000000000000000 ) ) ;
#280 = EDGE_LOOP ( 'NONE', ( #366, #304, #214, #340 ) ) ;
#281 = PRESENTATION_LAYER_ASSIGNMENT (  '', '', ( #206 ) ) ;
#282 = DIRECTION ( 'NONE',  ( 0.000000000000000000, 0.000000000000000000, 1.000000000000000000 ) ) ;
#283 = UNCERTAINTY_MEASURE_WITH_UNIT (LENGTH_MEASURE( 1.000000000000000082E-05 ), #128, 'distance_accuracy_value', 'NONE');
#284 = CARTESIAN_POINT ( 'NONE',  ( 6.123233995736766282E-16, 1.000000000000000000, 5.000000000000000000 ) ) ;
#285 = FACE_OUTER_BOUND ( 'NONE', #52, .T. ) ;
#286 = EDGE_CURVE ( 'NONE', #252, #308, #331, .T. ) ;
#287 = SHAPE_DEFINITION_REPRESENTATION ( #16, #271 ) ;
#288 = STYLED_ITEM ( 'NONE', ( #196 ), #370 ) ;
#289 =( NAMED_UNIT ( * ) SI_UNIT ( $, .STERADIAN. ) SOLID_ANGLE_UNIT ( ) );
#290 = CYLINDRICAL_SURFACE ( 'NONE', #91, 6.000000000000000000 ) ;
#291 = DIRECTION ( 'NONE',  ( -0.000000000000000000, -1.000000000000000000, -0.000000000000000000 ) ) ;
#292 = AXIS2_PLACEMENT_3D ( 'NONE', #284, #274, #166 ) ;
#293 = DIRECTION ( 'NONE',  ( -1.208874916035850209E-16, 1.000000000000000000, -0.000000000000000000 ) ) ;
#294 = ADVANCED_FACE ( 'NONE', ( #113 ), #68, .F. ) ;
#295 = PLANE ( 'NONE',  #174 ) ;
#296 = DIRECTION ( 'NONE',  ( 0.000000000000000000, 0.000000000000000000, -1.000000000000000000 ) ) ;
#297 = COLOUR_RGB ( '',0.7921568627450980005, 0.8196078431372548767, 0.9333333333333333481 ) ;
#298 = FACE_OUTER_BOUND ( 'NONE', #362, .T. ) ;
#299 = ORIENTED_EDGE ( 'NONE', *, *, #209, .F. ) ;
#300 = CIRCLE ( 'NONE', #194, 6.000000000000001776 ) ;
#301 = PRESENTATION_LAYER_ASSIGNMENT (  '', '', ( #73 ) ) ;
#302 = ORIENTED_EDGE ( 'NONE', *, *, #63, .F. ) ;
#303 =( LENGTH_UNIT ( ) NAMED_UNIT ( * ) SI_UNIT ( .MILLI., .METRE. ) );
#304 = ORIENTED_EDGE ( 'NONE', *, *, #261, .T. ) ;
#305 = PRESENTATION_STYLE_ASSIGNMENT (( #107 ) ) ;
#306 = ORIENTED_EDGE ( 'NONE', *, *, #286, .F. ) ;
#307 = CIRCLE ( 'NONE', #161, 6.000000000000001776 ) ;
#308 = VERTEX_POINT ( 'NONE', #17 ) ;
#309 = EDGE_CURVE ( 'NONE', #106, #193, #341, .T. ) ;
#310 = EDGE_LOOP ( 'NONE', ( #364, #44 ) ) ;
#311 =( NAMED_UNIT ( * ) PLANE_ANGLE_UNIT ( ) SI_UNIT ( $, .RADIAN. ) );
#312 = CARTESIAN_POINT ( 'NONE',  ( 0.000000000000000000, 0.000000000000000000, 0.000000000000000000 ) ) ;
#313 = CIRCLE ( 'NONE', #329, 6.000000000000000000 ) ;
#314 = FILL_AREA_STYLE_COLOUR ( '', #369 ) ;
#315 = DIRECTION ( 'NONE',  ( -1.000000000000000000, 0.000000000000000000, 0.000000000000000000 ) ) ;
#316 = MECHANICAL_DESIGN_GEOMETRIC_PRESENTATION_REPRESENTATION (  '', ( #249 ), #137 ) ;
#317 = CIRCLE ( 'NONE', #292, 1.000000000000000000 ) ;
#318 = EDGE_CURVE ( 'NONE', #255, #157, #179, .T. ) ;
#319 = FACE_OUTER_BOUND ( 'NONE', #310, .T. ) ;
#320 = SURFACE_STYLE_USAGE ( .BOTH. , #96 ) ;
#321 = EDGE_CURVE ( 'NONE', #106, #308, #361, .T. ) ;
#322 = SURFACE_STYLE_USAGE ( .BOTH. , #8 ) ;
#323 = MECHANICAL_DESIGN_GEOMETRIC_PRESENTATION_REPRESENTATION (  '', ( #206 ), #145 ) ;
#324 = AXIS2_PLACEMENT_3D ( 'NONE', #23, #327, #279 ) ;
#325 = CARTESIAN_POINT ( 'NONE',  ( 6.735557395310443009E-16, 0.000000000000000000, 5.000000000000000000 ) ) ;
#326 = PRODUCT_RELATED_PRODUCT_CATEGORY ( 'part', '', ( #211 ) ) ;
#327 = DIRECTION ( 'NONE',  ( -0.000000000000000000, -1.000000000000000000, -0.000000000000000000 ) ) ;
#328 = ORIENTED_EDGE ( 'NONE', *, *, #321, .F. ) ;
#329 = AXIS2_PLACEMENT_3D ( 'NONE', #67, #184, #296 ) ;
#330 = ADVANCED_FACE ( 'NONE', ( #298 ), #50, .T. ) ;
#331 = CIRCLE ( 'NONE', #324, 6.000000000000000000 ) ;
#332 = DIRECTION ( 'NONE',  ( -1.208874916035850209E-16, 1.000000000000000000, -0.000000000000000000 ) ) ;
#333 = ORIENTED_EDGE ( 'NONE', *, *, #261, .F. ) ;
#334 = SURFACE_SIDE_STYLE ('',( #219 ) ) ;
#335 = ORIENTED_EDGE ( 'NONE', *, *, #22, .F. ) ;
#336 = DIRECTION ( 'NONE',  ( -0.000000000000000000, -1.000000000000000000, -0.000000000000000000 ) ) ;
#337 = SURFACE_SIDE_STYLE ('',( #15 ) ) ;
#338 = DIRECTION ( 'NONE',  ( 0.000000000000000000, 0.000000000000000000, -1.000000000000000000 ) ) ;
#339 = AXIS2_PLACEMENT_3D ( 'NONE', #2, #150, #27 ) ;
#340 = ORIENTED_EDGE ( 'NONE', *, *, #7, .F. ) ;
#341 = CIRCLE ( 'NONE', #246, 6.000000000000000000 ) ;
#342 = DIRECTION ( 'NONE',  ( -1.208874916035850209E-16, 1.000000000000000000, -0.000000000000000000 ) ) ;
#343 = EDGE_CURVE ( 'NONE', #157, #255, #98, .T. ) ;
#344 = SURFACE_STYLE_USAGE ( .BOTH. , #235 ) ;
#345 = CARTESIAN_POINT ( 'NONE',  ( 0.000000000000000000, 0.000000000000000000, 0.000000000000000000 ) ) ;
#346 = CARTESIAN_POINT ( 'NONE',  ( 0.000000000000000000, 0.000000000000000000, 0.000000000000000000 ) ) ;
#347 = SURFACE_SIDE_STYLE ('',( #263 ) ) ;
#348 = PRESENTATION_STYLE_ASSIGNMENT (( #265 ) ) ;
#349 = DIRECTION ( 'NONE',  ( -1.000000000000000000, 0.000000000000000000, 0.000000000000000000 ) ) ;
#350 =( GEOMETRIC_REPRESENTATION_CONTEXT ( 3 ) GLOBAL_UNCERTAINTY_ASSIGNED_CONTEXT ( ( #162 ) ) GLOBAL_UNIT_ASSIGNED_CONTEXT ( ( #36, #127, #104 ) ) REPRESENTATION_CONTEXT ( 'NONE', 'WORKASPACE' ) );
#351 = AXIS2_PLACEMENT_3D ( 'NONE', #312, #202, #4 ) ;
#352 = DIRECTION ( 'NONE',  ( 1.000000000000000000, 1.208874916035850209E-16, 0.000000000000000000 ) ) ;
#353 = VERTEX_POINT ( 'NONE', #232 ) ;
#354 = CARTESIAN_POINT ( 'NONE',  ( 0.000000000000000000, 0.000000000000000000, 0.000000000000000000 ) ) ;
#355 = DIRECTION ( 'NONE',  ( 0.000000000000000000, 0.000000000000000000, -1.000000000000000000 ) ) ;
#356 = AXIS2_PLACEMENT_3D ( 'NONE', #354, #100, #355 ) ;
#357 = PRODUCT_DEFINITION_CONTEXT ( 'detailed design', #147, 'design' ) ;
#358 = FACE_OUTER_BOUND ( 'NONE', #171, .T. ) ;
#359 = EDGE_LOOP ( 'NONE', ( #328, #136, #190, #114 ) ) ;
#360 = PRODUCT_DEFINITION_FORMATION_WITH_SPECIFIED_SOURCE ( 'ANY', '', #211, .NOT_KNOWN. ) ;
#361 = LINE ( 'NONE', #191, #189 ) ;
#362 = EDGE_LOOP ( 'NONE', ( #333, #101, #269, #85 ) ) ;
#363 = DIRECTION ( 'NONE',  ( -0.000000000000000000, -1.000000000000000000, -0.000000000000000000 ) ) ;
#364 = ORIENTED_EDGE ( 'NONE', *, *, #209, .T. ) ;
#365 = CYLINDRICAL_SURFACE ( 'NONE', #122, 5.999999999999998224 ) ;
#366 = ORIENTED_EDGE ( 'NONE', *, *, #286, .T. ) ;
#367 = DIRECTION ( 'NONE',  ( 0.000000000000000000, 0.000000000000000000, -1.000000000000000000 ) ) ;
#368 = CIRCLE ( 'NONE', #339, 6.000000000000000000 ) ;
#369 = COLOUR_RGB ( '',1.000000000000000000, 0.000000000000000000, 0.000000000000000000 ) ;
#370 = ADVANCED_FACE ( 'NONE', ( #118 ), #54, .T. ) ;
ENDSEC;
END-ISO-10303-21;
