ISO-10303-21;
HEADER;
FILE_DESCRIPTION (( 'STEP AP214' ),
    '1' );
FILE_NAME ('Micro_SBMM-040-432X.STEP',
    '2021-09-02T17:11:27',
    ( '' ),
    ( '' ),
    'SwSTEP 2.0',
    'SolidWorks 2020',
    '' );
FILE_SCHEMA (( 'AUTOMOTIVE_DESIGN' ));
ENDSEC;

DATA;
#1 = DIMENSIONAL_EXPONENTS ( 1.000000000000000000, 0.0000000000000000000, 0.0000000000000000000, 0.0000000000000000000, 0.0000000000000000000, 0.0000000000000000000, 0.0000000000000000000 ) ;
#2 = CIRCLE ( 'NONE', #69, 0.05314949999999984964 ) ;
#3 = CYLINDRICAL_SURFACE ( 'NONE', #10, 0.1181100000000000344 ) ;
#4 = ADVANCED_FACE ( 'NONE', ( #310 ), #146, .T. ) ;
#5 = DIRECTION ( 'NONE',  ( -1.000000000000000000, 0.0000000000000000000, 0.0000000000000000000 ) ) ;
#6 = CIRCLE ( 'NONE', #298, 0.1031100000000005484 ) ;
#7 = DIRECTION ( 'NONE',  ( -0.0000000000000000000, -0.0000000000000000000, -1.000000000000000000 ) ) ;
#8 = DIRECTION ( 'NONE',  ( -0.0000000000000000000, -0.0000000000000000000, -1.000000000000000000 ) ) ;
#9 = CARTESIAN_POINT ( 'NONE',  ( -0.1031100000000005484, 0.0000000000000000000, 3.937007999999999619 ) ) ;
#10 = AXIS2_PLACEMENT_3D ( 'NONE', #50, #263, #155 ) ;
#11 = DIRECTION ( 'NONE',  ( -1.000000000000000000, 0.0000000000000000000, 0.0000000000000000000 ) ) ;
#12 = DIRECTION ( 'NONE',  ( 0.0000000000000000000, 0.0000000000000000000, 1.000000000000000000 ) ) ;
#13 = ORIENTED_EDGE ( 'NONE', *, *, #337, .T. ) ;
#14 = EDGE_CURVE ( 'NONE', #228, #309, #6, .T. ) ;
#15 = ORIENTED_EDGE ( 'NONE', *, *, #324, .F. ) ;
#16 = ORIENTED_EDGE ( 'NONE', *, *, #114, .F. ) ;
#17 = EDGE_LOOP ( 'NONE', ( #291, #250, #42, #230 ) ) ;
#18 = CARTESIAN_POINT ( 'NONE',  ( 0.0000000000000000000, 0.0000000000000000000, 0.07874000000000000443 ) ) ;
#19 = ORIENTED_EDGE ( 'NONE', *, *, #160, .T. ) ;
#20 = CARTESIAN_POINT ( 'NONE',  ( 0.0000000000000000000, 0.0000000000000000000, 1.818181181818179670 ) ) ;
#21 = AXIS2_PLACEMENT_3D ( 'NONE', #32, #170, #138 ) ;
#22 = EDGE_CURVE ( 'NONE', #182, #125, #139, .T. ) ;
#23 = DIRECTION ( 'NONE',  ( 0.0000000000000000000, 0.0000000000000000000, 1.000000000000000000 ) ) ;
#24 = LINE ( 'NONE', #207, #238 ) ;
#25 = CARTESIAN_POINT ( 'NONE',  ( 0.0000000000000000000, 0.0000000000000000000, 3.922007999999999939 ) ) ;
#26 = CIRCLE ( 'NONE', #215, 0.05314949999999998842 ) ;
#27 = LENGTH_MEASURE_WITH_UNIT ( LENGTH_MEASURE( 0.02539999999999999897 ), #240 );
#28 = CONICAL_SURFACE ( 'NONE', #106, 0.1299209999999997867, 0.1366431624910874332 ) ;
#29 = CARTESIAN_POINT ( 'NONE',  ( 0.0000000000000000000, 0.0000000000000000000, 0.07874000000000000443 ) ) ;
#30 = CIRCLE ( 'NONE', #321, 0.05314949999999998842 ) ;
#31 = CARTESIAN_POINT ( 'NONE',  ( 0.0000000000000000000, 0.0000000000000000000, 3.937007999999999619 ) ) ;
#32 = CARTESIAN_POINT ( 'NONE',  ( 0.0000000000000000000, 0.0000000000000000000, 1.732282999999999795 ) ) ;
#33 = DIRECTION ( 'NONE',  ( -1.224646799147352961E-16, 1.000000000000000000, 0.0000000000000000000 ) ) ;
#34 =( GEOMETRIC_REPRESENTATION_CONTEXT ( 3 ) GLOBAL_UNCERTAINTY_ASSIGNED_CONTEXT ( ( #93 ) ) GLOBAL_UNIT_ASSIGNED_CONTEXT ( ( #271, #79, #157 ) ) REPRESENTATION_CONTEXT ( 'NONE', 'WORKASPACE' ) );
#35 = DIRECTION ( 'NONE',  ( -0.0000000000000000000, -0.0000000000000000000, -1.000000000000000000 ) ) ;
#36 = ADVANCED_FACE ( 'NONE', ( #143 ), #28, .T. ) ;
#37 = VERTEX_POINT ( 'NONE', #136 ) ;
#38 = PRODUCT_DEFINITION_CONTEXT ( 'detailed design', #246, 'design' ) ;
#39 = ORIENTED_EDGE ( 'NONE', *, *, #135, .F. ) ;
#40 = EDGE_LOOP ( 'NONE', ( #336, #71, #91, #201 ) ) ;
#41 = EDGE_LOOP ( 'NONE', ( #67, #252, #314, #285 ) ) ;
#42 = ORIENTED_EDGE ( 'NONE', *, *, #270, .F. ) ;
#43 = FACE_OUTER_BOUND ( 'NONE', #72, .T. ) ;
#44 = VERTEX_POINT ( 'NONE', #196 ) ;
#45 = DIRECTION ( 'NONE',  ( -1.000000000000000000, 0.0000000000000000000, 0.0000000000000000000 ) ) ;
#46 = APPLICATION_CONTEXT ( 'automotive_design' ) ;
#47 = APPLICATION_PROTOCOL_DEFINITION ( 'draft international standard', 'automotive_design', 1998, #246 ) ;
#48 = CARTESIAN_POINT ( 'NONE',  ( 0.1031100000000005484, 1.354581824536890879E-17, 3.937007999999999619 ) ) ;
#49 = CIRCLE ( 'NONE', #308, 0.1031100000000005484 ) ;
#50 = CARTESIAN_POINT ( 'NONE',  ( 0.0000000000000000000, 0.0000000000000000000, 3.937007999999999619 ) ) ;
#51 = FACE_OUTER_BOUND ( 'NONE', #17, .T. ) ;
#52 = DIRECTION ( 'NONE',  ( -0.0000000000000000000, -0.0000000000000000000, -1.000000000000000000 ) ) ;
#53 = AXIS2_PLACEMENT_3D ( 'NONE', #87, #35, #11 ) ;
#54 = LINE ( 'NONE', #86, #237 ) ;
#55 = CARTESIAN_POINT ( 'NONE',  ( 0.0000000000000000000, 0.0000000000000000000, 0.1368357679160022988 ) ) ;
#56 = LINE ( 'NONE', #9, #320 ) ;
#57 = ORIENTED_EDGE ( 'NONE', *, *, #264, .F. ) ;
#58 = LINE ( 'NONE', #304, #103 ) ;
#59 = DIRECTION ( 'NONE',  ( -1.000000000000000000, 0.0000000000000000000, 0.0000000000000000000 ) ) ;
#60 = AXIS2_PLACEMENT_3D ( 'NONE', #194, #85, #302 ) ;
#61 = CIRCLE ( 'NONE', #274, 0.1181100000000000344 ) ;
#62 = VERTEX_POINT ( 'NONE', #305 ) ;
#63 = EDGE_CURVE ( 'NONE', #37, #286, #249, .T. ) ;
#64 = ORIENTED_EDGE ( 'NONE', *, *, #109, .F. ) ;
#65 = EDGE_CURVE ( 'NONE', #309, #125, #56, .T. ) ;
#66 = ORIENTED_EDGE ( 'NONE', *, *, #281, .F. ) ;
#67 = ORIENTED_EDGE ( 'NONE', *, *, #195, .F. ) ;
#68 = CARTESIAN_POINT ( 'NONE',  ( -0.1031100000000005484, 0.0000000000000000000, 3.937007999999999619 ) ) ;
#69 = AXIS2_PLACEMENT_3D ( 'NONE', #142, #88, #59 ) ;
#70 = AXIS2_PLACEMENT_3D ( 'NONE', #342, #341, #97 ) ;
#71 = ORIENTED_EDGE ( 'NONE', *, *, #324, .T. ) ;
#72 = EDGE_LOOP ( 'NONE', ( #148, #13, #179, #57 ) ) ;
#73 = FACE_OUTER_BOUND ( 'NONE', #287, .T. ) ;
#74 = DIRECTION ( 'NONE',  ( 0.0000000000000000000, 0.0000000000000000000, -1.000000000000000000 ) ) ;
#75 = DIRECTION ( 'NONE',  ( 1.000000000000000000, 0.0000000000000000000, 0.0000000000000000000 ) ) ;
#76 = EDGE_CURVE ( 'NONE', #228, #182, #58, .T. ) ;
#77 = AXIS2_PLACEMENT_3D ( 'NONE', #18, #344, #23 ) ;
#78 = DIRECTION ( 'NONE',  ( 1.000000000000000000, 0.0000000000000000000, 0.0000000000000000000 ) ) ;
#79 =( NAMED_UNIT ( * ) PLANE_ANGLE_UNIT ( ) SI_UNIT ( $, .RADIAN. ) );
#80 = FILL_AREA_STYLE_COLOUR ( '', #258 ) ;
#81 = DIRECTION ( 'NONE',  ( 0.0000000000000000000, 0.0000000000000000000, 1.000000000000000000 ) ) ;
#82 = ADVANCED_BREP_SHAPE_REPRESENTATION ( 'Micro_SBMM-040-432X', ( #323, #177 ), #34 ) ;
#83 = AXIS2_PLACEMENT_3D ( 'NONE', #241, #7, #191 ) ;
#84 =( GEOMETRIC_REPRESENTATION_CONTEXT ( 3 ) GLOBAL_UNCERTAINTY_ASSIGNED_CONTEXT ( ( #171 ) ) GLOBAL_UNIT_ASSIGNED_CONTEXT ( ( #232, #262, #152 ) ) REPRESENTATION_CONTEXT ( 'NONE', 'WORKASPACE' ) );
#85 = DIRECTION ( 'NONE',  ( 0.0000000000000000000, 0.0000000000000000000, -1.000000000000000000 ) ) ;
#86 = CARTESIAN_POINT ( 'NONE',  ( 0.05314949999999991903, 6.508936505128214479E-18, 0.0000000000000000000 ) ) ;
#87 = CARTESIAN_POINT ( 'NONE',  ( 0.0000000000000000000, 0.0000000000000000000, 0.0000000000000000000 ) ) ;
#88 = DIRECTION ( 'NONE',  ( -0.0000000000000000000, -0.0000000000000000000, -1.000000000000000000 ) ) ;
#89 = PRODUCT_RELATED_PRODUCT_CATEGORY ( 'part', '', ( #124 ) ) ;
#90 = PRODUCT_DEFINITION_SHAPE ( 'NONE', 'NONE',  #339 ) ;
#91 = ORIENTED_EDGE ( 'NONE', *, *, #311, .T. ) ;
#92 = ORIENTED_EDGE ( 'NONE', *, *, #173, .T. ) ;
#93 = UNCERTAINTY_MEASURE_WITH_UNIT (LENGTH_MEASURE( 1.000000000000000082E-05 ), #271, 'distance_accuracy_value', 'NONE');
#94 = EDGE_LOOP ( 'NONE', ( #340, #64, #334, #16 ) ) ;
#95 = PRESENTATION_STYLE_ASSIGNMENT (( #206 ) ) ;
#96 = ORIENTED_EDGE ( 'NONE', *, *, #109, .T. ) ;
#97 = DIRECTION ( 'NONE',  ( 0.0000000000000000000, 1.000000000000000000, 0.0000000000000000000 ) ) ;
#98 = CARTESIAN_POINT ( 'NONE',  ( 0.0000000000000000000, 0.0000000000000000000, 0.07874000000000000443 ) ) ;
#99 = DIRECTION ( 'NONE',  ( 0.0000000000000000000, 1.000000000000000000, 0.0000000000000000000 ) ) ;
#100 = EDGE_CURVE ( 'NONE', #102, #62, #333, .T. ) ;
#101 = CARTESIAN_POINT ( 'NONE',  ( 0.0000000000000000000, 0.0000000000000000000, 3.937007999999999619 ) ) ;
#102 = VERTEX_POINT ( 'NONE', #216 ) ;
#103 = VECTOR ( 'NONE', #115, 39.37007874015748854 ) ;
#104 =( CONVERSION_BASED_UNIT ( 'INCH', #27 ) LENGTH_UNIT ( ) NAMED_UNIT ( #1 ) );
#105 = ORIENTED_EDGE ( 'NONE', *, *, #100, .T. ) ;
#106 = AXIS2_PLACEMENT_3D ( 'NONE', #330, #242, #327 ) ;
#107 = PRODUCT_DEFINITION_FORMATION_WITH_SPECIFIED_SOURCE ( 'ANY', '', #124, .NOT_KNOWN. ) ;
#108 = DIRECTION ( 'NONE',  ( -0.1362183404787285501, 1.668193546524392655E-17, 0.9906788398452957001 ) ) ;
#109 = EDGE_CURVE ( 'NONE', #202, #37, #2, .T. ) ;
#110 = DIRECTION ( 'NONE',  ( 0.0000000000000000000, 0.0000000000000000000, 1.000000000000000000 ) ) ;
#111 = VECTOR ( 'NONE', #156, 39.37007874015748143 ) ;
#112 = DIRECTION ( 'NONE',  ( 1.000000000000000000, 0.0000000000000000000, 0.0000000000000000000 ) ) ;
#113 = CARTESIAN_POINT ( 'NONE',  ( 0.0000000000000000000, 0.0000000000000000000, 3.937007999999999619 ) ) ;
#114 = EDGE_CURVE ( 'NONE', #286, #224, #169, .T. ) ;
#115 = DIRECTION ( 'NONE',  ( 0.7071067811865422437, 8.659560562354868763E-17, -0.7071067811865526798 ) ) ;
#116 = VECTOR ( 'NONE', #8, 39.37007874015748143 ) ;
#117 = ORIENTED_EDGE ( 'NONE', *, *, #188, .F. ) ;
#118 = AXIS2_PLACEMENT_3D ( 'NONE', #98, #345, #99 ) ;
#119 = AXIS2_PLACEMENT_3D ( 'NONE', #307, #255, #130 ) ;
#120 = ORIENTED_EDGE ( 'NONE', *, *, #22, .F. ) ;
#121 = VERTEX_POINT ( 'NONE', #221 ) ;
#122 = ORIENTED_EDGE ( 'NONE', *, *, #141, .T. ) ;
#123 = FACE_OUTER_BOUND ( 'NONE', #227, .T. ) ;
#124 = PRODUCT ( 'Micro_SBMM-040-432X', 'Micro_SBMM-040-432X', '', ( #343 ) ) ;
#125 = VERTEX_POINT ( 'NONE', #325 ) ;
#126 = DIRECTION ( 'NONE',  ( -0.0000000000000000000, -0.0000000000000000000, -1.000000000000000000 ) ) ;
#127 = AXIS2_PLACEMENT_3D ( 'NONE', #223, #306, #282 ) ;
#128 = DIRECTION ( 'NONE',  ( 0.0000000000000000000, 0.0000000000000000000, 1.000000000000000000 ) ) ;
#129 = DIRECTION ( 'NONE',  ( -0.0000000000000000000, -0.0000000000000000000, -1.000000000000000000 ) ) ;
#130 = DIRECTION ( 'NONE',  ( -1.000000000000000000, 0.0000000000000000000, 0.0000000000000000000 ) ) ;
#131 =( LENGTH_UNIT ( ) NAMED_UNIT ( * ) SI_UNIT ( $, .METRE. ) );
#132 = FACE_OUTER_BOUND ( 'NONE', #204, .T. ) ;
#133 = AXIS2_PLACEMENT_3D ( 'NONE', #25, #236, #78 ) ;
#134 =( LENGTH_UNIT ( ) NAMED_UNIT ( * ) SI_UNIT ( $, .METRE. ) );
#135 = EDGE_CURVE ( 'NONE', #44, #102, #26, .T. ) ;
#136 = CARTESIAN_POINT ( 'NONE',  ( -0.05314949999999984964, 1.048661992492879804E-17, 1.259842999999999824 ) ) ;
#137 = CARTESIAN_POINT ( 'NONE',  ( 0.05314949999999984964, 0.0000000000000000000, 1.259842999999999824 ) ) ;
#138 = DIRECTION ( 'NONE',  ( 1.000000000000000000, 0.0000000000000000000, 0.0000000000000000000 ) ) ;
#139 = CIRCLE ( 'NONE', #60, 0.1181100000000000344 ) ;
#140 = STYLED_ITEM ( 'NONE', ( #214 ), #323 ) ;
#141 = EDGE_CURVE ( 'NONE', #125, #286, #166, .T. ) ;
#142 = CARTESIAN_POINT ( 'NONE',  ( 0.0000000000000000000, 0.0000000000000000000, 1.259842999999999824 ) ) ;
#143 = FACE_OUTER_BOUND ( 'NONE', #41, .T. ) ;
#144 = ORIENTED_EDGE ( 'NONE', *, *, #299, .F. ) ;
#145 = CIRCLE ( 'NONE', #133, 0.1181100000000000344 ) ;
#146 = CYLINDRICAL_SURFACE ( 'NONE', #53, 0.05314949999999991903 ) ;
#147 = VECTOR ( 'NONE', #301, 39.37007874015748143 ) ;
#148 = ORIENTED_EDGE ( 'NONE', *, *, #281, .T. ) ;
#149 = DIRECTION ( 'NONE',  ( -1.000000000000000000, 0.0000000000000000000, 0.0000000000000000000 ) ) ;
#150 = ORIENTED_EDGE ( 'NONE', *, *, #160, .F. ) ;
#151 = CARTESIAN_POINT ( 'NONE',  ( 0.1181100000000000344, 1.446430334472939084E-17, 1.732282999999999795 ) ) ;
#152 =( NAMED_UNIT ( * ) SI_UNIT ( $, .STERADIAN. ) SOLID_ANGLE_UNIT ( ) );
#153 = CARTESIAN_POINT ( 'NONE',  ( 0.1299209999999997867, 0.0000000000000000000, 1.818181181818179670 ) ) ;
#154 = CIRCLE ( 'NONE', #83, 0.05314949999999984964 ) ;
#155 = DIRECTION ( 'NONE',  ( -1.000000000000000000, 0.0000000000000000000, 0.0000000000000000000 ) ) ;
#156 = DIRECTION ( 'NONE',  ( 0.1362183404787285501, 0.0000000000000000000, 0.9906788398452957001 ) ) ;
#157 =( NAMED_UNIT ( * ) SI_UNIT ( $, .STERADIAN. ) SOLID_ANGLE_UNIT ( ) );
#158 = PRESENTATION_LAYER_ASSIGNMENT (  '', '', ( #140 ) ) ;
#159 = CARTESIAN_POINT ( 'NONE',  ( 0.1181100000000000344, 1.446430334472939084E-17, 3.937007999999999619 ) ) ;
#160 = EDGE_CURVE ( 'NONE', #202, #121, #54, .T. ) ;
#161 = SURFACE_SIDE_STYLE ('',( #292 ) ) ;
#162 = DIRECTION ( 'NONE',  ( -0.0000000000000000000, -0.0000000000000000000, -1.000000000000000000 ) ) ;
#163 = CONICAL_SURFACE ( 'NONE', #273, 0.1031100000000005484, 0.7853981633974410625 ) ;
#164 = STYLED_ITEM ( 'NONE', ( #95 ), #82 ) ;
#165 = PRESENTATION_LAYER_ASSIGNMENT (  '', '', ( #164 ) ) ;
#166 = LINE ( 'NONE', #276, #116 ) ;
#167 = DIRECTION ( 'NONE',  ( -0.7071067811865422437, 0.0000000000000000000, -0.7071067811865526798 ) ) ;
#168 = CARTESIAN_POINT ( 'NONE',  ( 0.0000000000000000000, 0.0000000000000000000, 3.937007999999999619 ) ) ;
#169 = CIRCLE ( 'NONE', #21, 0.1181100000000000344 ) ;
#170 = DIRECTION ( 'NONE',  ( 0.0000000000000000000, 0.0000000000000000000, 1.000000000000000000 ) ) ;
#171 = UNCERTAINTY_MEASURE_WITH_UNIT (LENGTH_MEASURE( 1.000000000000000082E-05 ), #232, 'distance_accuracy_value', 'NONE');
#172 = ORIENTED_EDGE ( 'NONE', *, *, #299, .T. ) ;
#173 = EDGE_CURVE ( 'NONE', #309, #228, #49, .T. ) ;
#174 = ORIENTED_EDGE ( 'NONE', *, *, #114, .T. ) ;
#175 = AXIS2_PLACEMENT_3D ( 'NONE', #29, #278, #33 ) ;
#176 = ORIENTED_EDGE ( 'NONE', *, *, #337, .F. ) ;
#177 = AXIS2_PLACEMENT_3D ( 'NONE', #181, #128, #319 ) ;
#178 = DIRECTION ( 'NONE',  ( 0.0000000000000000000, 0.0000000000000000000, 1.000000000000000000 ) ) ;
#179 = ORIENTED_EDGE ( 'NONE', *, *, #188, .T. ) ;
#180 = FILL_AREA_STYLE_COLOUR ( '', #245 ) ;
#181 = CARTESIAN_POINT ( 'NONE',  ( 0.0000000000000000000, 0.0000000000000000000, 0.0000000000000000000 ) ) ;
#182 = VERTEX_POINT ( 'NONE', #272 ) ;
#183 = CARTESIAN_POINT ( 'NONE',  ( 0.0000000000000000000, 0.0000000000000000000, 0.0000000000000000000 ) ) ;
#184 = DIMENSIONAL_EXPONENTS ( 1.000000000000000000, 0.0000000000000000000, 0.0000000000000000000, 0.0000000000000000000, 0.0000000000000000000, 0.0000000000000000000, 0.0000000000000000000 ) ;
#185 = DIRECTION ( 'NONE',  ( 0.0000000000000000000, 0.0000000000000000000, -1.000000000000000000 ) ) ;
#186 = MECHANICAL_DESIGN_GEOMETRIC_PRESENTATION_REPRESENTATION (  '', ( #140 ), #280 ) ;
#187 = FILL_AREA_STYLE ('',( #180 ) ) ;
#188 = EDGE_CURVE ( 'NONE', #44, #211, #328, .T. ) ;
#189 = SURFACE_STYLE_FILL_AREA ( #239 ) ;
#190 =( NAMED_UNIT ( * ) PLANE_ANGLE_UNIT ( ) SI_UNIT ( $, .RADIAN. ) );
#191 = DIRECTION ( 'NONE',  ( -1.000000000000000000, 0.0000000000000000000, 0.0000000000000000000 ) ) ;
#192 = ORIENTED_EDGE ( 'NONE', *, *, #135, .T. ) ;
#193 = FACE_OUTER_BOUND ( 'NONE', #40, .T. ) ;
#194 = CARTESIAN_POINT ( 'NONE',  ( 0.0000000000000000000, 0.0000000000000000000, 3.922007999999999939 ) ) ;
#195 = EDGE_CURVE ( 'NONE', #37, #202, #154, .T. ) ;
#196 = CARTESIAN_POINT ( 'NONE',  ( 6.508936505128221412E-18, -0.05314949999999997454, 0.1368357679160022988 ) ) ;
#197 = FACE_OUTER_BOUND ( 'NONE', #94, .T. ) ;
#198 = AXIS2_PLACEMENT_3D ( 'NONE', #233, #129, #45 ) ;
#199 = DIRECTION ( 'NONE',  ( -0.0000000000000000000, -0.0000000000000000000, -1.000000000000000000 ) ) ;
#200 = ADVANCED_FACE ( 'NONE', ( #222 ), #331, .T. ) ;
#201 = ORIENTED_EDGE ( 'NONE', *, *, #141, .F. ) ;
#202 = VERTEX_POINT ( 'NONE', #137 ) ;
#203 = LENGTH_MEASURE_WITH_UNIT ( LENGTH_MEASURE( 0.02539999999999999897 ), #131 );
#204 = EDGE_LOOP ( 'NONE', ( #317, #226, #284, #120 ) ) ;
#205 = CARTESIAN_POINT ( 'NONE',  ( 0.0000000000000000000, 0.0000000000000000000, 0.1368357679160022988 ) ) ;
#206 = SURFACE_STYLE_USAGE ( .BOTH. , #297 ) ;
#207 = CARTESIAN_POINT ( 'NONE',  ( -0.05314949999999991903, 0.0000000000000000000, 0.0000000000000000000 ) ) ;
#208 = DIMENSIONAL_EXPONENTS ( 1.000000000000000000, 0.0000000000000000000, 0.0000000000000000000, 0.0000000000000000000, 0.0000000000000000000, 0.0000000000000000000, 0.0000000000000000000 ) ;
#209 = CYLINDRICAL_SURFACE ( 'NONE', #198, 0.1181100000000000344 ) ;
#210 = AXIS2_PLACEMENT_3D ( 'NONE', #183, #231, #315 ) ;
#211 = VERTEX_POINT ( 'NONE', #217 ) ;
#212 = ADVANCED_FACE ( 'NONE', ( #193 ), #209, .T. ) ;
#213 =( NAMED_UNIT ( * ) SI_UNIT ( $, .STERADIAN. ) SOLID_ANGLE_UNIT ( ) );
#214 = PRESENTATION_STYLE_ASSIGNMENT (( #266 ) ) ;
#215 = AXIS2_PLACEMENT_3D ( 'NONE', #55, #199, #277 ) ;
#216 = CARTESIAN_POINT ( 'NONE',  ( -0.05314949999999998842, 0.0000000000000000000, 0.1368357679160022988 ) ) ;
#217 = CARTESIAN_POINT ( 'NONE',  ( 0.0000000000000000000, 4.821434448243128484E-18, 1.707404996040164512E-17 ) ) ;
#218 = EDGE_LOOP ( 'NONE', ( #92, #254 ) ) ;
#219 = CIRCLE ( 'NONE', #77, 0.07873999999999996280 ) ;
#220 = CONICAL_SURFACE ( 'NONE', #267, 0.1031100000000005484, 0.7853981633974410625 ) ;
#221 = CARTESIAN_POINT ( 'NONE',  ( 0.05314949999999998842, 6.508936505128222953E-18, 0.1368357679160022988 ) ) ;
#222 = FACE_OUTER_BOUND ( 'NONE', #218, .T. ) ;
#223 = CARTESIAN_POINT ( 'NONE',  ( 0.0000000000000000000, 0.0000000000000000000, 0.1368357679160022988 ) ) ;
#224 = VERTEX_POINT ( 'NONE', #151 ) ;
#225 = UNCERTAINTY_MEASURE_WITH_UNIT (LENGTH_MEASURE( 1.000000000000000082E-05 ), #104, 'distance_accuracy_value', 'NONE');
#226 = ORIENTED_EDGE ( 'NONE', *, *, #173, .F. ) ;
#227 = EDGE_LOOP ( 'NONE', ( #256, #19, #66, #338, #144 ) ) ;
#228 = VERTEX_POINT ( 'NONE', #48 ) ;
#229 = CARTESIAN_POINT ( 'NONE',  ( 0.0000000000000000000, 0.0000000000000000000, 1.732282999999999795 ) ) ;
#230 = ORIENTED_EDGE ( 'NONE', *, *, #65, .F. ) ;
#231 = DIRECTION ( 'NONE',  ( -0.0000000000000000000, -0.0000000000000000000, -1.000000000000000000 ) ) ;
#232 =( CONVERSION_BASED_UNIT ( 'INCH', #203 ) LENGTH_UNIT ( ) NAMED_UNIT ( #208 ) );
#233 = CARTESIAN_POINT ( 'NONE',  ( 0.0000000000000000000, 0.0000000000000000000, 3.937007999999999619 ) ) ;
#234 = DIRECTION ( 'NONE',  ( 0.0000000000000000000, 0.0000000000000000000, 1.000000000000000000 ) ) ;
#235 = ADVANCED_FACE ( 'NONE', ( #132 ), #163, .T. ) ;
#236 = DIRECTION ( 'NONE',  ( 0.0000000000000000000, 0.0000000000000000000, -1.000000000000000000 ) ) ;
#237 = VECTOR ( 'NONE', #162, 39.37007874015748143 ) ;
#238 = VECTOR ( 'NONE', #126, 39.37007874015748143 ) ;
#239 = FILL_AREA_STYLE ('',( #80 ) ) ;
#240 =( LENGTH_UNIT ( ) NAMED_UNIT ( * ) SI_UNIT ( $, .METRE. ) );
#241 = CARTESIAN_POINT ( 'NONE',  ( 0.0000000000000000000, 0.0000000000000000000, 1.259842999999999824 ) ) ;
#242 = DIRECTION ( 'NONE',  ( 0.0000000000000000000, 0.0000000000000000000, 1.000000000000000000 ) ) ;
#243 = ADVANCED_FACE ( 'NONE', ( #43 ), #257, .T. ) ;
#244 = DIRECTION ( 'NONE',  ( 1.000000000000000000, 0.0000000000000000000, -0.0000000000000000000 ) ) ;
#245 = COLOUR_RGB ( '',0.7921568627450980005, 0.8196078431372548767, 0.9333333333333333481 ) ;
#246 = APPLICATION_CONTEXT ( 'automotive_design' ) ;
#247 = ORIENTED_EDGE ( 'NONE', *, *, #264, .T. ) ;
#248 = DIRECTION ( 'NONE',  ( 1.000000000000000000, 0.0000000000000000000, 0.0000000000000000000 ) ) ;
#249 = LINE ( 'NONE', #332, #279 ) ;
#250 = ORIENTED_EDGE ( 'NONE', *, *, #76, .T. ) ;
#251 = CONICAL_SURFACE ( 'NONE', #303, 0.1299209999999997867, 0.1366431624910874332 ) ;
#252 = ORIENTED_EDGE ( 'NONE', *, *, #63, .T. ) ;
#253 = APPLICATION_PROTOCOL_DEFINITION ( 'draft international standard', 'automotive_design', 1998, #46 ) ;
#254 = ORIENTED_EDGE ( 'NONE', *, *, #14, .T. ) ;
#255 = DIRECTION ( 'NONE',  ( -0.0000000000000000000, -0.0000000000000000000, -1.000000000000000000 ) ) ;
#256 = ORIENTED_EDGE ( 'NONE', *, *, #195, .T. ) ;
#257 = SPHERICAL_SURFACE ( 'NONE', #118, 0.07873999999999999055 ) ;
#258 = COLOUR_RGB ( '',0.7921568627450980005, 0.8196078431372548767, 0.9333333333333333481 ) ;
#259 = DIRECTION ( 'NONE',  ( -1.000000000000000000, 0.0000000000000000000, 0.0000000000000000000 ) ) ;
#260 = EDGE_CURVE ( 'NONE', #202, #224, #322, .T. ) ;
#261 = CARTESIAN_POINT ( 'NONE',  ( -0.1181100000000000344, 0.0000000000000000000, 1.732282999999999795 ) ) ;
#262 =( NAMED_UNIT ( * ) PLANE_ANGLE_UNIT ( ) SI_UNIT ( $, .RADIAN. ) );
#263 = DIRECTION ( 'NONE',  ( -0.0000000000000000000, -0.0000000000000000000, -1.000000000000000000 ) ) ;
#264 = EDGE_CURVE ( 'NONE', #62, #211, #219, .T. ) ;
#265 = ADVANCED_FACE ( 'NONE', ( #123 ), #293, .T. ) ;
#266 = SURFACE_STYLE_USAGE ( .BOTH. , #161 ) ;
#267 = AXIS2_PLACEMENT_3D ( 'NONE', #101, #185, #259 ) ;
#268 = ADVANCED_FACE ( 'NONE', ( #197 ), #251, .T. ) ;
#269 = LENGTH_MEASURE_WITH_UNIT ( LENGTH_MEASURE( 0.02539999999999999897 ), #134 );
#270 = EDGE_CURVE ( 'NONE', #125, #182, #145, .T. ) ;
#271 =( CONVERSION_BASED_UNIT ( 'INCH', #269 ) LENGTH_UNIT ( ) NAMED_UNIT ( #184 ) );
#272 = CARTESIAN_POINT ( 'NONE',  ( 0.1181100000000000344, 1.446430334472939084E-17, 3.922007999999999939 ) ) ;
#273 = AXIS2_PLACEMENT_3D ( 'NONE', #296, #74, #149 ) ;
#274 = AXIS2_PLACEMENT_3D ( 'NONE', #229, #234, #290 ) ;
#275 = ADVANCED_FACE ( 'NONE', ( #51 ), #220, .T. ) ;
#276 = CARTESIAN_POINT ( 'NONE',  ( -0.1181100000000000344, 0.0000000000000000000, 3.937007999999999619 ) ) ;
#277 = DIRECTION ( 'NONE',  ( -1.000000000000000000, 0.0000000000000000000, 0.0000000000000000000 ) ) ;
#278 = DIRECTION ( 'NONE',  ( 1.000000000000000000, 1.224646799147353207E-16, -0.0000000000000000000 ) ) ;
#279 = VECTOR ( 'NONE', #108, 39.37007874015748143 ) ;
#280 =( GEOMETRIC_REPRESENTATION_CONTEXT ( 3 ) GLOBAL_UNCERTAINTY_ASSIGNED_CONTEXT ( ( #225 ) ) GLOBAL_UNIT_ASSIGNED_CONTEXT ( ( #104, #190, #213 ) ) REPRESENTATION_CONTEXT ( 'NONE', 'WORKASPACE' ) );
#281 = EDGE_CURVE ( 'NONE', #62, #121, #335, .T. ) ;
#282 = DIRECTION ( 'NONE',  ( -1.000000000000000000, 0.0000000000000000000, 0.0000000000000000000 ) ) ;
#283 = ADVANCED_FACE ( 'NONE', ( #295 ), #3, .T. ) ;
#284 = ORIENTED_EDGE ( 'NONE', *, *, #65, .T. ) ;
#285 = ORIENTED_EDGE ( 'NONE', *, *, #260, .F. ) ;
#286 = VERTEX_POINT ( 'NONE', #261 ) ;
#287 = EDGE_LOOP ( 'NONE', ( #117, #192, #105, #247 ) ) ;
#288 = AXIS2_PLACEMENT_3D ( 'NONE', #31, #110, #244 ) ;
#289 = EDGE_LOOP ( 'NONE', ( #15, #326, #122, #174 ) ) ;
#290 = DIRECTION ( 'NONE',  ( 1.000000000000000000, 0.0000000000000000000, 0.0000000000000000000 ) ) ;
#291 = ORIENTED_EDGE ( 'NONE', *, *, #14, .F. ) ;
#292 = SURFACE_STYLE_FILL_AREA ( #187 ) ;
#293 = CYLINDRICAL_SURFACE ( 'NONE', #210, 0.05314949999999991903 ) ;
#294 = CLOSED_SHELL ( 'NONE', ( #265, #243, #36, #275, #212, #283, #200, #235, #268, #318, #4 ) ) ;
#295 = FACE_OUTER_BOUND ( 'NONE', #289, .T. ) ;
#296 = CARTESIAN_POINT ( 'NONE',  ( 0.0000000000000000000, 0.0000000000000000000, 3.937007999999999619 ) ) ;
#297 = SURFACE_SIDE_STYLE ('',( #189 ) ) ;
#298 = AXIS2_PLACEMENT_3D ( 'NONE', #113, #12, #112 ) ;
#299 = EDGE_CURVE ( 'NONE', #37, #102, #24, .T. ) ;
#300 = LINE ( 'NONE', #159, #147 ) ;
#301 = DIRECTION ( 'NONE',  ( -0.0000000000000000000, -0.0000000000000000000, -1.000000000000000000 ) ) ;
#302 = DIRECTION ( 'NONE',  ( 1.000000000000000000, 0.0000000000000000000, 0.0000000000000000000 ) ) ;
#303 = AXIS2_PLACEMENT_3D ( 'NONE', #20, #178, #75 ) ;
#304 = CARTESIAN_POINT ( 'NONE',  ( 0.1031100000000005484, 1.262733314600842673E-17, 3.937007999999999619 ) ) ;
#305 = CARTESIAN_POINT ( 'NONE',  ( 0.0000000000000000000, 0.05314949999999997454, 0.1368357679160022988 ) ) ;
#306 = DIRECTION ( 'NONE',  ( -0.0000000000000000000, -0.0000000000000000000, -1.000000000000000000 ) ) ;
#307 = CARTESIAN_POINT ( 'NONE',  ( 0.0000000000000000000, 0.0000000000000000000, 0.1368357679160022988 ) ) ;
#308 = AXIS2_PLACEMENT_3D ( 'NONE', #168, #81, #248 ) ;
#309 = VERTEX_POINT ( 'NONE', #68 ) ;
#310 = FACE_OUTER_BOUND ( 'NONE', #312, .T. ) ;
#311 = EDGE_CURVE ( 'NONE', #224, #286, #61, .T. ) ;
#312 = EDGE_LOOP ( 'NONE', ( #150, #96, #172, #39, #176 ) ) ;
#313 = SHAPE_DEFINITION_REPRESENTATION ( #90, #82 ) ;
#314 = ORIENTED_EDGE ( 'NONE', *, *, #311, .F. ) ;
#315 = DIRECTION ( 'NONE',  ( -1.000000000000000000, 0.0000000000000000000, 0.0000000000000000000 ) ) ;
#316 = SPHERICAL_SURFACE ( 'NONE', #70, 0.07873999999999999055 ) ;
#317 = ORIENTED_EDGE ( 'NONE', *, *, #76, .F. ) ;
#318 = ADVANCED_FACE ( 'NONE', ( #73 ), #316, .T. ) ;
#319 = DIRECTION ( 'NONE',  ( 1.000000000000000000, 0.0000000000000000000, 0.0000000000000000000 ) ) ;
#320 = VECTOR ( 'NONE', #167, 39.37007874015748854 ) ;
#321 = AXIS2_PLACEMENT_3D ( 'NONE', #205, #52, #5 ) ;
#322 = LINE ( 'NONE', #153, #111 ) ;
#323 = MANIFOLD_SOLID_BREP ( 'Cut-Revolve3', #294 ) ;
#324 = EDGE_CURVE ( 'NONE', #182, #224, #300, .T. ) ;
#325 = CARTESIAN_POINT ( 'NONE',  ( -0.1181100000000000344, 0.0000000000000000000, 3.922007999999999939 ) ) ;
#326 = ORIENTED_EDGE ( 'NONE', *, *, #22, .T. ) ;
#327 = DIRECTION ( 'NONE',  ( 1.000000000000000000, 0.0000000000000000000, 0.0000000000000000000 ) ) ;
#328 = CIRCLE ( 'NONE', #175, 0.07873999999999999055 ) ;
#329 = MECHANICAL_DESIGN_GEOMETRIC_PRESENTATION_REPRESENTATION (  '', ( #164 ), #84 ) ;
#330 = CARTESIAN_POINT ( 'NONE',  ( 0.0000000000000000000, 0.0000000000000000000, 1.818181181818179670 ) ) ;
#331 = PLANE ( 'NONE',  #288 ) ;
#332 = CARTESIAN_POINT ( 'NONE',  ( -0.1299209999999997867, 1.591073367920230343E-17, 1.818181181818179670 ) ) ;
#333 = CIRCLE ( 'NONE', #127, 0.05314949999999998842 ) ;
#334 = ORIENTED_EDGE ( 'NONE', *, *, #260, .T. ) ;
#335 = CIRCLE ( 'NONE', #119, 0.05314949999999998842 ) ;
#336 = ORIENTED_EDGE ( 'NONE', *, *, #270, .T. ) ;
#337 = EDGE_CURVE ( 'NONE', #121, #44, #30, .T. ) ;
#338 = ORIENTED_EDGE ( 'NONE', *, *, #100, .F. ) ;
#339 = PRODUCT_DEFINITION ( 'UNKNOWN', '', #107, #38 ) ;
#340 = ORIENTED_EDGE ( 'NONE', *, *, #63, .F. ) ;
#341 = DIRECTION ( 'NONE',  ( 1.000000000000000000, 0.0000000000000000000, 0.0000000000000000000 ) ) ;
#342 = CARTESIAN_POINT ( 'NONE',  ( 0.0000000000000000000, 0.0000000000000000000, 0.07874000000000000443 ) ) ;
#343 = PRODUCT_CONTEXT ( 'NONE', #46, 'mechanical' ) ;
#344 = DIRECTION ( 'NONE',  ( -1.000000000000000000, 0.0000000000000000000, 0.0000000000000000000 ) ) ;
#345 = DIRECTION ( 'NONE',  ( 1.000000000000000000, 0.0000000000000000000, 0.0000000000000000000 ) ) ;
ENDSEC;
END-ISO-10303-21;
