ISO-10303-21;
HEADER;
FILE_DESCRIPTION (( 'STEP AP214' ),
    '1' );
FILE_NAME ('84756.STEP',
    '2023-06-30T23:45:20',
    ( '' ),
    ( '' ),
    'SwSTEP 2.0',
    'SolidWorks 2023',
    '' );
FILE_SCHEMA (( 'AUTOMOTIVE_DESIGN' ));
ENDSEC;

DATA;
#1 = FILL_AREA_STYLE ('',( #152 ) ) ;
#2 = ORIENTED_EDGE ( 'NONE', *, *, #131, .T. ) ;
#3 = ADVANCED_FACE ( 'NONE', ( #216 ), #284, .T. ) ;
#4 = SURFACE_SIDE_STYLE ('',( #266 ) ) ;
#5 = DIRECTION ( 'NONE',  ( -1.209567454625806063E-16, 1.000000000000000000, -0.000000000000000000 ) ) ;
#6 = EDGE_CURVE ( 'NONE', #256, #213, #74, .T. ) ;
#7 = FILL_AREA_STYLE_COLOUR ( '', #292 ) ;
#8 = AXIS2_PLACEMENT_3D ( 'NONE', #150, #92, #93 ) ;
#9 = DIRECTION ( 'NONE',  ( -1.209567454625806063E-16, 1.000000000000000000, -0.000000000000000000 ) ) ;
#10 =( NAMED_UNIT ( * ) SI_UNIT ( $, .STERADIAN. ) SOLID_ANGLE_UNIT ( ) );
#11 = DIRECTION ( 'NONE',  ( -1.209567454625806063E-16, 1.000000000000000000, -0.000000000000000000 ) ) ;
#12 = DIMENSIONAL_EXPONENTS ( 1.000000000000000000, 0.000000000000000000, 0.000000000000000000, 0.000000000000000000, 0.000000000000000000, 0.000000000000000000, 0.000000000000000000 ) ;
#13 = UNCERTAINTY_MEASURE_WITH_UNIT (LENGTH_MEASURE( 1.000000000000000082E-05 ), #242, 'distance_accuracy_value', 'NONE');
#14 = DIRECTION ( 'NONE',  ( 0.000000000000000000, -0.000000000000000000, 1.000000000000000000 ) ) ;
#15 = COLOUR_RGB ( '',1.000000000000000000, 0.000000000000000000, 0.000000000000000000 ) ;
#16 = PRODUCT_DEFINITION_FORMATION_WITH_SPECIFIED_SOURCE ( 'ANY', '', #208, .NOT_KNOWN. ) ;
#17 = EDGE_CURVE ( 'NONE', #161, #144, #278, .T. ) ;
#18 = LINE ( 'NONE', #226, #370 ) ;
#19 = AXIS2_PLACEMENT_3D ( 'NONE', #299, #110, #228 ) ;
#20 = DIMENSIONAL_EXPONENTS ( 1.000000000000000000, 0.000000000000000000, 0.000000000000000000, 0.000000000000000000, 0.000000000000000000, 0.000000000000000000, 0.000000000000000000 ) ;
#21 = UNCERTAINTY_MEASURE_WITH_UNIT (LENGTH_MEASURE( 1.000000000000000082E-05 ), #233, 'distance_accuracy_value', 'NONE');
#22 =( NAMED_UNIT ( * ) SI_UNIT ( $, .STERADIAN. ) SOLID_ANGLE_UNIT ( ) );
#23 = ORIENTED_EDGE ( 'NONE', *, *, #17, .F. ) ;
#24 = EDGE_CURVE ( 'NONE', #340, #236, #267, .T. ) ;
#25 =( NAMED_UNIT ( * ) SI_UNIT ( $, .STERADIAN. ) SOLID_ANGLE_UNIT ( ) );
#26 = ORIENTED_EDGE ( 'NONE', *, *, #219, .F. ) ;
#27 = PRESENTATION_STYLE_ASSIGNMENT (( #112 ) ) ;
#28 = FILL_AREA_STYLE_COLOUR ( '', #158 ) ;
#29 = MECHANICAL_DESIGN_GEOMETRIC_PRESENTATION_REPRESENTATION (  '', ( #179 ), #298 ) ;
#30 = PRESENTATION_STYLE_ASSIGNMENT (( #64 ) ) ;
#31 = ORIENTED_EDGE ( 'NONE', *, *, #63, .F. ) ;
#32 = LENGTH_MEASURE_WITH_UNIT ( LENGTH_MEASURE( 0.02539999999999999897 ), #318 );
#33 = ORIENTED_EDGE ( 'NONE', *, *, #290, .F. ) ;
#34 = CARTESIAN_POINT ( 'NONE',  ( 0.000000000000000000, 0.000000000000000000, -0.09374999999999998612 ) ) ;
#35 = SURFACE_STYLE_FILL_AREA ( #291 ) ;
#36 = CLOSED_SHELL ( 'NONE', ( #145, #66, #97, #129 ) ) ;
#37 = CIRCLE ( 'NONE', #260, 0.09374999999999995837 ) ;
#38 = SURFACE_STYLE_USAGE ( .BOTH. , #327 ) ;
#39 = ADVANCED_FACE ( 'NONE', ( #269 ), #98, .T. ) ;
#40 = CARTESIAN_POINT ( 'NONE',  ( 6.123233995736766036E-17, 2.000000000000000000, 0.000000000000000000 ) ) ;
#41 = CARTESIAN_POINT ( 'NONE',  ( 0.000000000000000000, 0.000000000000000000, 0.000000000000000000 ) ) ;
#42 = AXIS2_PLACEMENT_3D ( 'NONE', #41, #243, #244 ) ;
#43 = MECHANICAL_DESIGN_GEOMETRIC_PRESENTATION_REPRESENTATION (  '', ( #365 ), #234 ) ;
#44 =( NAMED_UNIT ( * ) PLANE_ANGLE_UNIT ( ) SI_UNIT ( $, .RADIAN. ) );
#45 = PRODUCT_DEFINITION ( 'UNKNOWN', '', #16, #153 ) ;
#46 = DIRECTION ( 'NONE',  ( 0.000000000000000000, 0.000000000000000000, 1.000000000000000000 ) ) ;
#47 = SURFACE_SIDE_STYLE ('',( #35 ) ) ;
#48 = APPLICATION_PROTOCOL_DEFINITION ( 'draft international standard', 'automotive_design', 1998, #222 ) ;
#49 =( CONVERSION_BASED_UNIT ( 'INCH', #198 ) LENGTH_UNIT ( ) NAMED_UNIT ( #20 ) );
#50 = COLOUR_RGB ( '',0.7921568627450980005, 0.8196078431372548767, 0.9333333333333333481 ) ;
#51 = PLANE ( 'NONE',  #330 ) ;
#52 = CARTESIAN_POINT ( 'NONE',  ( 0.000000000000000000, 0.000000000000000000, 0.000000000000000000 ) ) ;
#53 = DIRECTION ( 'NONE',  ( 1.000000000000000000, 0.000000000000000000, -1.224646799147353207E-16 ) ) ;
#54 = EDGE_LOOP ( 'NONE', ( #123, #83, #364, #31 ) ) ;
#55 = DIMENSIONAL_EXPONENTS ( 1.000000000000000000, 0.000000000000000000, 0.000000000000000000, 0.000000000000000000, 0.000000000000000000, 0.000000000000000000, 0.000000000000000000 ) ;
#56 = FILL_AREA_STYLE_COLOUR ( '', #50 ) ;
#57 =( NAMED_UNIT ( * ) SI_UNIT ( $, .STERADIAN. ) SOLID_ANGLE_UNIT ( ) );
#58 = DIRECTION ( 'NONE',  ( -1.209567454625806063E-16, 1.000000000000000000, -0.000000000000000000 ) ) ;
#59 = VERTEX_POINT ( 'NONE', #72 ) ;
#60 = CARTESIAN_POINT ( 'NONE',  ( 2.502272547426498839E-16, 0.4374999999999998890, 0.000000000000000000 ) ) ;
#61 = ORIENTED_EDGE ( 'NONE', *, *, #6, .F. ) ;
#62 = ORIENTED_EDGE ( 'NONE', *, *, #24, .F. ) ;
#63 = EDGE_CURVE ( 'NONE', #236, #340, #164, .T. ) ;
#64 = SURFACE_STYLE_USAGE ( .BOTH. , #286 ) ;
#65 = PRESENTATION_STYLE_ASSIGNMENT (( #38 ) ) ;
#66 = ADVANCED_FACE ( 'NONE', ( #271 ), #157, .F. ) ;
#67 = DIRECTION ( 'NONE',  ( -1.000000000000000000, 0.000000000000000000, 0.000000000000000000 ) ) ;
#68 =( GEOMETRIC_REPRESENTATION_CONTEXT ( 3 ) GLOBAL_UNCERTAINTY_ASSIGNED_CONTEXT ( ( #151 ) ) GLOBAL_UNIT_ASSIGNED_CONTEXT ( ( #240, #288, #57 ) ) REPRESENTATION_CONTEXT ( 'NONE', 'WORKASPACE' ) );
#69 = PRESENTATION_LAYER_ASSIGNMENT (  '', '', ( #165 ) ) ;
#70 = CARTESIAN_POINT ( 'NONE',  ( 1.148106374200643401E-17, 0.000000000000000000, 0.09374999999999998612 ) ) ;
#71 = CARTESIAN_POINT ( 'NONE',  ( 6.123233995736766036E-17, 2.000000000000000000, 0.000000000000000000 ) ) ;
#72 = CARTESIAN_POINT ( 'NONE',  ( 1.148106374200644017E-17, 0.09375000000000002776, 0.09375000000000002776 ) ) ;
#73 = CARTESIAN_POINT ( 'NONE',  ( -1.148106374200643863E-17, 0.09375000000000001388, 0.000000000000000000 ) ) ;
#74 = CIRCLE ( 'NONE', #329, 0.09375000000000002776 ) ;
#75 = AXIS2_PLACEMENT_3D ( 'NONE', #138, #167, #333 ) ;
#76 =( NAMED_UNIT ( * ) SI_UNIT ( $, .STERADIAN. ) SOLID_ANGLE_UNIT ( ) );
#77 = LENGTH_MEASURE_WITH_UNIT ( LENGTH_MEASURE( 0.02539999999999999897 ), #304 );
#78 = DIRECTION ( 'NONE',  ( 1.209567454625806063E-16, -1.000000000000000000, 0.000000000000000000 ) ) ;
#79 = DIRECTION ( 'NONE',  ( -0.000000000000000000, -1.000000000000000000, -0.000000000000000000 ) ) ;
#80 = CARTESIAN_POINT ( 'NONE',  ( -1.148106374200643863E-17, 0.09375000000000001388, 0.000000000000000000 ) ) ;
#81 = AXIS2_PLACEMENT_3D ( 'NONE', #60, #280, #149 ) ;
#82 = SURFACE_STYLE_USAGE ( .BOTH. , #169 ) ;
#83 = ORIENTED_EDGE ( 'NONE', *, *, #219, .T. ) ;
#84 = CARTESIAN_POINT ( 'NONE',  ( 0.09374999999999994449, 2.000000000000000000, 1.148106374200641552E-17 ) ) ;
#85 = DIMENSIONAL_EXPONENTS ( 1.000000000000000000, 0.000000000000000000, 0.000000000000000000, 0.000000000000000000, 0.000000000000000000, 0.000000000000000000, 0.000000000000000000 ) ;
#86 = EDGE_CURVE ( 'NONE', #313, #59, #184, .T. ) ;
#87 = CARTESIAN_POINT ( 'NONE',  ( 0.000000000000000000, 0.4375000000000000000, 0.000000000000000000 ) ) ;
#88 = STYLED_ITEM ( 'NONE', ( #65 ), #39 ) ;
#89 = ORIENTED_EDGE ( 'NONE', *, *, #24, .T. ) ;
#90 = CARTESIAN_POINT ( 'NONE',  ( 2.502272547426498839E-16, 0.4374999999999998890, 0.000000000000000000 ) ) ;
#91 = EDGE_LOOP ( 'NONE', ( #89, #170 ) ) ;
#92 = DIRECTION ( 'NONE',  ( -0.000000000000000000, -1.000000000000000000, -0.000000000000000000 ) ) ;
#93 = DIRECTION ( 'NONE',  ( 0.000000000000000000, 0.000000000000000000, -1.000000000000000000 ) ) ;
#94 = UNCERTAINTY_MEASURE_WITH_UNIT (LENGTH_MEASURE( 1.000000000000000082E-05 ), #159, 'distance_accuracy_value', 'NONE');
#95 = ORIENTED_EDGE ( 'NONE', *, *, #6, .T. ) ;
#96 = SURFACE_STYLE_USAGE ( .BOTH. , #348 ) ;
#97 = ADVANCED_FACE ( 'NONE', ( #188 ), #296, .T. ) ;
#98 = SPHERICAL_SURFACE ( 'NONE', #321, 0.09375000000000002776 ) ;
#99 = CIRCLE ( 'NONE', #250, 0.09375000000000002776 ) ;
#100 = FILL_AREA_STYLE ('',( #7 ) ) ;
#101 =( LENGTH_UNIT ( ) NAMED_UNIT ( * ) SI_UNIT ( $, .METRE. ) );
#102 = DIRECTION ( 'NONE',  ( -1.000000000000000000, -1.209567454625806063E-16, 0.000000000000000000 ) ) ;
#103 = DIRECTION ( 'NONE',  ( -0.000000000000000000, -1.000000000000000000, -0.000000000000000000 ) ) ;
#104 = AXIS2_PLACEMENT_3D ( 'NONE', #71, #5, #223 ) ;
#105 = CIRCLE ( 'NONE', #8, 0.09375000000000002776 ) ;
#106 = CARTESIAN_POINT ( 'NONE',  ( -5.740531871003217773E-18, -1.707404996040164512E-17, 0.000000000000000000 ) ) ;
#107 = DIMENSIONAL_EXPONENTS ( 1.000000000000000000, 0.000000000000000000, 0.000000000000000000, 0.000000000000000000, 0.000000000000000000, 0.000000000000000000, 0.000000000000000000 ) ;
#108 = DIRECTION ( 'NONE',  ( 1.000000000000000000, 0.000000000000000000, 0.000000000000000000 ) ) ;
#109 =( LENGTH_UNIT ( ) NAMED_UNIT ( * ) SI_UNIT ( $, .METRE. ) );
#110 = DIRECTION ( 'NONE',  ( -1.209567454625806063E-16, 1.000000000000000000, -0.000000000000000000 ) ) ;
#111 = AXIS2_PLACEMENT_3D ( 'NONE', #73, #46, #331 ) ;
#112 = SURFACE_STYLE_USAGE ( .BOTH. , #214 ) ;
#113 = ADVANCED_FACE ( 'NONE', ( #320 ), #297, .T. ) ;
#114 =( NAMED_UNIT ( * ) PLANE_ANGLE_UNIT ( ) SI_UNIT ( $, .RADIAN. ) );
#115 = EDGE_LOOP ( 'NONE', ( #252, #148, #23, #211 ) ) ;
#116 =( GEOMETRIC_REPRESENTATION_CONTEXT ( 3 ) GLOBAL_UNCERTAINTY_ASSIGNED_CONTEXT ( ( #171 ) ) GLOBAL_UNIT_ASSIGNED_CONTEXT ( ( #245, #44, #126 ) ) REPRESENTATION_CONTEXT ( 'NONE', 'WORKASPACE' ) );
#117 = COLOUR_RGB ( '',0.7921568627450980005, 0.8196078431372548767, 0.9333333333333333481 ) ;
#118 = ORIENTED_EDGE ( 'NONE', *, *, #230, .T. ) ;
#119 = DIRECTION ( 'NONE',  ( -0.000000000000000000, -1.000000000000000000, -0.000000000000000000 ) ) ;
#120 = FILL_AREA_STYLE ('',( #28 ) ) ;
#121 = LINE ( 'NONE', #346, #199 ) ;
#122 = LENGTH_MEASURE_WITH_UNIT ( LENGTH_MEASURE( 0.02539999999999999897 ), #287 );
#123 = ORIENTED_EDGE ( 'NONE', *, *, #131, .F. ) ;
#124 = AXIS2_PLACEMENT_3D ( 'NONE', #324, #156, #67 ) ;
#125 = AXIS2_PLACEMENT_3D ( 'NONE', #136, #249, #14 ) ;
#126 =( NAMED_UNIT ( * ) SI_UNIT ( $, .STERADIAN. ) SOLID_ANGLE_UNIT ( ) );
#127 =( LENGTH_UNIT ( ) NAMED_UNIT ( * ) SI_UNIT ( $, .METRE. ) );
#128 = PRESENTATION_LAYER_ASSIGNMENT (  '', '', ( #293 ) ) ;
#129 = ADVANCED_FACE ( 'NONE', ( #137 ), #51, .F. ) ;
#130 = DIRECTION ( 'NONE',  ( -1.000000000000000000, 0.000000000000000000, 0.000000000000000000 ) ) ;
#131 = EDGE_CURVE ( 'NONE', #263, #236, #18, .T. ) ;
#132 =( NAMED_UNIT ( * ) SI_UNIT ( $, .STERADIAN. ) SOLID_ANGLE_UNIT ( ) );
#133 = LENGTH_MEASURE_WITH_UNIT ( LENGTH_MEASURE( 0.02539999999999999897 ), #195 );
#134 =( GEOMETRIC_REPRESENTATION_CONTEXT ( 3 ) GLOBAL_UNCERTAINTY_ASSIGNED_CONTEXT ( ( #13 ) ) GLOBAL_UNIT_ASSIGNED_CONTEXT ( ( #242, #357, #10 ) ) REPRESENTATION_CONTEXT ( 'NONE', 'WORKASPACE' ) );
#135 = AXIS2_PLACEMENT_3D ( 'NONE', #196, #119, #339 ) ;
#136 = CARTESIAN_POINT ( 'NONE',  ( 0.000000000000000000, 0.4375000000000000000, 0.000000000000000000 ) ) ;
#137 = FACE_OUTER_BOUND ( 'NONE', #91, .T. ) ;
#138 = CARTESIAN_POINT ( 'NONE',  ( 0.000000000000000000, 0.4375000000000000000, 0.000000000000000000 ) ) ;
#139 = APPLICATION_PROTOCOL_DEFINITION ( 'draft international standard', 'automotive_design', 1998, #202 ) ;
#140 = CARTESIAN_POINT ( 'NONE',  ( 0.09374999999999995837, 2.000000000000000000, 0.000000000000000000 ) ) ;
#141 = AXIS2_PLACEMENT_3D ( 'NONE', #40, #9, #130 ) ;
#142 = EDGE_CURVE ( 'NONE', #256, #144, #317, .T. ) ;
#143 = CARTESIAN_POINT ( 'NONE',  ( 1.148106374200643247E-17, 0.4375000000000000000, 0.09374999999999995837 ) ) ;
#144 = VERTEX_POINT ( 'NONE', #106 ) ;
#145 = ADVANCED_FACE ( 'NONE', ( #193 ), #251, .T. ) ;
#146 = AXIS2_PLACEMENT_3D ( 'NONE', #80, #201, #53 ) ;
#147 =( CONVERSION_BASED_UNIT ( 'INCH', #77 ) LENGTH_UNIT ( ) NAMED_UNIT ( #107 ) );
#148 = ORIENTED_EDGE ( 'NONE', *, *, #142, .T. ) ;
#149 = DIRECTION ( 'NONE',  ( -1.000000000000000000, 0.000000000000000000, 0.000000000000000000 ) ) ;
#150 = CARTESIAN_POINT ( 'NONE',  ( 0.000000000000000000, 0.09375000000000002776, 0.000000000000000000 ) ) ;
#151 = UNCERTAINTY_MEASURE_WITH_UNIT (LENGTH_MEASURE( 1.000000000000000082E-05 ), #240, 'distance_accuracy_value', 'NONE');
#152 = FILL_AREA_STYLE_COLOUR ( '', #15 ) ;
#153 = PRODUCT_DEFINITION_CONTEXT ( 'detailed design', #222, 'design' ) ;
#154 = DIRECTION ( 'NONE',  ( -0.000000000000000000, -1.000000000000000000, -0.000000000000000000 ) ) ;
#155 = AXIS2_PLACEMENT_3D ( 'NONE', #90, #239, #349 ) ;
#156 = DIRECTION ( 'NONE',  ( 0.000000000000000000, 0.000000000000000000, -1.000000000000000000 ) ) ;
#157 = PLANE ( 'NONE',  #221 ) ;
#158 = COLOUR_RGB ( '',1.000000000000000000, 0.000000000000000000, 0.000000000000000000 ) ;
#159 =( CONVERSION_BASED_UNIT ( 'INCH', #224 ) LENGTH_UNIT ( ) NAMED_UNIT ( #85 ) );
#160 = EDGE_CURVE ( 'NONE', #366, #313, #274, .T. ) ;
#161 = VERTEX_POINT ( 'NONE', #336 ) ;
#162 = DIRECTION ( 'NONE',  ( 0.000000000000000000, 0.000000000000000000, -1.000000000000000000 ) ) ;
#163 = CARTESIAN_POINT ( 'NONE',  ( -0.09374999999999944489, 0.4374999999999998890, 0.000000000000000000 ) ) ;
#164 = CIRCLE ( 'NONE', #259, 0.09374999999999988898 ) ;
#165 = STYLED_ITEM ( 'NONE', ( #276 ), #113 ) ;
#166 =( LENGTH_UNIT ( ) NAMED_UNIT ( * ) SI_UNIT ( $, .METRE. ) );
#167 = DIRECTION ( 'NONE',  ( -0.000000000000000000, -1.000000000000000000, -0.000000000000000000 ) ) ;
#168 =( NAMED_UNIT ( * ) PLANE_ANGLE_UNIT ( ) SI_UNIT ( $, .RADIAN. ) );
#169 = SURFACE_SIDE_STYLE ('',( #203 ) ) ;
#170 = ORIENTED_EDGE ( 'NONE', *, *, #63, .T. ) ;
#171 = UNCERTAINTY_MEASURE_WITH_UNIT (LENGTH_MEASURE( 1.000000000000000082E-05 ), #245, 'distance_accuracy_value', 'NONE');
#172 = MECHANICAL_DESIGN_GEOMETRIC_PRESENTATION_REPRESENTATION (  '', ( #246 ), #207 ) ;
#173 = MANIFOLD_SOLID_BREP ( 'Revolve - Cutting Edge', #316 ) ;
#174 = CARTESIAN_POINT ( 'NONE',  ( -0.09375000000000002776, 0.09375000000000002776, 1.148106374200643863E-17 ) ) ;
#175 = ORIENTED_EDGE ( 'NONE', *, *, #189, .F. ) ;
#176 = EDGE_CURVE ( 'NONE', #213, #161, #344, .T. ) ;
#177 = MANIFOLD_SOLID_BREP ( 'Revolve - Tool Body (Straight Shanked)', #36 ) ;
#178 = FILL_AREA_STYLE ('',( #306 ) ) ;
#179 = STYLED_ITEM ( 'NONE', ( #362 ), #173 ) ;
#180 = SURFACE_STYLE_FILL_AREA ( #372 ) ;
#181 = UNCERTAINTY_MEASURE_WITH_UNIT (LENGTH_MEASURE( 1.000000000000000082E-05 ), #147, 'distance_accuracy_value', 'NONE');
#182 = ORIENTED_EDGE ( 'NONE', *, *, #183, .F. ) ;
#183 = EDGE_CURVE ( 'NONE', #343, #340, #121, .T. ) ;
#184 = LINE ( 'NONE', #70, #355 ) ;
#185 = CARTESIAN_POINT ( 'NONE',  ( -1.148106374200643863E-17, 0.09375000000000001388, 0.000000000000000000 ) ) ;
#186 = VECTOR ( 'NONE', #103, 39.37007874015748143 ) ;
#187 = AXIS2_PLACEMENT_3D ( 'NONE', #52, #79, #162 ) ;
#188 = FACE_OUTER_BOUND ( 'NONE', #54, .T. ) ;
#189 = EDGE_CURVE ( 'NONE', #59, #256, #105, .T. ) ;
#190 = DIRECTION ( 'NONE',  ( -1.209567454625806063E-16, 1.000000000000000000, -0.000000000000000000 ) ) ;
#191 = PRESENTATION_LAYER_ASSIGNMENT (  '', '', ( #350 ) ) ;
#192 = FACE_OUTER_BOUND ( 'NONE', #205, .T. ) ;
#193 = FACE_OUTER_BOUND ( 'NONE', #282, .T. ) ;
#194 = CARTESIAN_POINT ( 'NONE',  ( 0.000000000000000000, 0.000000000000000000, 0.000000000000000000 ) ) ;
#195 =( LENGTH_UNIT ( ) NAMED_UNIT ( * ) SI_UNIT ( $, .METRE. ) );
#196 = CARTESIAN_POINT ( 'NONE',  ( 0.000000000000000000, 0.09375000000000002776, 0.000000000000000000 ) ) ;
#197 = CARTESIAN_POINT ( 'NONE',  ( -0.09374999999999981959, 2.000000000000000000, 0.000000000000000000 ) ) ;
#198 = LENGTH_MEASURE_WITH_UNIT ( LENGTH_MEASURE( 0.02539999999999999897 ), #166 );
#199 = VECTOR ( 'NONE', #58, 39.37007874015748143 ) ;
#200 =( GEOMETRIC_REPRESENTATION_CONTEXT ( 3 ) GLOBAL_UNCERTAINTY_ASSIGNED_CONTEXT ( ( #181 ) ) GLOBAL_UNIT_ASSIGNED_CONTEXT ( ( #147, #168, #132 ) ) REPRESENTATION_CONTEXT ( 'NONE', 'WORKASPACE' ) );
#201 = DIRECTION ( 'NONE',  ( 1.224646799147353207E-16, -0.000000000000000000, 1.000000000000000000 ) ) ;
#202 = APPLICATION_CONTEXT ( 'automotive_design' ) ;
#203 = SURFACE_STYLE_FILL_AREA ( #328 ) ;
#204 = CARTESIAN_POINT ( 'NONE',  ( 0.000000000000000000, 0.09375000000000002776, 0.000000000000000000 ) ) ;
#205 = EDGE_LOOP ( 'NONE', ( #217, #118, #369, #61, #175 ) ) ;
#206 = DIRECTION ( 'NONE',  ( -0.000000000000000000, -1.000000000000000000, -0.000000000000000000 ) ) ;
#207 =( GEOMETRIC_REPRESENTATION_CONTEXT ( 3 ) GLOBAL_UNCERTAINTY_ASSIGNED_CONTEXT ( ( #21 ) ) GLOBAL_UNIT_ASSIGNED_CONTEXT ( ( #233, #341, #22 ) ) REPRESENTATION_CONTEXT ( 'NONE', 'WORKASPACE' ) );
#208 = PRODUCT ( '84756', '84756', '', ( #312 ) ) ;
#209 = ORIENTED_EDGE ( 'NONE', *, *, #230, .F. ) ;
#210 = LINE ( 'NONE', #34, #186 ) ;
#211 = ORIENTED_EDGE ( 'NONE', *, *, #314, .T. ) ;
#212 = CARTESIAN_POINT ( 'NONE',  ( 0.000000000000000000, 0.09375000000000002776, -0.09375000000000002776 ) ) ;
#213 = VERTEX_POINT ( 'NONE', #212 ) ;
#214 = SURFACE_SIDE_STYLE ('',( #283 ) ) ;
#215 = PRESENTATION_LAYER_ASSIGNMENT (  '', '', ( #365 ) ) ;
#216 = FACE_OUTER_BOUND ( 'NONE', #281, .T. ) ;
#217 = ORIENTED_EDGE ( 'NONE', *, *, #86, .F. ) ;
#218 = CARTESIAN_POINT ( 'NONE',  ( 6.123233995736766036E-17, 2.000000000000000000, 0.000000000000000000 ) ) ;
#219 = EDGE_CURVE ( 'NONE', #263, #343, #309, .T. ) ;
#220 = DIRECTION ( 'NONE',  ( -1.000000000000000000, 0.000000000000000000, 0.000000000000000000 ) ) ;
#221 = AXIS2_PLACEMENT_3D ( 'NONE', #323, #358, #102 ) ;
#222 = APPLICATION_CONTEXT ( 'automotive_design' ) ;
#223 = DIRECTION ( 'NONE',  ( -1.000000000000000000, 0.000000000000000000, 0.000000000000000000 ) ) ;
#224 = LENGTH_MEASURE_WITH_UNIT ( LENGTH_MEASURE( 0.02539999999999999897 ), #101 );
#225 = UNCERTAINTY_MEASURE_WITH_UNIT (LENGTH_MEASURE( 1.000000000000000082E-05 ), #49, 'distance_accuracy_value', 'NONE');
#226 = CARTESIAN_POINT ( 'NONE',  ( 0.09374999999999984734, 2.000000000000000000, 1.148106374200640935E-17 ) ) ;
#227 = CIRCLE ( 'NONE', #155, 0.09374999999999969469 ) ;
#228 = DIRECTION ( 'NONE',  ( -1.000000000000000000, 0.000000000000000000, 0.000000000000000000 ) ) ;
#229 = ORIENTED_EDGE ( 'NONE', *, *, #338, .F. ) ;
#230 = EDGE_CURVE ( 'NONE', #313, #366, #37, .T. ) ;
#231 = ORIENTED_EDGE ( 'NONE', *, *, #142, .F. ) ;
#232 = MECHANICAL_DESIGN_GEOMETRIC_PRESENTATION_REPRESENTATION (  '', ( #165 ), #285 ) ;
#233 =( CONVERSION_BASED_UNIT ( 'INCH', #32 ) LENGTH_UNIT ( ) NAMED_UNIT ( #55 ) );
#234 =( GEOMETRIC_REPRESENTATION_CONTEXT ( 3 ) GLOBAL_UNCERTAINTY_ASSIGNED_CONTEXT ( ( #94 ) ) GLOBAL_UNIT_ASSIGNED_CONTEXT ( ( #159, #272, #373 ) ) REPRESENTATION_CONTEXT ( 'NONE', 'WORKASPACE' ) );
#235 = DIMENSIONAL_EXPONENTS ( 1.000000000000000000, 0.000000000000000000, 0.000000000000000000, 0.000000000000000000, 0.000000000000000000, 0.000000000000000000, 0.000000000000000000 ) ;
#236 = VERTEX_POINT ( 'NONE', #84 ) ;
#237 = DIRECTION ( 'NONE',  ( 0.000000000000000000, 0.000000000000000000, 1.000000000000000000 ) ) ;
#238 = SURFACE_STYLE_FILL_AREA ( #120 ) ;
#239 = DIRECTION ( 'NONE',  ( -1.209567454625806063E-16, 1.000000000000000000, -0.000000000000000000 ) ) ;
#240 =( CONVERSION_BASED_UNIT ( 'INCH', #122 ) LENGTH_UNIT ( ) NAMED_UNIT ( #255 ) );
#241 = SURFACE_STYLE_USAGE ( .BOTH. , #4 ) ;
#242 =( CONVERSION_BASED_UNIT ( 'INCH', #133 ) LENGTH_UNIT ( ) NAMED_UNIT ( #235 ) );
#243 = DIRECTION ( 'NONE',  ( -0.000000000000000000, -1.000000000000000000, -0.000000000000000000 ) ) ;
#244 = DIRECTION ( 'NONE',  ( 0.000000000000000000, 0.000000000000000000, -1.000000000000000000 ) ) ;
#245 =( CONVERSION_BASED_UNIT ( 'INCH', #294 ) LENGTH_UNIT ( ) NAMED_UNIT ( #12 ) );
#246 = STYLED_ITEM ( 'NONE', ( #30 ), #177 ) ;
#247 = FILL_AREA_STYLE_COLOUR ( '', #303 ) ;
#248 = DIRECTION ( 'NONE',  ( 0.000000000000000000, 0.000000000000000000, 1.000000000000000000 ) ) ;
#249 = DIRECTION ( 'NONE',  ( 0.000000000000000000, 1.000000000000000000, 0.000000000000000000 ) ) ;
#250 = AXIS2_PLACEMENT_3D ( 'NONE', #204, #257, #367 ) ;
#251 = CYLINDRICAL_SURFACE ( 'NONE', #19, 0.09374999999999979183 ) ;
#252 = ORIENTED_EDGE ( 'NONE', *, *, #189, .T. ) ;
#253 =( NAMED_UNIT ( * ) PLANE_ANGLE_UNIT ( ) SI_UNIT ( $, .RADIAN. ) );
#254 = ORIENTED_EDGE ( 'NONE', *, *, #290, .T. ) ;
#255 = DIMENSIONAL_EXPONENTS ( 1.000000000000000000, 0.000000000000000000, 0.000000000000000000, 0.000000000000000000, 0.000000000000000000, 0.000000000000000000, 0.000000000000000000 ) ;
#256 = VERTEX_POINT ( 'NONE', #174 ) ;
#257 = DIRECTION ( 'NONE',  ( -0.000000000000000000, -1.000000000000000000, -0.000000000000000000 ) ) ;
#258 = ORIENTED_EDGE ( 'NONE', *, *, #176, .T. ) ;
#259 = AXIS2_PLACEMENT_3D ( 'NONE', #218, #190, #220 ) ;
#260 = AXIS2_PLACEMENT_3D ( 'NONE', #87, #206, #310 ) ;
#261 = ORIENTED_EDGE ( 'NONE', *, *, #160, .F. ) ;
#262 = CARTESIAN_POINT ( 'NONE',  ( 0.09374999999999994449, 0.4374999999999998890, 1.148106374200641552E-17 ) ) ;
#263 = VERTEX_POINT ( 'NONE', #262 ) ;
#264 = FACE_OUTER_BOUND ( 'NONE', #371, .T. ) ;
#265 = ORIENTED_EDGE ( 'NONE', *, *, #314, .F. ) ;
#266 = SURFACE_STYLE_FILL_AREA ( #1 ) ;
#267 = CIRCLE ( 'NONE', #104, 0.09374999999999988898 ) ;
#268 = DIRECTION ( 'NONE',  ( 0.000000000000000000, 0.000000000000000000, -1.000000000000000000 ) ) ;
#269 = FACE_OUTER_BOUND ( 'NONE', #115, .T. ) ;
#270 = DIRECTION ( 'NONE',  ( -0.000000000000000000, -1.000000000000000000, -0.000000000000000000 ) ) ;
#271 = FACE_OUTER_BOUND ( 'NONE', #311, .T. ) ;
#272 =( NAMED_UNIT ( * ) PLANE_ANGLE_UNIT ( ) SI_UNIT ( $, .RADIAN. ) );
#273 = MECHANICAL_DESIGN_GEOMETRIC_PRESENTATION_REPRESENTATION (  '', ( #88 ), #116 ) ;
#274 = CIRCLE ( 'NONE', #75, 0.09374999999999995837 ) ;
#275 = SHAPE_DEFINITION_REPRESENTATION ( #360, #326 ) ;
#276 = PRESENTATION_STYLE_ASSIGNMENT (( #305 ) ) ;
#277 = FILL_AREA_STYLE_COLOUR ( '', #117 ) ;
#278 = CIRCLE ( 'NONE', #124, 0.09375000000000002776 ) ;
#279 = PRESENTATION_LAYER_ASSIGNMENT (  '', '', ( #246 ) ) ;
#280 = DIRECTION ( 'NONE',  ( -1.209567454625806063E-16, 1.000000000000000000, -0.000000000000000000 ) ) ;
#281 = EDGE_LOOP ( 'NONE', ( #347, #315, #265, #352, #229 ) ) ;
#282 = EDGE_LOOP ( 'NONE', ( #254, #2, #62, #182 ) ) ;
#283 = SURFACE_STYLE_FILL_AREA ( #178 ) ;
#284 = CYLINDRICAL_SURFACE ( 'NONE', #42, 0.09374999999999998612 ) ;
#285 =( GEOMETRIC_REPRESENTATION_CONTEXT ( 3 ) GLOBAL_UNCERTAINTY_ASSIGNED_CONTEXT ( ( #225 ) ) GLOBAL_UNIT_ASSIGNED_CONTEXT ( ( #49, #253, #76 ) ) REPRESENTATION_CONTEXT ( 'NONE', 'WORKASPACE' ) );
#286 = SURFACE_SIDE_STYLE ('',( #180 ) ) ;
#287 =( LENGTH_UNIT ( ) NAMED_UNIT ( * ) SI_UNIT ( $, .METRE. ) );
#288 =( NAMED_UNIT ( * ) PLANE_ANGLE_UNIT ( ) SI_UNIT ( $, .RADIAN. ) );
#289 = SPHERICAL_SURFACE ( 'NONE', #111, 0.09375000000000002776 ) ;
#290 = EDGE_CURVE ( 'NONE', #343, #263, #227, .T. ) ;
#291 = FILL_AREA_STYLE ('',( #247 ) ) ;
#292 = COLOUR_RGB ( '',1.000000000000000000, 0.000000000000000000, 0.000000000000000000 ) ;
#293 = STYLED_ITEM ( 'NONE', ( #27 ), #332 ) ;
#294 = LENGTH_MEASURE_WITH_UNIT ( LENGTH_MEASURE( 0.02539999999999999897 ), #127 );
#295 = AXIS2_PLACEMENT_3D ( 'NONE', #194, #237, #108 ) ;
#296 = CYLINDRICAL_SURFACE ( 'NONE', #141, 0.09374999999999979183 ) ;
#297 = PLANE ( 'NONE',  #125 ) ;
#298 =( GEOMETRIC_REPRESENTATION_CONTEXT ( 3 ) GLOBAL_UNCERTAINTY_ASSIGNED_CONTEXT ( ( #300 ) ) GLOBAL_UNIT_ASSIGNED_CONTEXT ( ( #302, #114, #25 ) ) REPRESENTATION_CONTEXT ( 'NONE', 'WORKASPACE' ) );
#299 = CARTESIAN_POINT ( 'NONE',  ( 6.123233995736766036E-17, 2.000000000000000000, 0.000000000000000000 ) ) ;
#300 = UNCERTAINTY_MEASURE_WITH_UNIT (LENGTH_MEASURE( 1.000000000000000082E-05 ), #302, 'distance_accuracy_value', 'NONE');
#301 = CYLINDRICAL_SURFACE ( 'NONE', #187, 0.09374999999999998612 ) ;
#302 =( CONVERSION_BASED_UNIT ( 'INCH', #334 ) LENGTH_UNIT ( ) NAMED_UNIT ( #342 ) );
#303 = COLOUR_RGB ( '',1.000000000000000000, 0.000000000000000000, 0.000000000000000000 ) ;
#304 =( LENGTH_UNIT ( ) NAMED_UNIT ( * ) SI_UNIT ( $, .METRE. ) );
#305 = SURFACE_STYLE_USAGE ( .BOTH. , #47 ) ;
#306 = FILL_AREA_STYLE_COLOUR ( '', #361 ) ;
#307 = EDGE_LOOP ( 'NONE', ( #261, #209 ) ) ;
#308 = PRESENTATION_LAYER_ASSIGNMENT (  '', '', ( #88 ) ) ;
#309 = CIRCLE ( 'NONE', #81, 0.09374999999999969469 ) ;
#310 = DIRECTION ( 'NONE',  ( 0.000000000000000000, 0.000000000000000000, -1.000000000000000000 ) ) ;
#311 = EDGE_LOOP ( 'NONE', ( #33, #26 ) ) ;
#312 = PRODUCT_CONTEXT ( 'NONE', #202, 'mechanical' ) ;
#313 = VERTEX_POINT ( 'NONE', #143 ) ;
#314 = EDGE_CURVE ( 'NONE', #161, #59, #99, .T. ) ;
#315 = ORIENTED_EDGE ( 'NONE', *, *, #86, .T. ) ;
#316 = CLOSED_SHELL ( 'NONE', ( #39, #3, #113, #345, #332 ) ) ;
#317 = CIRCLE ( 'NONE', #146, 0.09375000000000002776 ) ;
#318 =( LENGTH_UNIT ( ) NAMED_UNIT ( * ) SI_UNIT ( $, .METRE. ) );
#319 = PRESENTATION_STYLE_ASSIGNMENT (( #96 ) ) ;
#320 = FACE_OUTER_BOUND ( 'NONE', #307, .T. ) ;
#321 = AXIS2_PLACEMENT_3D ( 'NONE', #185, #248, #353 ) ;
#322 = PRESENTATION_LAYER_ASSIGNMENT (  '', '', ( #179 ) ) ;
#323 = CARTESIAN_POINT ( 'NONE',  ( 2.502272547426498346E-16, 0.4375000000000000000, 0.000000000000000000 ) ) ;
#324 = CARTESIAN_POINT ( 'NONE',  ( -1.148106374200643863E-17, 0.09375000000000001388, 0.000000000000000000 ) ) ;
#325 = PRODUCT_RELATED_PRODUCT_CATEGORY ( 'part', '', ( #208 ) ) ;
#326 = ADVANCED_BREP_SHAPE_REPRESENTATION ( '84756', ( #173, #177, #295 ), #200 ) ;
#327 = SURFACE_SIDE_STYLE ('',( #356 ) ) ;
#328 = FILL_AREA_STYLE ('',( #277 ) ) ;
#329 = AXIS2_PLACEMENT_3D ( 'NONE', #354, #270, #268 ) ;
#330 = AXIS2_PLACEMENT_3D ( 'NONE', #140, #78, #359 ) ;
#331 = DIRECTION ( 'NONE',  ( 1.000000000000000000, 0.000000000000000000, 0.000000000000000000 ) ) ;
#332 = ADVANCED_FACE ( 'NONE', ( #264 ), #289, .T. ) ;
#333 = DIRECTION ( 'NONE',  ( 0.000000000000000000, 0.000000000000000000, -1.000000000000000000 ) ) ;
#334 = LENGTH_MEASURE_WITH_UNIT ( LENGTH_MEASURE( 0.02539999999999999897 ), #109 );
#335 = MECHANICAL_DESIGN_GEOMETRIC_PRESENTATION_REPRESENTATION (  '', ( #293 ), #134 ) ;
#336 = CARTESIAN_POINT ( 'NONE',  ( 0.09375000000000002776, 0.09375000000000002776, 0.000000000000000000 ) ) ;
#337 = ORIENTED_EDGE ( 'NONE', *, *, #17, .T. ) ;
#338 = EDGE_CURVE ( 'NONE', #366, #213, #210, .T. ) ;
#339 = DIRECTION ( 'NONE',  ( 0.000000000000000000, 0.000000000000000000, -1.000000000000000000 ) ) ;
#340 = VERTEX_POINT ( 'NONE', #197 ) ;
#341 =( NAMED_UNIT ( * ) PLANE_ANGLE_UNIT ( ) SI_UNIT ( $, .RADIAN. ) );
#342 = DIMENSIONAL_EXPONENTS ( 1.000000000000000000, 0.000000000000000000, 0.000000000000000000, 0.000000000000000000, 0.000000000000000000, 0.000000000000000000, 0.000000000000000000 ) ;
#343 = VERTEX_POINT ( 'NONE', #163 ) ;
#344 = CIRCLE ( 'NONE', #135, 0.09375000000000002776 ) ;
#345 = ADVANCED_FACE ( 'NONE', ( #192 ), #301, .T. ) ;
#346 = CARTESIAN_POINT ( 'NONE',  ( -0.09374999999999972244, 2.000000000000000000, 0.000000000000000000 ) ) ;
#347 = ORIENTED_EDGE ( 'NONE', *, *, #160, .T. ) ;
#348 = SURFACE_SIDE_STYLE ('',( #238 ) ) ;
#349 = DIRECTION ( 'NONE',  ( -1.000000000000000000, 0.000000000000000000, 0.000000000000000000 ) ) ;
#350 = STYLED_ITEM ( 'NONE', ( #319 ), #3 ) ;
#351 = PRESENTATION_STYLE_ASSIGNMENT (( #241 ) ) ;
#352 = ORIENTED_EDGE ( 'NONE', *, *, #176, .F. ) ;
#353 = DIRECTION ( 'NONE',  ( 1.000000000000000000, 0.000000000000000000, 0.000000000000000000 ) ) ;
#354 = CARTESIAN_POINT ( 'NONE',  ( 0.000000000000000000, 0.09375000000000002776, 0.000000000000000000 ) ) ;
#355 = VECTOR ( 'NONE', #154, 39.37007874015748143 ) ;
#356 = SURFACE_STYLE_FILL_AREA ( #100 ) ;
#357 =( NAMED_UNIT ( * ) PLANE_ANGLE_UNIT ( ) SI_UNIT ( $, .RADIAN. ) );
#358 = DIRECTION ( 'NONE',  ( -1.209567454625806063E-16, 1.000000000000000000, 0.000000000000000000 ) ) ;
#359 = DIRECTION ( 'NONE',  ( 1.000000000000000000, 1.209567454625806063E-16, 0.000000000000000000 ) ) ;
#360 = PRODUCT_DEFINITION_SHAPE ( 'NONE', 'NONE',  #45 ) ;
#361 = COLOUR_RGB ( '',1.000000000000000000, 0.000000000000000000, 0.000000000000000000 ) ;
#362 = PRESENTATION_STYLE_ASSIGNMENT (( #82 ) ) ;
#363 = MECHANICAL_DESIGN_GEOMETRIC_PRESENTATION_REPRESENTATION (  '', ( #350 ), #68 ) ;
#364 = ORIENTED_EDGE ( 'NONE', *, *, #183, .T. ) ;
#365 = STYLED_ITEM ( 'NONE', ( #351 ), #345 ) ;
#366 = VERTEX_POINT ( 'NONE', #368 ) ;
#367 = DIRECTION ( 'NONE',  ( 0.000000000000000000, 0.000000000000000000, -1.000000000000000000 ) ) ;
#368 = CARTESIAN_POINT ( 'NONE',  ( 0.000000000000000000, 0.4375000000000000000, -0.09374999999999995837 ) ) ;
#369 = ORIENTED_EDGE ( 'NONE', *, *, #338, .T. ) ;
#370 = VECTOR ( 'NONE', #11, 39.37007874015748143 ) ;
#371 = EDGE_LOOP ( 'NONE', ( #231, #95, #258, #337 ) ) ;
#372 = FILL_AREA_STYLE ('',( #56 ) ) ;
#373 =( NAMED_UNIT ( * ) SI_UNIT ( $, .STERADIAN. ) SOLID_ANGLE_UNIT ( ) );
ENDSEC;
END-ISO-10303-21;
