ISO-10303-21;
HEADER;
FILE_DESCRIPTION (( 'STEP AP214' ),
    '1' );
FILE_NAME ('48455.STEP',
    '2023-06-22T21:37:19',
    ( '' ),
    ( '' ),
    'SwSTEP 2.0',
    'SolidWorks 2023',
    '' );
FILE_SCHEMA (( 'AUTOMOTIVE_DESIGN' ));
ENDSEC;

DATA;
#1 = EDGE_CURVE ( 'NONE', #98, #208, #149, .T. ) ;
#2 = PLANE ( 'NONE',  #85 ) ;
#3 =( GEOMETRIC_REPRESENTATION_CONTEXT ( 3 ) GLOBAL_UNCERTAINTY_ASSIGNED_CONTEXT ( ( #93 ) ) GLOBAL_UNIT_ASSIGNED_CONTEXT ( ( #297, #212, #300 ) ) REPRESENTATION_CONTEXT ( 'NONE', 'WORKASPACE' ) );
#4 = EDGE_CURVE ( 'NONE', #293, #269, #173, .T. ) ;
#5 = CARTESIAN_POINT ( 'NONE',  ( 1.516480271171051896E-32, 2.000000000000000000, 0.000000000000000000 ) ) ;
#6 = CARTESIAN_POINT ( 'NONE',  ( 0.000000000000000000, 2.000000000000000000, 0.000000000000000000 ) ) ;
#7 = ORIENTED_EDGE ( 'NONE', *, *, #140, .F. ) ;
#8 =( GEOMETRIC_REPRESENTATION_CONTEXT ( 3 ) GLOBAL_UNCERTAINTY_ASSIGNED_CONTEXT ( ( #247 ) ) GLOBAL_UNIT_ASSIGNED_CONTEXT ( ( #90, #44, #16 ) ) REPRESENTATION_CONTEXT ( 'NONE', 'WORKASPACE' ) );
#9 = ORIENTED_EDGE ( 'NONE', *, *, #48, .T. ) ;
#10 = SURFACE_SIDE_STYLE ('',( #180 ) ) ;
#11 = ORIENTED_EDGE ( 'NONE', *, *, #24, .F. ) ;
#12 = CARTESIAN_POINT ( 'NONE',  ( 0.2500000000000000555, 4.000000000000000000, 0.000000000000000000 ) ) ;
#13 = AXIS2_PLACEMENT_3D ( 'NONE', #226, #165, #270 ) ;
#14 = DIRECTION ( 'NONE',  ( -0.000000000000000000, -1.000000000000000000, -0.000000000000000000 ) ) ;
#15 = DIRECTION ( 'NONE',  ( 1.000000000000000000, 6.123233995736763571E-17, 0.000000000000000000 ) ) ;
#16 =( NAMED_UNIT ( * ) SI_UNIT ( $, .STERADIAN. ) SOLID_ANGLE_UNIT ( ) );
#17 =( CONVERSION_BASED_UNIT ( 'INCH', #129 ) LENGTH_UNIT ( ) NAMED_UNIT ( #194 ) );
#18 = DIRECTION ( 'NONE',  ( 6.123233995736763571E-17, -1.000000000000000000, 0.000000000000000000 ) ) ;
#19 = DIRECTION ( 'NONE',  ( 0.000000000000000000, -0.000000000000000000, 1.000000000000000000 ) ) ;
#20 = PRESENTATION_LAYER_ASSIGNMENT (  '', '', ( #80 ) ) ;
#21 = COLOUR_RGB ( '',0.7921568627450980005, 0.8196078431372548767, 0.9333333333333333481 ) ;
#22 = SURFACE_SIDE_STYLE ('',( #114 ) ) ;
#23 = AXIS2_PLACEMENT_3D ( 'NONE', #100, #268, #32 ) ;
#24 = EDGE_CURVE ( 'NONE', #225, #98, #182, .T. ) ;
#25 = VECTOR ( 'NONE', #160, 39.37007874015748143 ) ;
#26 = DIRECTION ( 'NONE',  ( -6.123233995736763571E-17, 1.000000000000000000, -0.000000000000000000 ) ) ;
#27 = UNCERTAINTY_MEASURE_WITH_UNIT (LENGTH_MEASURE( 1.000000000000000082E-05 ), #17, 'distance_accuracy_value', 'NONE');
#28 =( CONVERSION_BASED_UNIT ( 'INCH', #52 ) LENGTH_UNIT ( ) NAMED_UNIT ( #189 ) );
#29 = ORIENTED_EDGE ( 'NONE', *, *, #105, .T. ) ;
#30 =( CONVERSION_BASED_UNIT ( 'INCH', #195 ) LENGTH_UNIT ( ) NAMED_UNIT ( #79 ) );
#31 = ORIENTED_EDGE ( 'NONE', *, *, #4, .T. ) ;
#32 = DIRECTION ( 'NONE',  ( -1.000000000000000000, 0.000000000000000000, 0.000000000000000000 ) ) ;
#33 = ORIENTED_EDGE ( 'NONE', *, *, #111, .F. ) ;
#34 = CARTESIAN_POINT ( 'NONE',  ( 0.000000000000000000, 0.000000000000000000, -0.2500000000000000000 ) ) ;
#35 = MECHANICAL_DESIGN_GEOMETRIC_PRESENTATION_REPRESENTATION (  '', ( #299 ), #164 ) ;
#36 = ORIENTED_EDGE ( 'NONE', *, *, #105, .F. ) ;
#37 =( NAMED_UNIT ( * ) PLANE_ANGLE_UNIT ( ) SI_UNIT ( $, .RADIAN. ) );
#38 = ADVANCED_FACE ( 'NONE', ( #135 ), #40, .T. ) ;
#39 = LENGTH_MEASURE_WITH_UNIT ( LENGTH_MEASURE( 0.02539999999999999897 ), #86 );
#40 = CYLINDRICAL_SURFACE ( 'NONE', #201, 0.2500000000000000000 ) ;
#41 =( LENGTH_UNIT ( ) NAMED_UNIT ( * ) SI_UNIT ( $, .METRE. ) );
#42 = SURFACE_STYLE_USAGE ( .BOTH. , #10 ) ;
#43 = CARTESIAN_POINT ( 'NONE',  ( 0.2499999999999999167, 4.000000000000000000, 3.061616997868383634E-17 ) ) ;
#44 =( NAMED_UNIT ( * ) PLANE_ANGLE_UNIT ( ) SI_UNIT ( $, .RADIAN. ) );
#45 = CYLINDRICAL_SURFACE ( 'NONE', #107, 0.2500000000000000000 ) ;
#46 = AXIS2_PLACEMENT_3D ( 'NONE', #65, #272, #153 ) ;
#47 = CARTESIAN_POINT ( 'NONE',  ( 4.686749320818300748E-34, 2.000000000000000000, 0.000000000000000000 ) ) ;
#48 = EDGE_CURVE ( 'NONE', #124, #252, #242, .T. ) ;
#49 = FILL_AREA_STYLE ('',( #288 ) ) ;
#50 = AXIS2_PLACEMENT_3D ( 'NONE', #120, #229, #265 ) ;
#51 = SURFACE_STYLE_FILL_AREA ( #97 ) ;
#52 = LENGTH_MEASURE_WITH_UNIT ( LENGTH_MEASURE( 0.02539999999999999897 ), #123 );
#53 = EDGE_LOOP ( 'NONE', ( #29, #9, #7, #231 ) ) ;
#54 = DIMENSIONAL_EXPONENTS ( 1.000000000000000000, 0.000000000000000000, 0.000000000000000000, 0.000000000000000000, 0.000000000000000000, 0.000000000000000000, 0.000000000000000000 ) ;
#55 = ORIENTED_EDGE ( 'NONE', *, *, #1, .F. ) ;
#56 = EDGE_CURVE ( 'NONE', #124, #293, #224, .T. ) ;
#57 = EDGE_LOOP ( 'NONE', ( #148, #122, #168, #104 ) ) ;
#58 = FILL_AREA_STYLE_COLOUR ( '', #264 ) ;
#59 = DIRECTION ( 'NONE',  ( -0.000000000000000000, -1.000000000000000000, -0.000000000000000000 ) ) ;
#60 = COLOUR_RGB ( '',1.000000000000000000, 0.000000000000000000, 0.000000000000000000 ) ;
#61 = FILL_AREA_STYLE ('',( #257 ) ) ;
#62 = DIRECTION ( 'NONE',  ( -1.000000000000000000, 0.000000000000000000, 0.000000000000000000 ) ) ;
#63 = ADVANCED_FACE ( 'NONE', ( #157 ), #210, .T. ) ;
#64 = FILL_AREA_STYLE_COLOUR ( '', #291 ) ;
#65 = CARTESIAN_POINT ( 'NONE',  ( 0.000000000000000000, 0.000000000000000000, 0.000000000000000000 ) ) ;
#66 = STYLED_ITEM ( 'NONE', ( #301 ), #84 ) ;
#67 = AXIS2_PLACEMENT_3D ( 'NONE', #5, #205, #145 ) ;
#68 = DIRECTION ( 'NONE',  ( -0.000000000000000000, -1.000000000000000000, -0.000000000000000000 ) ) ;
#69 = FACE_OUTER_BOUND ( 'NONE', #139, .T. ) ;
#70 = SURFACE_STYLE_FILL_AREA ( #238 ) ;
#71 = DIRECTION ( 'NONE',  ( 0.000000000000000000, 1.000000000000000000, 0.000000000000000000 ) ) ;
#72 = APPLICATION_CONTEXT ( 'automotive_design' ) ;
#73 = PRESENTATION_LAYER_ASSIGNMENT (  '', '', ( #96 ) ) ;
#74 = SURFACE_STYLE_USAGE ( .BOTH. , #22 ) ;
#75 = LENGTH_MEASURE_WITH_UNIT ( LENGTH_MEASURE( 0.02539999999999999897 ), #116 );
#76 = PRESENTATION_LAYER_ASSIGNMENT (  '', '', ( #299 ) ) ;
#77 = DIRECTION ( 'NONE',  ( -1.000000000000000000, 0.000000000000000000, 0.000000000000000000 ) ) ;
#78 = EDGE_LOOP ( 'NONE', ( #175, #172 ) ) ;
#79 = DIMENSIONAL_EXPONENTS ( 1.000000000000000000, 0.000000000000000000, 0.000000000000000000, 0.000000000000000000, 0.000000000000000000, 0.000000000000000000, 0.000000000000000000 ) ;
#80 = STYLED_ITEM ( 'NONE', ( #113 ), #38 ) ;
#81 = MECHANICAL_DESIGN_GEOMETRIC_PRESENTATION_REPRESENTATION (  '', ( #190 ), #199 ) ;
#82 = EDGE_LOOP ( 'NONE', ( #11, #275, #202, #55 ) ) ;
#83 = SURFACE_SIDE_STYLE ('',( #108 ) ) ;
#84 = ADVANCED_FACE ( 'NONE', ( #133 ), #185, .T. ) ;
#85 = AXIS2_PLACEMENT_3D ( 'NONE', #47, #221, #245 ) ;
#86 =( LENGTH_UNIT ( ) NAMED_UNIT ( * ) SI_UNIT ( $, .METRE. ) );
#87 = APPLICATION_CONTEXT ( 'automotive_design' ) ;
#88 = PRODUCT_CONTEXT ( 'NONE', #72, 'mechanical' ) ;
#89 = MECHANICAL_DESIGN_GEOMETRIC_PRESENTATION_REPRESENTATION (  '', ( #96 ), #128 ) ;
#90 =( CONVERSION_BASED_UNIT ( 'INCH', #131 ) LENGTH_UNIT ( ) NAMED_UNIT ( #54 ) );
#91 = EDGE_CURVE ( 'NONE', #252, #269, #183, .T. ) ;
#92 = CARTESIAN_POINT ( 'NONE',  ( -0.2500000000000002776, 4.000000000000000000, 0.000000000000000000 ) ) ;
#93 = UNCERTAINTY_MEASURE_WITH_UNIT (LENGTH_MEASURE( 1.000000000000000082E-05 ), #297, 'distance_accuracy_value', 'NONE');
#94 = APPLICATION_PROTOCOL_DEFINITION ( 'draft international standard', 'automotive_design', 1998, #87 ) ;
#95 = MANIFOLD_SOLID_BREP ( 'Revolve - Tool Body (Straight Shanked)', #273 ) ;
#96 = STYLED_ITEM ( 'NONE', ( #178 ), #304 ) ;
#97 = FILL_AREA_STYLE ('',( #58 ) ) ;
#98 = VERTEX_POINT ( 'NONE', #147 ) ;
#99 = EDGE_CURVE ( 'NONE', #225, #253, #203, .T. ) ;
#100 = CARTESIAN_POINT ( 'NONE',  ( 1.516480271171051896E-32, 2.000000000000000000, 0.000000000000000000 ) ) ;
#101 = MECHANICAL_DESIGN_GEOMETRIC_PRESENTATION_REPRESENTATION (  '', ( #66 ), #142 ) ;
#102 = AXIS2_PLACEMENT_3D ( 'NONE', #12, #18, #15 ) ;
#103 = SURFACE_SIDE_STYLE ('',( #51 ) ) ;
#104 = ORIENTED_EDGE ( 'NONE', *, *, #166, .F. ) ;
#105 = EDGE_CURVE ( 'NONE', #293, #124, #248, .T. ) ;
#106 = CARTESIAN_POINT ( 'NONE',  ( 0.000000000000000000, 0.000000000000000000, 0.000000000000000000 ) ) ;
#107 = AXIS2_PLACEMENT_3D ( 'NONE', #115, #219, #308 ) ;
#108 = SURFACE_STYLE_FILL_AREA ( #241 ) ;
#109 = SURFACE_SIDE_STYLE ('',( #70 ) ) ;
#110 = DIRECTION ( 'NONE',  ( 0.000000000000000000, 0.000000000000000000, -1.000000000000000000 ) ) ;
#111 = EDGE_CURVE ( 'NONE', #253, #225, #261, .T. ) ;
#112 = LINE ( 'NONE', #259, #25 ) ;
#113 = PRESENTATION_STYLE_ASSIGNMENT (( #258 ) ) ;
#114 = SURFACE_STYLE_FILL_AREA ( #49 ) ;
#115 = CARTESIAN_POINT ( 'NONE',  ( 0.000000000000000000, 0.000000000000000000, 0.000000000000000000 ) ) ;
#116 =( LENGTH_UNIT ( ) NAMED_UNIT ( * ) SI_UNIT ( $, .METRE. ) );
#117 =( NAMED_UNIT ( * ) SI_UNIT ( $, .STERADIAN. ) SOLID_ANGLE_UNIT ( ) );
#118 = UNCERTAINTY_MEASURE_WITH_UNIT (LENGTH_MEASURE( 1.000000000000000082E-05 ), #28, 'distance_accuracy_value', 'NONE');
#119 = PRODUCT ( '48455', '48455', '', ( #88 ) ) ;
#120 = CARTESIAN_POINT ( 'NONE',  ( 0.000000000000000000, 0.000000000000000000, 0.000000000000000000 ) ) ;
#121 = CIRCLE ( 'NONE', #150, 0.2500000000000001665 ) ;
#122 = ORIENTED_EDGE ( 'NONE', *, *, #24, .T. ) ;
#123 =( LENGTH_UNIT ( ) NAMED_UNIT ( * ) SI_UNIT ( $, .METRE. ) );
#124 = VERTEX_POINT ( 'NONE', #171 ) ;
#125 = PRODUCT_DEFINITION_SHAPE ( 'NONE', 'NONE',  #302 ) ;
#126 = DIRECTION ( 'NONE',  ( 0.000000000000000000, 0.000000000000000000, -1.000000000000000000 ) ) ;
#127 = AXIS2_PLACEMENT_3D ( 'NONE', #206, #255, #295 ) ;
#128 =( GEOMETRIC_REPRESENTATION_CONTEXT ( 3 ) GLOBAL_UNCERTAINTY_ASSIGNED_CONTEXT ( ( #27 ) ) GLOBAL_UNIT_ASSIGNED_CONTEXT ( ( #17, #37, #296 ) ) REPRESENTATION_CONTEXT ( 'NONE', 'WORKASPACE' ) );
#129 = LENGTH_MEASURE_WITH_UNIT ( LENGTH_MEASURE( 0.02539999999999999897 ), #215 );
#130 = DIRECTION ( 'NONE',  ( -1.000000000000000000, 0.000000000000000000, 0.000000000000000000 ) ) ;
#131 = LENGTH_MEASURE_WITH_UNIT ( LENGTH_MEASURE( 0.02539999999999999897 ), #41 );
#132 =( LENGTH_UNIT ( ) NAMED_UNIT ( * ) SI_UNIT ( $, .METRE. ) );
#133 = FACE_OUTER_BOUND ( 'NONE', #78, .T. ) ;
#134 = DIRECTION ( 'NONE',  ( -0.000000000000000000, -1.000000000000000000, -0.000000000000000000 ) ) ;
#135 = FACE_OUTER_BOUND ( 'NONE', #266, .T. ) ;
#136 = EDGE_CURVE ( 'NONE', #208, #98, #121, .T. ) ;
#137 = PRESENTATION_LAYER_ASSIGNMENT (  '', '', ( #211 ) ) ;
#138 = SURFACE_STYLE_USAGE ( .BOTH. , #103 ) ;
#139 = EDGE_LOOP ( 'NONE', ( #235, #289 ) ) ;
#140 = EDGE_CURVE ( 'NONE', #269, #252, #177, .T. ) ;
#141 = UNCERTAINTY_MEASURE_WITH_UNIT (LENGTH_MEASURE( 1.000000000000000082E-05 ), #213, 'distance_accuracy_value', 'NONE');
#142 =( GEOMETRIC_REPRESENTATION_CONTEXT ( 3 ) GLOBAL_UNCERTAINTY_ASSIGNED_CONTEXT ( ( #186 ) ) GLOBAL_UNIT_ASSIGNED_CONTEXT ( ( #30, #234, #292 ) ) REPRESENTATION_CONTEXT ( 'NONE', 'WORKASPACE' ) );
#143 = ORIENTED_EDGE ( 'NONE', *, *, #56, .T. ) ;
#144 = AXIS2_PLACEMENT_3D ( 'NONE', #6, #251, #126 ) ;
#145 = DIRECTION ( 'NONE',  ( -1.000000000000000000, 0.000000000000000000, 0.000000000000000000 ) ) ;
#146 = ORIENTED_EDGE ( 'NONE', *, *, #91, .F. ) ;
#147 = CARTESIAN_POINT ( 'NONE',  ( 0.2500000000000000555, 4.000000000000000000, 3.061616997868384251E-17 ) ) ;
#148 = ORIENTED_EDGE ( 'NONE', *, *, #111, .T. ) ;
#149 = CIRCLE ( 'NONE', #127, 0.2500000000000001665 ) ;
#150 = AXIS2_PLACEMENT_3D ( 'NONE', #294, #278, #130 ) ;
#151 = APPLICATION_PROTOCOL_DEFINITION ( 'draft international standard', 'automotive_design', 1998, #72 ) ;
#152 = ADVANCED_FACE ( 'NONE', ( #69 ), #236, .F. ) ;
#153 = DIRECTION ( 'NONE',  ( 0.000000000000000000, 0.000000000000000000, -1.000000000000000000 ) ) ;
#154 = FILL_AREA_STYLE ('',( #64 ) ) ;
#155 = CARTESIAN_POINT ( 'NONE',  ( -0.2499999999999999722, 2.000000000000000000, 0.000000000000000000 ) ) ;
#156 = COLOUR_RGB ( '',1.000000000000000000, 0.000000000000000000, 0.000000000000000000 ) ;
#157 = FACE_OUTER_BOUND ( 'NONE', #82, .T. ) ;
#158 = PRESENTATION_STYLE_ASSIGNMENT (( #207 ) ) ;
#159 = ADVANCED_FACE ( 'NONE', ( #239 ), #209, .T. ) ;
#160 = DIRECTION ( 'NONE',  ( -6.123233995736763571E-17, 1.000000000000000000, -0.000000000000000000 ) ) ;
#161 =( NAMED_UNIT ( * ) PLANE_ANGLE_UNIT ( ) SI_UNIT ( $, .RADIAN. ) );
#162 = CYLINDRICAL_SURFACE ( 'NONE', #184, 0.2500000000000000555 ) ;
#163 = CLOSED_SHELL ( 'NONE', ( #204, #159, #38, #84 ) ) ;
#164 =( GEOMETRIC_REPRESENTATION_CONTEXT ( 3 ) GLOBAL_UNCERTAINTY_ASSIGNED_CONTEXT ( ( #141 ) ) GLOBAL_UNIT_ASSIGNED_CONTEXT ( ( #213, #181, #263 ) ) REPRESENTATION_CONTEXT ( 'NONE', 'WORKASPACE' ) );
#165 = DIRECTION ( 'NONE',  ( 0.000000000000000000, -1.000000000000000000, -0.000000000000000000 ) ) ;
#166 = EDGE_CURVE ( 'NONE', #253, #208, #112, .T. ) ;
#167 = PRESENTATION_STYLE_ASSIGNMENT (( #138 ) ) ;
#168 = ORIENTED_EDGE ( 'NONE', *, *, #136, .F. ) ;
#169 =( NAMED_UNIT ( * ) SI_UNIT ( $, .STERADIAN. ) SOLID_ANGLE_UNIT ( ) );
#170 = ORIENTED_EDGE ( 'NONE', *, *, #48, .F. ) ;
#171 = CARTESIAN_POINT ( 'NONE',  ( 3.061616997868382402E-17, 2.000000000000000000, 0.2499999999999999722 ) ) ;
#172 = ORIENTED_EDGE ( 'NONE', *, *, #91, .T. ) ;
#173 = LINE ( 'NONE', #271, #230 ) ;
#174 = LENGTH_MEASURE_WITH_UNIT ( LENGTH_MEASURE( 0.02539999999999999897 ), #132 );
#175 = ORIENTED_EDGE ( 'NONE', *, *, #140, .T. ) ;
#176 = VECTOR ( 'NONE', #68, 39.37007874015748143 ) ;
#177 = CIRCLE ( 'NONE', #46, 0.2500000000000000000 ) ;
#178 = PRESENTATION_STYLE_ASSIGNMENT (( #42 ) ) ;
#179 =( LENGTH_UNIT ( ) NAMED_UNIT ( * ) SI_UNIT ( $, .METRE. ) );
#180 = SURFACE_STYLE_FILL_AREA ( #61 ) ;
#181 =( NAMED_UNIT ( * ) PLANE_ANGLE_UNIT ( ) SI_UNIT ( $, .RADIAN. ) );
#182 = LINE ( 'NONE', #43, #260 ) ;
#183 = CIRCLE ( 'NONE', #50, 0.2500000000000000000 ) ;
#184 = AXIS2_PLACEMENT_3D ( 'NONE', #262, #26, #77 ) ;
#185 = PLANE ( 'NONE',  #13 ) ;
#186 = UNCERTAINTY_MEASURE_WITH_UNIT (LENGTH_MEASURE( 1.000000000000000082E-05 ), #30, 'distance_accuracy_value', 'NONE');
#187 = DIRECTION ( 'NONE',  ( -6.123233995736763571E-17, 1.000000000000000000, -0.000000000000000000 ) ) ;
#188 = SHAPE_DEFINITION_REPRESENTATION ( #125, #283 ) ;
#189 = DIMENSIONAL_EXPONENTS ( 1.000000000000000000, 0.000000000000000000, 0.000000000000000000, 0.000000000000000000, 0.000000000000000000, 0.000000000000000000, 0.000000000000000000 ) ;
#190 = STYLED_ITEM ( 'NONE', ( #167 ), #95 ) ;
#191 = FACE_OUTER_BOUND ( 'NONE', #57, .T. ) ;
#192 = PRODUCT_DEFINITION_FORMATION_WITH_SPECIFIED_SOURCE ( 'ANY', '', #119, .NOT_KNOWN. ) ;
#193 = PRODUCT_RELATED_PRODUCT_CATEGORY ( 'part', '', ( #119 ) ) ;
#194 = DIMENSIONAL_EXPONENTS ( 1.000000000000000000, 0.000000000000000000, 0.000000000000000000, 0.000000000000000000, 0.000000000000000000, 0.000000000000000000, 0.000000000000000000 ) ;
#195 = LENGTH_MEASURE_WITH_UNIT ( LENGTH_MEASURE( 0.02539999999999999897 ), #179 );
#196 = AXIS2_PLACEMENT_3D ( 'NONE', #216, #134, #276 ) ;
#197 = AXIS2_PLACEMENT_3D ( 'NONE', #282, #237, #303 ) ;
#198 = ADVANCED_FACE ( 'NONE', ( #309 ), #2, .F. ) ;
#199 =( GEOMETRIC_REPRESENTATION_CONTEXT ( 3 ) GLOBAL_UNCERTAINTY_ASSIGNED_CONTEXT ( ( #118 ) ) GLOBAL_UNIT_ASSIGNED_CONTEXT ( ( #28, #290, #169 ) ) REPRESENTATION_CONTEXT ( 'NONE', 'WORKASPACE' ) );
#200 = EDGE_LOOP ( 'NONE', ( #36, #227 ) ) ;
#201 = AXIS2_PLACEMENT_3D ( 'NONE', #106, #14, #110 ) ;
#202 = ORIENTED_EDGE ( 'NONE', *, *, #166, .T. ) ;
#203 = CIRCLE ( 'NONE', #67, 0.2499999999999999722 ) ;
#204 = ADVANCED_FACE ( 'NONE', ( #244 ), #45, .T. ) ;
#205 = DIRECTION ( 'NONE',  ( -6.123233995736763571E-17, 1.000000000000000000, -0.000000000000000000 ) ) ;
#206 = CARTESIAN_POINT ( 'NONE',  ( -1.224646799147352714E-16, 4.000000000000000000, 0.000000000000000000 ) ) ;
#207 = SURFACE_STYLE_USAGE ( .BOTH. , #83 ) ;
#208 = VERTEX_POINT ( 'NONE', #92 ) ;
#209 = PLANE ( 'NONE',  #232 ) ;
#210 = CYLINDRICAL_SURFACE ( 'NONE', #249, 0.2500000000000000555 ) ;
#211 = STYLED_ITEM ( 'NONE', ( #243 ), #204 ) ;
#212 =( NAMED_UNIT ( * ) PLANE_ANGLE_UNIT ( ) SI_UNIT ( $, .RADIAN. ) );
#213 =( CONVERSION_BASED_UNIT ( 'INCH', #39 ) LENGTH_UNIT ( ) NAMED_UNIT ( #223 ) );
#214 = SURFACE_STYLE_USAGE ( .BOTH. , #109 ) ;
#215 =( LENGTH_UNIT ( ) NAMED_UNIT ( * ) SI_UNIT ( $, .METRE. ) );
#216 = CARTESIAN_POINT ( 'NONE',  ( 0.000000000000000000, 2.000000000000000000, 0.000000000000000000 ) ) ;
#217 = CARTESIAN_POINT ( 'NONE',  ( -1.224646799147352714E-16, 4.000000000000000000, 0.000000000000000000 ) ) ;
#218 = DIMENSIONAL_EXPONENTS ( 1.000000000000000000, 0.000000000000000000, 0.000000000000000000, 0.000000000000000000, 0.000000000000000000, 0.000000000000000000, 0.000000000000000000 ) ;
#219 = DIRECTION ( 'NONE',  ( -0.000000000000000000, -1.000000000000000000, -0.000000000000000000 ) ) ;
#220 = ADVANCED_FACE ( 'NONE', ( #191 ), #162, .T. ) ;
#221 = DIRECTION ( 'NONE',  ( -6.123233995736763571E-17, 1.000000000000000000, 0.000000000000000000 ) ) ;
#222 = UNCERTAINTY_MEASURE_WITH_UNIT (LENGTH_MEASURE( 1.000000000000000082E-05 ), #285, 'distance_accuracy_value', 'NONE');
#223 = DIMENSIONAL_EXPONENTS ( 1.000000000000000000, 0.000000000000000000, 0.000000000000000000, 0.000000000000000000, 0.000000000000000000, 0.000000000000000000, 0.000000000000000000 ) ;
#224 = CIRCLE ( 'NONE', #196, 0.2499999999999999722 ) ;
#225 = VERTEX_POINT ( 'NONE', #254 ) ;
#226 = CARTESIAN_POINT ( 'NONE',  ( 0.000000000000000000, 0.000000000000000000, 0.000000000000000000 ) ) ;
#227 = ORIENTED_EDGE ( 'NONE', *, *, #56, .F. ) ;
#228 = ORIENTED_EDGE ( 'NONE', *, *, #99, .F. ) ;
#229 = DIRECTION ( 'NONE',  ( -0.000000000000000000, -1.000000000000000000, -0.000000000000000000 ) ) ;
#230 = VECTOR ( 'NONE', #59, 39.37007874015748143 ) ;
#231 = ORIENTED_EDGE ( 'NONE', *, *, #4, .F. ) ;
#232 = AXIS2_PLACEMENT_3D ( 'NONE', #307, #71, #19 ) ;
#233 = CARTESIAN_POINT ( 'NONE',  ( 0.000000000000000000, 2.000000000000000000, -0.2499999999999999722 ) ) ;
#234 =( NAMED_UNIT ( * ) PLANE_ANGLE_UNIT ( ) SI_UNIT ( $, .RADIAN. ) );
#235 = ORIENTED_EDGE ( 'NONE', *, *, #136, .T. ) ;
#236 = PLANE ( 'NONE',  #102 ) ;
#237 = DIRECTION ( 'NONE',  ( 0.000000000000000000, 0.000000000000000000, 1.000000000000000000 ) ) ;
#238 = FILL_AREA_STYLE ('',( #284 ) ) ;
#239 = FACE_OUTER_BOUND ( 'NONE', #200, .T. ) ;
#240 = DIRECTION ( 'NONE',  ( -6.123233995736763571E-17, 1.000000000000000000, -0.000000000000000000 ) ) ;
#241 = FILL_AREA_STYLE ('',( #298 ) ) ;
#242 = LINE ( 'NONE', #280, #176 ) ;
#243 = PRESENTATION_STYLE_ASSIGNMENT (( #74 ) ) ;
#244 = FACE_OUTER_BOUND ( 'NONE', #53, .T. ) ;
#245 = DIRECTION ( 'NONE',  ( -1.000000000000000000, -6.123233995736763571E-17, 0.000000000000000000 ) ) ;
#246 = PRESENTATION_LAYER_ASSIGNMENT (  '', '', ( #66 ) ) ;
#247 = UNCERTAINTY_MEASURE_WITH_UNIT (LENGTH_MEASURE( 1.000000000000000082E-05 ), #90, 'distance_accuracy_value', 'NONE');
#248 = CIRCLE ( 'NONE', #144, 0.2499999999999999722 ) ;
#249 = AXIS2_PLACEMENT_3D ( 'NONE', #217, #187, #62 ) ;
#250 = EDGE_LOOP ( 'NONE', ( #33, #228 ) ) ;
#251 = DIRECTION ( 'NONE',  ( -0.000000000000000000, -1.000000000000000000, -0.000000000000000000 ) ) ;
#252 = VERTEX_POINT ( 'NONE', #277 ) ;
#253 = VERTEX_POINT ( 'NONE', #155 ) ;
#254 = CARTESIAN_POINT ( 'NONE',  ( 0.2500000000000000000, 2.000000000000000000, 3.061616997868384251E-17 ) ) ;
#255 = DIRECTION ( 'NONE',  ( -6.123233995736763571E-17, 1.000000000000000000, -0.000000000000000000 ) ) ;
#256 = COLOUR_RGB ( '',1.000000000000000000, 0.000000000000000000, 0.000000000000000000 ) ;
#257 = FILL_AREA_STYLE_COLOUR ( '', #21 ) ;
#258 = SURFACE_STYLE_USAGE ( .BOTH. , #305 ) ;
#259 = CARTESIAN_POINT ( 'NONE',  ( -0.2500000000000002220, 4.000000000000000000, 0.000000000000000000 ) ) ;
#260 = VECTOR ( 'NONE', #240, 39.37007874015748143 ) ;
#261 = CIRCLE ( 'NONE', #23, 0.2499999999999999722 ) ;
#262 = CARTESIAN_POINT ( 'NONE',  ( -1.224646799147352714E-16, 4.000000000000000000, 0.000000000000000000 ) ) ;
#263 =( NAMED_UNIT ( * ) SI_UNIT ( $, .STERADIAN. ) SOLID_ANGLE_UNIT ( ) );
#264 = COLOUR_RGB ( '',0.7921568627450980005, 0.8196078431372548767, 0.9333333333333333481 ) ;
#265 = DIRECTION ( 'NONE',  ( 0.000000000000000000, 0.000000000000000000, -1.000000000000000000 ) ) ;
#266 = EDGE_LOOP ( 'NONE', ( #170, #143, #31, #146 ) ) ;
#267 = MECHANICAL_DESIGN_GEOMETRIC_PRESENTATION_REPRESENTATION (  '', ( #211 ), #281 ) ;
#268 = DIRECTION ( 'NONE',  ( -6.123233995736763571E-17, 1.000000000000000000, -0.000000000000000000 ) ) ;
#269 = VERTEX_POINT ( 'NONE', #34 ) ;
#270 = DIRECTION ( 'NONE',  ( 0.000000000000000000, 0.000000000000000000, -1.000000000000000000 ) ) ;
#271 = CARTESIAN_POINT ( 'NONE',  ( 0.000000000000000000, 0.000000000000000000, -0.2500000000000000000 ) ) ;
#272 = DIRECTION ( 'NONE',  ( -0.000000000000000000, -1.000000000000000000, -0.000000000000000000 ) ) ;
#273 = CLOSED_SHELL ( 'NONE', ( #220, #198, #63, #152 ) ) ;
#274 = PRESENTATION_LAYER_ASSIGNMENT (  '', '', ( #190 ) ) ;
#275 = ORIENTED_EDGE ( 'NONE', *, *, #99, .T. ) ;
#276 = DIRECTION ( 'NONE',  ( 0.000000000000000000, 0.000000000000000000, -1.000000000000000000 ) ) ;
#277 = CARTESIAN_POINT ( 'NONE',  ( 3.061616997868383018E-17, 0.000000000000000000, 0.2500000000000000000 ) ) ;
#278 = DIRECTION ( 'NONE',  ( -6.123233995736763571E-17, 1.000000000000000000, -0.000000000000000000 ) ) ;
#279 = SURFACE_STYLE_FILL_AREA ( #154 ) ;
#280 = CARTESIAN_POINT ( 'NONE',  ( 3.061616997868383018E-17, 0.000000000000000000, 0.2500000000000000000 ) ) ;
#281 =( GEOMETRIC_REPRESENTATION_CONTEXT ( 3 ) GLOBAL_UNCERTAINTY_ASSIGNED_CONTEXT ( ( #222 ) ) GLOBAL_UNIT_ASSIGNED_CONTEXT ( ( #285, #161, #117 ) ) REPRESENTATION_CONTEXT ( 'NONE', 'WORKASPACE' ) );
#282 = CARTESIAN_POINT ( 'NONE',  ( 0.000000000000000000, 0.000000000000000000, 0.000000000000000000 ) ) ;
#283 = ADVANCED_BREP_SHAPE_REPRESENTATION ( '48455', ( #304, #95, #197 ), #3 ) ;
#284 = FILL_AREA_STYLE_COLOUR ( '', #60 ) ;
#285 =( CONVERSION_BASED_UNIT ( 'INCH', #75 ) LENGTH_UNIT ( ) NAMED_UNIT ( #218 ) );
#286 = PRODUCT_DEFINITION_CONTEXT ( 'detailed design', #87, 'design' ) ;
#287 = DIMENSIONAL_EXPONENTS ( 1.000000000000000000, 0.000000000000000000, 0.000000000000000000, 0.000000000000000000, 0.000000000000000000, 0.000000000000000000, 0.000000000000000000 ) ;
#288 = FILL_AREA_STYLE_COLOUR ( '', #156 ) ;
#289 = ORIENTED_EDGE ( 'NONE', *, *, #1, .T. ) ;
#290 =( NAMED_UNIT ( * ) PLANE_ANGLE_UNIT ( ) SI_UNIT ( $, .RADIAN. ) );
#291 = COLOUR_RGB ( '',1.000000000000000000, 0.000000000000000000, 0.000000000000000000 ) ;
#292 =( NAMED_UNIT ( * ) SI_UNIT ( $, .STERADIAN. ) SOLID_ANGLE_UNIT ( ) );
#293 = VERTEX_POINT ( 'NONE', #233 ) ;
#294 = CARTESIAN_POINT ( 'NONE',  ( -1.224646799147352714E-16, 4.000000000000000000, 0.000000000000000000 ) ) ;
#295 = DIRECTION ( 'NONE',  ( -1.000000000000000000, 0.000000000000000000, 0.000000000000000000 ) ) ;
#296 =( NAMED_UNIT ( * ) SI_UNIT ( $, .STERADIAN. ) SOLID_ANGLE_UNIT ( ) );
#297 =( CONVERSION_BASED_UNIT ( 'INCH', #174 ) LENGTH_UNIT ( ) NAMED_UNIT ( #287 ) );
#298 = FILL_AREA_STYLE_COLOUR ( '', #256 ) ;
#299 = STYLED_ITEM ( 'NONE', ( #158 ), #159 ) ;
#300 =( NAMED_UNIT ( * ) SI_UNIT ( $, .STERADIAN. ) SOLID_ANGLE_UNIT ( ) );
#301 = PRESENTATION_STYLE_ASSIGNMENT (( #214 ) ) ;
#302 = PRODUCT_DEFINITION ( 'UNKNOWN', '', #192, #286 ) ;
#303 = DIRECTION ( 'NONE',  ( 1.000000000000000000, 0.000000000000000000, 0.000000000000000000 ) ) ;
#304 = MANIFOLD_SOLID_BREP ( 'Revolve - Cutting Edge', #163 ) ;
#305 = SURFACE_SIDE_STYLE ('',( #279 ) ) ;
#306 = MECHANICAL_DESIGN_GEOMETRIC_PRESENTATION_REPRESENTATION (  '', ( #80 ), #8 ) ;
#307 = CARTESIAN_POINT ( 'NONE',  ( 0.000000000000000000, 2.000000000000000000, 0.000000000000000000 ) ) ;
#308 = DIRECTION ( 'NONE',  ( 0.000000000000000000, 0.000000000000000000, -1.000000000000000000 ) ) ;
#309 = FACE_OUTER_BOUND ( 'NONE', #250, .T. ) ;
ENDSEC;
END-ISO-10303-21;
