ISO-10303-21;
HEADER;
FILE_DESCRIPTION (( 'STEP AP214' ),
    '1' );
FILE_NAME ('59563.STEP',
    '2023-07-24T15:49:07',
    ( '' ),
    ( '' ),
    'SwSTEP 2.0',
    'SolidWorks 2023',
    '' );
FILE_SCHEMA (( 'AUTOMOTIVE_DESIGN' ));
ENDSEC;

DATA;
#1 = FILL_AREA_STYLE_COLOUR ( '', #217 ) ;
#2 = ORIENTED_EDGE ( 'NONE', *, *, #231, .T. ) ;
#3 = DIRECTION ( 'NONE',  ( -1.000000000000000000, 0.000000000000000000, 0.000000000000000000 ) ) ;
#4 = DIRECTION ( 'NONE',  ( -5.878304635907293472E-17, 1.000000000000000000, -0.000000000000000000 ) ) ;
#5 =( GEOMETRIC_REPRESENTATION_CONTEXT ( 3 ) GLOBAL_UNCERTAINTY_ASSIGNED_CONTEXT ( ( #28 ) ) GLOBAL_UNIT_ASSIGNED_CONTEXT ( ( #277, #56, #59 ) ) REPRESENTATION_CONTEXT ( 'NONE', 'WORKASPACE' ) );
#6 = ORIENTED_EDGE ( 'NONE', *, *, #231, .F. ) ;
#7 = DIRECTION ( 'NONE',  ( 0.000000000000000000, 0.000000000000000000, -1.000000000000000000 ) ) ;
#8 = STYLED_ITEM ( 'NONE', ( #162 ), #32 ) ;
#9 = SURFACE_STYLE_FILL_AREA ( #275 ) ;
#10 = ORIENTED_EDGE ( 'NONE', *, *, #136, .T. ) ;
#11 = DIRECTION ( 'NONE',  ( 0.000000000000000000, 0.000000000000000000, -1.000000000000000000 ) ) ;
#12 = SURFACE_SIDE_STYLE ('',( #161 ) ) ;
#13 = AXIS2_PLACEMENT_3D ( 'NONE', #241, #15, #220 ) ;
#14 = FILL_AREA_STYLE ('',( #247 ) ) ;
#15 = DIRECTION ( 'NONE',  ( 0.000000000000000000, 1.000000000000000000, 0.000000000000000000 ) ) ;
#16 = CARTESIAN_POINT ( 'NONE',  ( 0.000000000000000000, 50.00000000000000000, 0.000000000000000000 ) ) ;
#17 = CARTESIAN_POINT ( 'NONE',  ( 0.000000000000000000, 0.000000000000000000, 0.000000000000000000 ) ) ;
#18 = FILL_AREA_STYLE ('',( #20 ) ) ;
#19 = AXIS2_PLACEMENT_3D ( 'NONE', #285, #92, #186 ) ;
#20 = FILL_AREA_STYLE_COLOUR ( '', #174 ) ;
#21 = LINE ( 'NONE', #269, #61 ) ;
#22 = PRODUCT ( '59563', '59563', '', ( #71 ) ) ;
#23 = ORIENTED_EDGE ( 'NONE', *, *, #73, .T. ) ;
#24 = SURFACE_STYLE_USAGE ( .BOTH. , #69 ) ;
#25 = STYLED_ITEM ( 'NONE', ( #222 ), #190 ) ;
#26 = AXIS2_PLACEMENT_3D ( 'NONE', #193, #48, #138 ) ;
#27 = SURFACE_STYLE_FILL_AREA ( #18 ) ;
#28 = UNCERTAINTY_MEASURE_WITH_UNIT (LENGTH_MEASURE( 1.000000000000000082E-05 ), #277, 'distance_accuracy_value', 'NONE');
#29 = SURFACE_STYLE_USAGE ( .BOTH. , #216 ) ;
#30 = FILL_AREA_STYLE ('',( #100 ) ) ;
#31 = MECHANICAL_DESIGN_GEOMETRIC_PRESENTATION_REPRESENTATION (  '', ( #25 ), #94 ) ;
#32 = ADVANCED_FACE ( 'NONE', ( #108 ), #170, .T. ) ;
#33 = CARTESIAN_POINT ( 'NONE',  ( 0.000000000000000000, 0.000000000000000000, 0.000000000000000000 ) ) ;
#34 = ORIENTED_EDGE ( 'NONE', *, *, #286, .F. ) ;
#35 = MANIFOLD_SOLID_BREP ( 'Revolve - Tool Body (Straight Shanked)', #248 ) ;
#36 = ORIENTED_EDGE ( 'NONE', *, *, #66, .T. ) ;
#37 = DIRECTION ( 'NONE',  ( -0.000000000000000000, -1.000000000000000000, -0.000000000000000000 ) ) ;
#38 =( GEOMETRIC_REPRESENTATION_CONTEXT ( 3 ) GLOBAL_UNCERTAINTY_ASSIGNED_CONTEXT ( ( #143 ) ) GLOBAL_UNIT_ASSIGNED_CONTEXT ( ( #245, #135, #195 ) ) REPRESENTATION_CONTEXT ( 'NONE', 'WORKASPACE' ) );
#39 = PLANE ( 'NONE',  #13 ) ;
#40 =( LENGTH_UNIT ( ) NAMED_UNIT ( * ) SI_UNIT ( .MILLI., .METRE. ) );
#41 = DIRECTION ( 'NONE',  ( -5.878304635907293472E-17, 1.000000000000000000, -0.000000000000000000 ) ) ;
#42 = DIRECTION ( 'NONE',  ( -0.000000000000000000, -1.000000000000000000, -0.000000000000000000 ) ) ;
#43 = PRODUCT_RELATED_PRODUCT_CATEGORY ( 'part', '', ( #22 ) ) ;
#44 = SURFACE_STYLE_FILL_AREA ( #14 ) ;
#45 = CARTESIAN_POINT ( 'NONE',  ( 0.000000000000000000, 50.00000000000000000, 0.000000000000000000 ) ) ;
#46 = SURFACE_STYLE_USAGE ( .BOTH. , #134 ) ;
#47 = AXIS2_PLACEMENT_3D ( 'NONE', #237, #130, #7 ) ;
#48 = DIRECTION ( 'NONE',  ( 0.000000000000000000, 0.000000000000000000, 1.000000000000000000 ) ) ;
#49 = VECTOR ( 'NONE', #90, 1000.000000000000000 ) ;
#50 = ORIENTED_EDGE ( 'NONE', *, *, #276, .F. ) ;
#51 = AXIS2_PLACEMENT_3D ( 'NONE', #109, #106, #182 ) ;
#52 = ORIENTED_EDGE ( 'NONE', *, *, #79, .F. ) ;
#53 = UNCERTAINTY_MEASURE_WITH_UNIT (LENGTH_MEASURE( 1.000000000000000082E-05 ), #40, 'distance_accuracy_value', 'NONE');
#54 = ORIENTED_EDGE ( 'NONE', *, *, #136, .F. ) ;
#55 = DIRECTION ( 'NONE',  ( -5.878304635907293472E-17, 1.000000000000000000, 0.000000000000000000 ) ) ;
#56 =( NAMED_UNIT ( * ) PLANE_ANGLE_UNIT ( ) SI_UNIT ( $, .RADIAN. ) );
#57 = MECHANICAL_DESIGN_GEOMETRIC_PRESENTATION_REPRESENTATION (  '', ( #8 ), #271 ) ;
#58 = AXIS2_PLACEMENT_3D ( 'NONE', #112, #184, #266 ) ;
#59 =( NAMED_UNIT ( * ) SI_UNIT ( $, .STERADIAN. ) SOLID_ANGLE_UNIT ( ) );
#60 = CIRCLE ( 'NONE', #47, 10.00000000000000000 ) ;
#61 = VECTOR ( 'NONE', #115, 1000.000000000000000 ) ;
#62 = CARTESIAN_POINT ( 'NONE',  ( 0.000000000000000000, 0.000000000000000000, 0.000000000000000000 ) ) ;
#63 = SURFACE_STYLE_USAGE ( .BOTH. , #283 ) ;
#64 = COLOUR_RGB ( '',1.000000000000000000, 0.000000000000000000, 0.000000000000000000 ) ;
#65 = COLOUR_RGB ( '',1.000000000000000000, 0.000000000000000000, 0.000000000000000000 ) ;
#66 = EDGE_CURVE ( 'NONE', #104, #173, #226, .T. ) ;
#67 = ADVANCED_BREP_SHAPE_REPRESENTATION ( '59563', ( #140, #35, #26 ), #150 ) ;
#68 = LINE ( 'NONE', #224, #118 ) ;
#69 = SURFACE_SIDE_STYLE ('',( #142 ) ) ;
#70 =( NAMED_UNIT ( * ) SI_UNIT ( $, .STERADIAN. ) SOLID_ANGLE_UNIT ( ) );
#71 = PRODUCT_CONTEXT ( 'NONE', #72, 'mechanical' ) ;
#72 = APPLICATION_CONTEXT ( 'automotive_design' ) ;
#73 = EDGE_CURVE ( 'NONE', #117, #197, #75, .T. ) ;
#74 = EDGE_LOOP ( 'NONE', ( #240, #36 ) ) ;
#75 = CIRCLE ( 'NONE', #58, 10.00000000000000000 ) ;
#76 = CIRCLE ( 'NONE', #114, 10.00000000000000000 ) ;
#77 = ORIENTED_EDGE ( 'NONE', *, *, #167, .T. ) ;
#78 = FACE_OUTER_BOUND ( 'NONE', #258, .T. ) ;
#79 = EDGE_CURVE ( 'NONE', #85, #255, #68, .T. ) ;
#80 = ORIENTED_EDGE ( 'NONE', *, *, #200, .T. ) ;
#81 = CYLINDRICAL_SURFACE ( 'NONE', #179, 10.00000000000000000 ) ;
#82 = COLOUR_RGB ( '',1.000000000000000000, 0.000000000000000000, 0.000000000000000000 ) ;
#83 = DIRECTION ( 'NONE',  ( 0.000000000000000000, 0.000000000000000000, -1.000000000000000000 ) ) ;
#84 = CARTESIAN_POINT ( 'NONE',  ( 1.224646799147353256E-15, 50.00000000000000000, 10.00000000000000000 ) ) ;
#85 = VERTEX_POINT ( 'NONE', #225 ) ;
#86 =( NAMED_UNIT ( * ) SI_UNIT ( $, .STERADIAN. ) SOLID_ANGLE_UNIT ( ) );
#87 =( GEOMETRIC_REPRESENTATION_CONTEXT ( 3 ) GLOBAL_UNCERTAINTY_ASSIGNED_CONTEXT ( ( #98 ) ) GLOBAL_UNIT_ASSIGNED_CONTEXT ( ( #123, #257, #128 ) ) REPRESENTATION_CONTEXT ( 'NONE', 'WORKASPACE' ) );
#88 = CARTESIAN_POINT ( 'NONE',  ( -10.00000000000001066, 124.9999999999999858, 0.000000000000000000 ) ) ;
#89 = FILL_AREA_STYLE ('',( #132 ) ) ;
#90 = DIRECTION ( 'NONE',  ( -0.000000000000000000, -1.000000000000000000, -0.000000000000000000 ) ) ;
#91 = STYLED_ITEM ( 'NONE', ( #163 ), #251 ) ;
#92 = DIRECTION ( 'NONE',  ( -5.878304635907293472E-17, 1.000000000000000000, -0.000000000000000000 ) ) ;
#93 = FACE_OUTER_BOUND ( 'NONE', #168, .T. ) ;
#94 =( GEOMETRIC_REPRESENTATION_CONTEXT ( 3 ) GLOBAL_UNCERTAINTY_ASSIGNED_CONTEXT ( ( #272 ) ) GLOBAL_UNIT_ASSIGNED_CONTEXT ( ( #199, #239, #86 ) ) REPRESENTATION_CONTEXT ( 'NONE', 'WORKASPACE' ) );
#95 = ADVANCED_FACE ( 'NONE', ( #93 ), #207, .T. ) ;
#96 = ORIENTED_EDGE ( 'NONE', *, *, #276, .T. ) ;
#97 = FACE_OUTER_BOUND ( 'NONE', #214, .T. ) ;
#98 = UNCERTAINTY_MEASURE_WITH_UNIT (LENGTH_MEASURE( 1.000000000000000082E-05 ), #123, 'distance_accuracy_value', 'NONE');
#99 = PRESENTATION_LAYER_ASSIGNMENT (  '', '', ( #209 ) ) ;
#100 = FILL_AREA_STYLE_COLOUR ( '', #82 ) ;
#101 = EDGE_LOOP ( 'NONE', ( #80, #227, #54, #52 ) ) ;
#102 = PRODUCT_DEFINITION_FORMATION_WITH_SPECIFIED_SOURCE ( 'ANY', '', #22, .NOT_KNOWN. ) ;
#103 = SURFACE_STYLE_USAGE ( .BOTH. , #219 ) ;
#104 = VERTEX_POINT ( 'NONE', #188 ) ;
#105 = DIRECTION ( 'NONE',  ( -0.000000000000000000, -1.000000000000000000, -0.000000000000000000 ) ) ;
#106 = DIRECTION ( 'NONE',  ( -5.878304635907293472E-17, 1.000000000000000000, -0.000000000000000000 ) ) ;
#107 = ADVANCED_FACE ( 'NONE', ( #97 ), #157, .F. ) ;
#108 = FACE_OUTER_BOUND ( 'NONE', #101, .T. ) ;
#109 = CARTESIAN_POINT ( 'NONE',  ( -4.408728476930469278E-15, 124.9999999999999858, 0.000000000000000000 ) ) ;
#110 = PRESENTATION_STYLE_ASSIGNMENT (( #63 ) ) ;
#111 = DIRECTION ( 'NONE',  ( 0.000000000000000000, 0.000000000000000000, -1.000000000000000000 ) ) ;
#112 = CARTESIAN_POINT ( 'NONE',  ( 0.000000000000000000, 50.00000000000000000, 0.000000000000000000 ) ) ;
#113 = AXIS2_PLACEMENT_3D ( 'NONE', #234, #55, #175 ) ;
#114 = AXIS2_PLACEMENT_3D ( 'NONE', #45, #250, #3 ) ;
#115 = DIRECTION ( 'NONE',  ( -5.878304635907293472E-17, 1.000000000000000000, -0.000000000000000000 ) ) ;
#116 = PRODUCT_DEFINITION_SHAPE ( 'NONE', 'NONE',  #236 ) ;
#117 = VERTEX_POINT ( 'NONE', #147 ) ;
#118 = VECTOR ( 'NONE', #37, 1000.000000000000000 ) ;
#119 = DIRECTION ( 'NONE',  ( 0.000000000000000000, -1.000000000000000000, -0.000000000000000000 ) ) ;
#120 = MECHANICAL_DESIGN_GEOMETRIC_PRESENTATION_REPRESENTATION (  '', ( #91 ), #211 ) ;
#121 = EDGE_CURVE ( 'NONE', #173, #104, #238, .T. ) ;
#122 = UNCERTAINTY_MEASURE_WITH_UNIT (LENGTH_MEASURE( 1.000000000000000082E-05 ), #141, 'distance_accuracy_value', 'NONE');
#123 =( LENGTH_UNIT ( ) NAMED_UNIT ( * ) SI_UNIT ( .MILLI., .METRE. ) );
#124 = ORIENTED_EDGE ( 'NONE', *, *, #148, .F. ) ;
#125 = PRESENTATION_LAYER_ASSIGNMENT (  '', '', ( #8 ) ) ;
#126 = AXIS2_PLACEMENT_3D ( 'NONE', #151, #129, #176 ) ;
#127 = SURFACE_STYLE_FILL_AREA ( #30 ) ;
#128 =( NAMED_UNIT ( * ) SI_UNIT ( $, .STERADIAN. ) SOLID_ANGLE_UNIT ( ) );
#129 = DIRECTION ( 'NONE',  ( -5.878304635907293472E-17, 1.000000000000000000, -0.000000000000000000 ) ) ;
#130 = DIRECTION ( 'NONE',  ( -0.000000000000000000, -1.000000000000000000, -0.000000000000000000 ) ) ;
#131 = ADVANCED_FACE ( 'NONE', ( #78 ), #81, .T. ) ;
#132 = FILL_AREA_STYLE_COLOUR ( '', #65 ) ;
#133 = CARTESIAN_POINT ( 'NONE',  ( 0.000000000000000000, 50.00000000000000000, 0.000000000000000000 ) ) ;
#134 = SURFACE_SIDE_STYLE ('',( #44 ) ) ;
#135 =( NAMED_UNIT ( * ) PLANE_ANGLE_UNIT ( ) SI_UNIT ( $, .RADIAN. ) );
#136 = EDGE_CURVE ( 'NONE', #255, #273, #60, .T. ) ;
#137 = CARTESIAN_POINT ( 'NONE',  ( -4.408728476930469278E-15, 124.9999999999999858, 0.000000000000000000 ) ) ;
#138 = DIRECTION ( 'NONE',  ( 1.000000000000000000, 0.000000000000000000, 0.000000000000000000 ) ) ;
#139 = APPLICATION_PROTOCOL_DEFINITION ( 'draft international standard', 'automotive_design', 1998, #72 ) ;
#140 = MANIFOLD_SOLID_BREP ( 'Revolve - Cutting Edge', #253 ) ;
#141 =( LENGTH_UNIT ( ) NAMED_UNIT ( * ) SI_UNIT ( .MILLI., .METRE. ) );
#142 = SURFACE_STYLE_FILL_AREA ( #228 ) ;
#143 = UNCERTAINTY_MEASURE_WITH_UNIT (LENGTH_MEASURE( 1.000000000000000082E-05 ), #245, 'distance_accuracy_value', 'NONE');
#144 = ORIENTED_EDGE ( 'NONE', *, *, #167, .F. ) ;
#145 = DIRECTION ( 'NONE',  ( -0.000000000000000000, -1.000000000000000000, -0.000000000000000000 ) ) ;
#146 = ORIENTED_EDGE ( 'NONE', *, *, #286, .T. ) ;
#147 = CARTESIAN_POINT ( 'NONE',  ( 10.00000000000000000, 50.00000000000000000, 1.224646799147353651E-15 ) ) ;
#148 = EDGE_CURVE ( 'NONE', #117, #104, #196, .T. ) ;
#149 = PRESENTATION_STYLE_ASSIGNMENT (( #29 ) ) ;
#150 =( GEOMETRIC_REPRESENTATION_CONTEXT ( 3 ) GLOBAL_UNCERTAINTY_ASSIGNED_CONTEXT ( ( #194 ) ) GLOBAL_UNIT_ASSIGNED_CONTEXT ( ( #187, #189, #169 ) ) REPRESENTATION_CONTEXT ( 'NONE', 'WORKASPACE' ) );
#151 = CARTESIAN_POINT ( 'NONE',  ( -4.408728476930469278E-15, 124.9999999999999858, 0.000000000000000000 ) ) ;
#152 = ORIENTED_EDGE ( 'NONE', *, *, #243, .F. ) ;
#153 = SURFACE_STYLE_USAGE ( .BOTH. , #12 ) ;
#154 = PRESENTATION_LAYER_ASSIGNMENT (  '', '', ( #265 ) ) ;
#155 = PRODUCT_DEFINITION_CONTEXT ( 'detailed design', #205, 'design' ) ;
#156 = CARTESIAN_POINT ( 'NONE',  ( 10.00000000000000000, 124.9999999999999858, 0.000000000000000000 ) ) ;
#157 = PLANE ( 'NONE',  #113 ) ;
#158 = DIRECTION ( 'NONE',  ( 0.000000000000000000, 0.000000000000000000, -1.000000000000000000 ) ) ;
#159 = LINE ( 'NONE', #202, #49 ) ;
#160 = AXIS2_PLACEMENT_3D ( 'NONE', #178, #105, #158 ) ;
#161 = SURFACE_STYLE_FILL_AREA ( #89 ) ;
#162 = PRESENTATION_STYLE_ASSIGNMENT (( #46 ) ) ;
#163 = PRESENTATION_STYLE_ASSIGNMENT (( #24 ) ) ;
#164 = ORIENTED_EDGE ( 'NONE', *, *, #79, .T. ) ;
#165 = SHAPE_DEFINITION_REPRESENTATION ( #116, #67 ) ;
#166 = AXIS2_PLACEMENT_3D ( 'NONE', #156, #244, #180 ) ;
#167 = EDGE_CURVE ( 'NONE', #273, #255, #198, .T. ) ;
#168 = EDGE_LOOP ( 'NONE', ( #96, #177, #233, #34 ) ) ;
#169 =( NAMED_UNIT ( * ) SI_UNIT ( $, .STERADIAN. ) SOLID_ANGLE_UNIT ( ) );
#170 = CYLINDRICAL_SURFACE ( 'NONE', #191, 10.00000000000000000 ) ;
#171 = AXIS2_PLACEMENT_3D ( 'NONE', #16, #279, #11 ) ;
#172 = ORIENTED_EDGE ( 'NONE', *, *, #200, .F. ) ;
#173 = VERTEX_POINT ( 'NONE', #88 ) ;
#174 = COLOUR_RGB ( '',0.7921568627450980005, 0.8196078431372548767, 0.9333333333333333481 ) ;
#175 = DIRECTION ( 'NONE',  ( -1.000000000000000000, -5.878304635907293472E-17, 0.000000000000000000 ) ) ;
#176 = DIRECTION ( 'NONE',  ( -1.000000000000000000, 0.000000000000000000, 0.000000000000000000 ) ) ;
#177 = ORIENTED_EDGE ( 'NONE', *, *, #148, .T. ) ;
#178 = CARTESIAN_POINT ( 'NONE',  ( 0.000000000000000000, 0.000000000000000000, 0.000000000000000000 ) ) ;
#179 = AXIS2_PLACEMENT_3D ( 'NONE', #33, #145, #83 ) ;
#180 = DIRECTION ( 'NONE',  ( 1.000000000000000000, 5.878304635907293472E-17, 0.000000000000000000 ) ) ;
#181 = CYLINDRICAL_SURFACE ( 'NONE', #51, 10.00000000000000178 ) ;
#182 = DIRECTION ( 'NONE',  ( -1.000000000000000000, 0.000000000000000000, 0.000000000000000000 ) ) ;
#183 = MECHANICAL_DESIGN_GEOMETRIC_PRESENTATION_REPRESENTATION (  '', ( #265 ), #5 ) ;
#184 = DIRECTION ( 'NONE',  ( -5.878304635907293472E-17, 1.000000000000000000, -0.000000000000000000 ) ) ;
#185 = ADVANCED_FACE ( 'NONE', ( #260 ), #263, .F. ) ;
#186 = DIRECTION ( 'NONE',  ( -1.000000000000000000, 0.000000000000000000, 0.000000000000000000 ) ) ;
#187 =( LENGTH_UNIT ( ) NAMED_UNIT ( * ) SI_UNIT ( .MILLI., .METRE. ) );
#188 = CARTESIAN_POINT ( 'NONE',  ( 10.00000000000000000, 124.9999999999999858, 1.224646799147353651E-15 ) ) ;
#189 =( NAMED_UNIT ( * ) PLANE_ANGLE_UNIT ( ) SI_UNIT ( $, .RADIAN. ) );
#190 = ADVANCED_FACE ( 'NONE', ( #221 ), #39, .T. ) ;
#191 = AXIS2_PLACEMENT_3D ( 'NONE', #62, #268, #230 ) ;
#192 = AXIS2_PLACEMENT_3D ( 'NONE', #17, #119, #111 ) ;
#193 = CARTESIAN_POINT ( 'NONE',  ( 0.000000000000000000, 0.000000000000000000, 0.000000000000000000 ) ) ;
#194 = UNCERTAINTY_MEASURE_WITH_UNIT (LENGTH_MEASURE( 1.000000000000000082E-05 ), #187, 'distance_accuracy_value', 'NONE');
#195 =( NAMED_UNIT ( * ) SI_UNIT ( $, .STERADIAN. ) SOLID_ANGLE_UNIT ( ) );
#196 = LINE ( 'NONE', #281, #249 ) ;
#197 = VERTEX_POINT ( 'NONE', #264 ) ;
#198 = CIRCLE ( 'NONE', #160, 10.00000000000000000 ) ;
#199 =( LENGTH_UNIT ( ) NAMED_UNIT ( * ) SI_UNIT ( .MILLI., .METRE. ) );
#200 = EDGE_CURVE ( 'NONE', #85, #201, #259, .T. ) ;
#201 = VERTEX_POINT ( 'NONE', #84 ) ;
#202 = CARTESIAN_POINT ( 'NONE',  ( 1.224646799147353256E-15, 0.000000000000000000, 10.00000000000000000 ) ) ;
#203 = ADVANCED_FACE ( 'NONE', ( #212 ), #181, .T. ) ;
#204 = ORIENTED_EDGE ( 'NONE', *, *, #73, .F. ) ;
#205 = APPLICATION_CONTEXT ( 'automotive_design' ) ;
#206 = PRESENTATION_LAYER_ASSIGNMENT (  '', '', ( #91 ) ) ;
#207 = CYLINDRICAL_SURFACE ( 'NONE', #19, 10.00000000000000178 ) ;
#208 = APPLICATION_PROTOCOL_DEFINITION ( 'draft international standard', 'automotive_design', 1998, #205 ) ;
#209 = STYLED_ITEM ( 'NONE', ( #110 ), #35 ) ;
#210 = ORIENTED_EDGE ( 'NONE', *, *, #66, .F. ) ;
#211 =( GEOMETRIC_REPRESENTATION_CONTEXT ( 3 ) GLOBAL_UNCERTAINTY_ASSIGNED_CONTEXT ( ( #122 ) ) GLOBAL_UNIT_ASSIGNED_CONTEXT ( ( #141, #246, #252 ) ) REPRESENTATION_CONTEXT ( 'NONE', 'WORKASPACE' ) );
#212 = FACE_OUTER_BOUND ( 'NONE', #270, .T. ) ;
#213 = PLANE ( 'NONE',  #192 ) ;
#214 = EDGE_LOOP ( 'NONE', ( #50, #204 ) ) ;
#215 = MECHANICAL_DESIGN_GEOMETRIC_PRESENTATION_REPRESENTATION (  '', ( #280 ), #87 ) ;
#216 = SURFACE_SIDE_STYLE ('',( #127 ) ) ;
#217 = COLOUR_RGB ( '',1.000000000000000000, 0.000000000000000000, 0.000000000000000000 ) ;
#218 = AXIS2_PLACEMENT_3D ( 'NONE', #133, #42, #223 ) ;
#219 = SURFACE_SIDE_STYLE ('',( #9 ) ) ;
#220 = DIRECTION ( 'NONE',  ( 0.000000000000000000, -0.000000000000000000, 1.000000000000000000 ) ) ;
#221 = FACE_OUTER_BOUND ( 'NONE', #261, .T. ) ;
#222 = PRESENTATION_STYLE_ASSIGNMENT (( #153 ) ) ;
#223 = DIRECTION ( 'NONE',  ( 0.000000000000000000, 0.000000000000000000, -1.000000000000000000 ) ) ;
#224 = CARTESIAN_POINT ( 'NONE',  ( 0.000000000000000000, 0.000000000000000000, -10.00000000000000000 ) ) ;
#225 = CARTESIAN_POINT ( 'NONE',  ( 0.000000000000000000, 50.00000000000000000, -10.00000000000000000 ) ) ;
#226 = CIRCLE ( 'NONE', #262, 10.00000000000000533 ) ;
#227 = ORIENTED_EDGE ( 'NONE', *, *, #243, .T. ) ;
#228 = FILL_AREA_STYLE ('',( #1 ) ) ;
#229 = CIRCLE ( 'NONE', #218, 10.00000000000000000 ) ;
#230 = DIRECTION ( 'NONE',  ( 0.000000000000000000, 0.000000000000000000, -1.000000000000000000 ) ) ;
#231 = EDGE_CURVE ( 'NONE', #201, #85, #229, .T. ) ;
#232 = PRESENTATION_STYLE_ASSIGNMENT (( #103 ) ) ;
#233 = ORIENTED_EDGE ( 'NONE', *, *, #121, .F. ) ;
#234 = CARTESIAN_POINT ( 'NONE',  ( 1.727723269626458946E-32, 50.00000000000000000, 0.000000000000000000 ) ) ;
#235 = COLOUR_RGB ( '',0.7921568627450980005, 0.8196078431372548767, 0.9333333333333333481 ) ;
#236 = PRODUCT_DEFINITION ( 'UNKNOWN', '', #102, #155 ) ;
#237 = CARTESIAN_POINT ( 'NONE',  ( 0.000000000000000000, 0.000000000000000000, 0.000000000000000000 ) ) ;
#238 = CIRCLE ( 'NONE', #126, 10.00000000000000533 ) ;
#239 =( NAMED_UNIT ( * ) PLANE_ANGLE_UNIT ( ) SI_UNIT ( $, .RADIAN. ) );
#240 = ORIENTED_EDGE ( 'NONE', *, *, #121, .T. ) ;
#241 = CARTESIAN_POINT ( 'NONE',  ( 0.000000000000000000, 50.00000000000000000, 0.000000000000000000 ) ) ;
#242 =( NAMED_UNIT ( * ) PLANE_ANGLE_UNIT ( ) SI_UNIT ( $, .RADIAN. ) );
#243 = EDGE_CURVE ( 'NONE', #201, #273, #159, .T. ) ;
#244 = DIRECTION ( 'NONE',  ( 5.878304635907293472E-17, -1.000000000000000000, 0.000000000000000000 ) ) ;
#245 =( LENGTH_UNIT ( ) NAMED_UNIT ( * ) SI_UNIT ( .MILLI., .METRE. ) );
#246 =( NAMED_UNIT ( * ) PLANE_ANGLE_UNIT ( ) SI_UNIT ( $, .RADIAN. ) );
#247 = FILL_AREA_STYLE_COLOUR ( '', #64 ) ;
#248 = CLOSED_SHELL ( 'NONE', ( #95, #107, #203, #185 ) ) ;
#249 = VECTOR ( 'NONE', #41, 1000.000000000000000 ) ;
#250 = DIRECTION ( 'NONE',  ( -5.878304635907293472E-17, 1.000000000000000000, -0.000000000000000000 ) ) ;
#251 = ADVANCED_FACE ( 'NONE', ( #282 ), #213, .T. ) ;
#252 =( NAMED_UNIT ( * ) SI_UNIT ( $, .STERADIAN. ) SOLID_ANGLE_UNIT ( ) );
#253 = CLOSED_SHELL ( 'NONE', ( #32, #190, #131, #251 ) ) ;
#254 = MECHANICAL_DESIGN_GEOMETRIC_PRESENTATION_REPRESENTATION (  '', ( #209 ), #38 ) ;
#255 = VERTEX_POINT ( 'NONE', #267 ) ;
#256 = FILL_AREA_STYLE_COLOUR ( '', #235 ) ;
#257 =( NAMED_UNIT ( * ) PLANE_ANGLE_UNIT ( ) SI_UNIT ( $, .RADIAN. ) );
#258 = EDGE_LOOP ( 'NONE', ( #152, #2, #164, #144 ) ) ;
#259 = CIRCLE ( 'NONE', #171, 10.00000000000000000 ) ;
#260 = FACE_OUTER_BOUND ( 'NONE', #74, .T. ) ;
#261 = EDGE_LOOP ( 'NONE', ( #172, #6 ) ) ;
#262 = AXIS2_PLACEMENT_3D ( 'NONE', #137, #4, #288 ) ;
#263 = PLANE ( 'NONE',  #166 ) ;
#264 = CARTESIAN_POINT ( 'NONE',  ( -10.00000000000000000, 50.00000000000000000, 0.000000000000000000 ) ) ;
#265 = STYLED_ITEM ( 'NONE', ( #149 ), #131 ) ;
#266 = DIRECTION ( 'NONE',  ( -1.000000000000000000, 0.000000000000000000, 0.000000000000000000 ) ) ;
#267 = CARTESIAN_POINT ( 'NONE',  ( 0.000000000000000000, 0.000000000000000000, -10.00000000000000000 ) ) ;
#268 = DIRECTION ( 'NONE',  ( -0.000000000000000000, -1.000000000000000000, -0.000000000000000000 ) ) ;
#269 = CARTESIAN_POINT ( 'NONE',  ( -10.00000000000000711, 124.9999999999999858, 0.000000000000000000 ) ) ;
#270 = EDGE_LOOP ( 'NONE', ( #124, #23, #146, #210 ) ) ;
#271 =( GEOMETRIC_REPRESENTATION_CONTEXT ( 3 ) GLOBAL_UNCERTAINTY_ASSIGNED_CONTEXT ( ( #53 ) ) GLOBAL_UNIT_ASSIGNED_CONTEXT ( ( #40, #242, #70 ) ) REPRESENTATION_CONTEXT ( 'NONE', 'WORKASPACE' ) );
#272 = UNCERTAINTY_MEASURE_WITH_UNIT (LENGTH_MEASURE( 1.000000000000000082E-05 ), #199, 'distance_accuracy_value', 'NONE');
#273 = VERTEX_POINT ( 'NONE', #287 ) ;
#274 = EDGE_LOOP ( 'NONE', ( #10, #77 ) ) ;
#275 = FILL_AREA_STYLE ('',( #256 ) ) ;
#276 = EDGE_CURVE ( 'NONE', #197, #117, #76, .T. ) ;
#277 =( LENGTH_UNIT ( ) NAMED_UNIT ( * ) SI_UNIT ( .MILLI., .METRE. ) );
#278 = PRESENTATION_LAYER_ASSIGNMENT (  '', '', ( #280 ) ) ;
#279 = DIRECTION ( 'NONE',  ( -0.000000000000000000, -1.000000000000000000, -0.000000000000000000 ) ) ;
#280 = STYLED_ITEM ( 'NONE', ( #232 ), #140 ) ;
#281 = CARTESIAN_POINT ( 'NONE',  ( 9.999999999999996447, 124.9999999999999858, 1.224646799147353454E-15 ) ) ;
#282 = FACE_OUTER_BOUND ( 'NONE', #274, .T. ) ;
#283 = SURFACE_SIDE_STYLE ('',( #27 ) ) ;
#284 = PRESENTATION_LAYER_ASSIGNMENT (  '', '', ( #25 ) ) ;
#285 = CARTESIAN_POINT ( 'NONE',  ( -4.408728476930469278E-15, 124.9999999999999858, 0.000000000000000000 ) ) ;
#286 = EDGE_CURVE ( 'NONE', #197, #173, #21, .T. ) ;
#287 = CARTESIAN_POINT ( 'NONE',  ( 1.224646799147353256E-15, 0.000000000000000000, 10.00000000000000000 ) ) ;
#288 = DIRECTION ( 'NONE',  ( -1.000000000000000000, 0.000000000000000000, 0.000000000000000000 ) ) ;
ENDSEC;
END-ISO-10303-21;
