ISO-10303-21;
HEADER;
FILE_DESCRIPTION (( 'STEP AP214' ),
    '1' );
FILE_NAME ('Micro_SEM-312-02.STEP',
    '2021-09-02T02:46:03',
    ( '' ),
    ( '' ),
    'SwSTEP 2.0',
    'SolidWorks 2020',
    '' );
FILE_SCHEMA (( 'AUTOMOTIVE_DESIGN' ));
ENDSEC;

DATA;
#1 = CARTESIAN_POINT ( 'NONE',  ( 0.0000000000000000000, 0.0000000000000000000, 2.000000000000000000 ) ) ;
#2 = EDGE_CURVE ( 'NONE', #9, #263, #162, .T. ) ;
#3 = DIRECTION ( 'NONE',  ( -1.224646799147353207E-16, -0.0000000000000000000, -1.000000000000000000 ) ) ;
#4 = DIRECTION ( 'NONE',  ( -1.000000000000000000, 0.0000000000000000000, 0.0000000000000000000 ) ) ;
#5 = LINE ( 'NONE', #252, #144 ) ;
#6 =( CONVERSION_BASED_UNIT ( 'INCH', #227 ) LENGTH_UNIT ( ) NAMED_UNIT ( #46 ) );
#7 = ADVANCED_BREP_SHAPE_REPRESENTATION ( 'Micro_SEM-312-02', ( #172, #93 ), #271 ) ;
#8 = APPLICATION_CONTEXT ( 'automotive_design' ) ;
#9 = VERTEX_POINT ( 'NONE', #121 ) ;
#10 = DIRECTION ( 'NONE',  ( 0.0000000000000000000, 0.0000000000000000000, 1.000000000000000000 ) ) ;
#11 = ORIENTED_EDGE ( 'NONE', *, *, #248, .T. ) ;
#12 = FACE_OUTER_BOUND ( 'NONE', #17, .T. ) ;
#13 = SURFACE_STYLE_USAGE ( .BOTH. , #111 ) ;
#14 = ORIENTED_EDGE ( 'NONE', *, *, #81, .F. ) ;
#15 = EDGE_CURVE ( 'NONE', #287, #297, #16, .T. ) ;
#16 = LINE ( 'NONE', #114, #200 ) ;
#17 = EDGE_LOOP ( 'NONE', ( #11, #94, #244, #225 ) ) ;
#18 = CARTESIAN_POINT ( 'NONE',  ( 0.1562500000000000000, 1.913510623667739463E-17, 2.000000000000000000 ) ) ;
#19 = DIRECTION ( 'NONE',  ( -0.7071067811865475727, 0.0000000000000000000, -0.7071067811865474617 ) ) ;
#20 = ADVANCED_FACE ( 'NONE', ( #163 ), #90, .F. ) ;
#21 = DIRECTION ( 'NONE',  ( -1.000000000000000000, 0.0000000000000000000, 0.0000000000000000000 ) ) ;
#22 = LINE ( 'NONE', #49, #169 ) ;
#23 = DIRECTION ( 'NONE',  ( -1.000000000000000000, 0.0000000000000000000, 0.0000000000000000000 ) ) ;
#24 = CARTESIAN_POINT ( 'NONE',  ( 0.1560937500000000311, 0.0000000000000000000, 0.5000000000000000000 ) ) ;
#25 = DIRECTION ( 'NONE',  ( -1.224646799147353207E-16, -0.0000000000000000000, -1.000000000000000000 ) ) ;
#26 = CARTESIAN_POINT ( 'NONE',  ( 0.0000000000000000000, 0.0000000000000000000, 2.000000000000000000 ) ) ;
#27 = CARTESIAN_POINT ( 'NONE',  ( -0.1562500000000000000, 0.0000000000000000000, 2.000000000000000000 ) ) ;
#28 = ORIENTED_EDGE ( 'NONE', *, *, #85, .F. ) ;
#29 =( LENGTH_UNIT ( ) NAMED_UNIT ( * ) SI_UNIT ( $, .METRE. ) );
#30 = EDGE_LOOP ( 'NONE', ( #289, #60, #154, #28 ) ) ;
#31 = LENGTH_MEASURE_WITH_UNIT ( LENGTH_MEASURE( 0.02539999999999999897 ), #59 );
#32 =( GEOMETRIC_REPRESENTATION_CONTEXT ( 3 ) GLOBAL_UNCERTAINTY_ASSIGNED_CONTEXT ( ( #101 ) ) GLOBAL_UNIT_ASSIGNED_CONTEXT ( ( #6, #158, #37 ) ) REPRESENTATION_CONTEXT ( 'NONE', 'WORKASPACE' ) );
#33 = CARTESIAN_POINT ( 'NONE',  ( 0.0000000000000000000, 0.0000000000000000000, 2.000000000000000000 ) ) ;
#34 = ORIENTED_EDGE ( 'NONE', *, *, #147, .F. ) ;
#35 = PRODUCT_CONTEXT ( 'NONE', #8, 'mechanical' ) ;
#36 = ORIENTED_EDGE ( 'NONE', *, *, #15, .F. ) ;
#37 =( NAMED_UNIT ( * ) SI_UNIT ( $, .STERADIAN. ) SOLID_ANGLE_UNIT ( ) );
#38 = AXIS2_PLACEMENT_3D ( 'NONE', #99, #190, #21 ) ;
#39 = ORIENTED_EDGE ( 'NONE', *, *, #15, .T. ) ;
#40 = APPLICATION_CONTEXT ( 'automotive_design' ) ;
#41 = DIMENSIONAL_EXPONENTS ( 1.000000000000000000, 0.0000000000000000000, 0.0000000000000000000, 0.0000000000000000000, 0.0000000000000000000, 0.0000000000000000000, 0.0000000000000000000 ) ;
#42 = ORIENTED_EDGE ( 'NONE', *, *, #69, .T. ) ;
#43 = DIRECTION ( 'NONE',  ( 1.000000000000000000, 0.0000000000000000000, -0.0000000000000000000 ) ) ;
#44 = LINE ( 'NONE', #18, #153 ) ;
#45 = DIRECTION ( 'NONE',  ( 0.0000000000000000000, 0.0000000000000000000, 1.000000000000000000 ) ) ;
#46 = DIMENSIONAL_EXPONENTS ( 1.000000000000000000, 0.0000000000000000000, 0.0000000000000000000, 0.0000000000000000000, 0.0000000000000000000, 0.0000000000000000000, 0.0000000000000000000 ) ;
#47 = DIRECTION ( 'NONE',  ( -1.224646799147353207E-16, -0.0000000000000000000, -1.000000000000000000 ) ) ;
#48 = DIRECTION ( 'NONE',  ( 0.0000000000000000000, 0.0000000000000000000, 1.000000000000000000 ) ) ;
#49 = CARTESIAN_POINT ( 'NONE',  ( -0.1560937499999999478, 0.0000000000000000000, 1.911597113044071073E-17 ) ) ;
#50 = COLOUR_RGB ( '',0.7921568627450980005, 0.8196078431372548767, 0.9333333333333333481 ) ;
#51 = CARTESIAN_POINT ( 'NONE',  ( 6.123233995736766036E-17, 0.0000000000000000000, 0.5000000000000000000 ) ) ;
#52 = ADVANCED_FACE ( 'NONE', ( #139 ), #128, .T. ) ;
#53 = PRODUCT_DEFINITION_CONTEXT ( 'detailed design', #40, 'design' ) ;
#54 = FACE_OUTER_BOUND ( 'NONE', #272, .T. ) ;
#55 = DIRECTION ( 'NONE',  ( 1.000000000000000000, 0.0000000000000000000, -0.0000000000000000000 ) ) ;
#56 = AXIS2_PLACEMENT_3D ( 'NONE', #73, #47, #74 ) ;
#57 = CARTESIAN_POINT ( 'NONE',  ( 0.0000000000000000000, 0.0000000000000000000, 1.984999999999999654 ) ) ;
#58 = ORIENTED_EDGE ( 'NONE', *, *, #199, .F. ) ;
#59 =( LENGTH_UNIT ( ) NAMED_UNIT ( * ) SI_UNIT ( $, .METRE. ) );
#60 = ORIENTED_EDGE ( 'NONE', *, *, #216, .T. ) ;
#61 = LENGTH_MEASURE_WITH_UNIT ( LENGTH_MEASURE( 0.02539999999999999897 ), #29 );
#62 = PRODUCT_DEFINITION_SHAPE ( 'NONE', 'NONE',  #119 ) ;
#63 = DIRECTION ( 'NONE',  ( 1.000000000000000000, 0.0000000000000000000, 0.0000000000000000000 ) ) ;
#64 = AXIS2_PLACEMENT_3D ( 'NONE', #33, #197, #86 ) ;
#65 = DIMENSIONAL_EXPONENTS ( 1.000000000000000000, 0.0000000000000000000, 0.0000000000000000000, 0.0000000000000000000, 0.0000000000000000000, 0.0000000000000000000, 0.0000000000000000000 ) ;
#66 = EDGE_LOOP ( 'NONE', ( #42, #95 ) ) ;
#67 = CARTESIAN_POINT ( 'NONE',  ( 2.341031285748743514E-33, 0.0000000000000000000, 1.911597113044071690E-17 ) ) ;
#68 = DIRECTION ( 'NONE',  ( -1.224646799147353207E-16, -0.0000000000000000000, -1.000000000000000000 ) ) ;
#69 = EDGE_CURVE ( 'NONE', #110, #263, #174, .T. ) ;
#70 = AXIS2_PLACEMENT_3D ( 'NONE', #249, #159, #245 ) ;
#71 = MECHANICAL_DESIGN_GEOMETRIC_PRESENTATION_REPRESENTATION (  '', ( #202 ), #265 ) ;
#72 = ORIENTED_EDGE ( 'NONE', *, *, #188, .F. ) ;
#73 = CARTESIAN_POINT ( 'NONE',  ( 6.123233995736766036E-17, 0.0000000000000000000, 0.5000000000000000000 ) ) ;
#74 = DIRECTION ( 'NONE',  ( -1.000000000000000000, 0.0000000000000000000, 0.0000000000000000000 ) ) ;
#75 = UNCERTAINTY_MEASURE_WITH_UNIT (LENGTH_MEASURE( 1.000000000000000082E-05 ), #134, 'distance_accuracy_value', 'NONE');
#76 = FACE_OUTER_BOUND ( 'NONE', #266, .T. ) ;
#77 = CONICAL_SURFACE ( 'NONE', #299, 0.1412499999999997646, 0.7853981633974482790 ) ;
#78 = PRESENTATION_LAYER_ASSIGNMENT (  '', '', ( #202 ) ) ;
#79 = CLOSED_SHELL ( 'NONE', ( #290, #96, #170, #228, #180, #118, #236, #52, #140, #20 ) ) ;
#80 = DIRECTION ( 'NONE',  ( 0.0000000000000000000, 0.0000000000000000000, -1.000000000000000000 ) ) ;
#81 = EDGE_CURVE ( 'NONE', #297, #179, #160, .T. ) ;
#82 = ORIENTED_EDGE ( 'NONE', *, *, #127, .T. ) ;
#83 = AXIS2_PLACEMENT_3D ( 'NONE', #168, #256, #23 ) ;
#84 = ORIENTED_EDGE ( 'NONE', *, *, #127, .F. ) ;
#85 = EDGE_CURVE ( 'NONE', #263, #110, #116, .T. ) ;
#86 = DIRECTION ( 'NONE',  ( 1.000000000000000000, 0.0000000000000000000, 0.0000000000000000000 ) ) ;
#87 = CYLINDRICAL_SURFACE ( 'NONE', #234, 0.1560937499999999478 ) ;
#88 = STYLED_ITEM ( 'NONE', ( #105 ), #172 ) ;
#89 = SHAPE_DEFINITION_REPRESENTATION ( #62, #7 ) ;
#90 = PLANE ( 'NONE',  #226 ) ;
#91 = DIRECTION ( 'NONE',  ( -1.000000000000000000, 0.0000000000000000000, 1.224646799147353454E-16 ) ) ;
#92 = AXIS2_PLACEMENT_3D ( 'NONE', #97, #204, #63 ) ;
#93 = AXIS2_PLACEMENT_3D ( 'NONE', #238, #10, #286 ) ;
#94 = ORIENTED_EDGE ( 'NONE', *, *, #2, .T. ) ;
#95 = ORIENTED_EDGE ( 'NONE', *, *, #85, .T. ) ;
#96 = ADVANCED_FACE ( 'NONE', ( #164 ), #183, .T. ) ;
#97 = CARTESIAN_POINT ( 'NONE',  ( 6.123233995736766036E-17, 0.0000000000000000000, 0.5000000000000000000 ) ) ;
#98 = CIRCLE ( 'NONE', #56, 0.1560937499999999478 ) ;
#99 = CARTESIAN_POINT ( 'NONE',  ( 0.0000000000000000000, 0.0000000000000000000, 2.000000000000000000 ) ) ;
#100 = DIRECTION ( 'NONE',  ( -1.000000000000000000, 0.0000000000000000000, 1.224646799147353207E-16 ) ) ;
#101 = UNCERTAINTY_MEASURE_WITH_UNIT (LENGTH_MEASURE( 1.000000000000000082E-05 ), #6, 'distance_accuracy_value', 'NONE');
#102 = AXIS2_PLACEMENT_3D ( 'NONE', #273, #268, #293 ) ;
#103 = FACE_OUTER_BOUND ( 'NONE', #30, .T. ) ;
#104 = DIRECTION ( 'NONE',  ( -0.0000000000000000000, -0.0000000000000000000, -1.000000000000000000 ) ) ;
#105 = PRESENTATION_STYLE_ASSIGNMENT (( #211 ) ) ;
#106 = CARTESIAN_POINT ( 'NONE',  ( -0.1562499999999999445, 0.0000000000000000000, 0.5008861377843155660 ) ) ;
#107 = EDGE_CURVE ( 'NONE', #203, #201, #276, .T. ) ;
#108 = CIRCLE ( 'NONE', #192, 0.1560937499999999478 ) ;
#109 = EDGE_CURVE ( 'NONE', #179, #201, #44, .T. ) ;
#110 = VERTEX_POINT ( 'NONE', #229 ) ;
#111 = SURFACE_SIDE_STYLE ('',( #264 ) ) ;
#112 = VECTOR ( 'NONE', #122, 39.37007874015748143 ) ;
#113 = VERTEX_POINT ( 'NONE', #212 ) ;
#114 = CARTESIAN_POINT ( 'NONE',  ( -0.1412499999999997646, 0.0000000000000000000, 2.000000000000000000 ) ) ;
#115 = EDGE_LOOP ( 'NONE', ( #176, #120, #230, #292 ) ) ;
#116 = CIRCLE ( 'NONE', #269, 0.1560937499999999756 ) ;
#117 = VECTOR ( 'NONE', #104, 39.37007874015748143 ) ;
#118 = ADVANCED_FACE ( 'NONE', ( #214 ), #171, .T. ) ;
#119 = PRODUCT_DEFINITION ( 'UNKNOWN', '', #294, #53 ) ;
#120 = ORIENTED_EDGE ( 'NONE', *, *, #278, .T. ) ;
#121 = CARTESIAN_POINT ( 'NONE',  ( 0.1560937500000000311, 0.0000000000000000000, 0.5000000000000000000 ) ) ;
#122 = DIRECTION ( 'NONE',  ( 0.1736481776669314414, 0.0000000000000000000, 0.9848077530122077983 ) ) ;
#123 = AXIS2_PLACEMENT_3D ( 'NONE', #146, #3, #193 ) ;
#124 = FILL_AREA_STYLE_COLOUR ( '', #221 ) ;
#125 = DIRECTION ( 'NONE',  ( -1.000000000000000000, 0.0000000000000000000, 0.0000000000000000000 ) ) ;
#126 = CYLINDRICAL_SURFACE ( 'NONE', #196, 0.1562500000000000000 ) ;
#127 = EDGE_CURVE ( 'NONE', #9, #201, #167, .T. ) ;
#128 = CONICAL_SURFACE ( 'NONE', #242, 0.1560937499999999478, 0.1745329251994339470 ) ;
#129 = DIRECTION ( 'NONE',  ( 0.0000000000000000000, 0.0000000000000000000, -1.000000000000000000 ) ) ;
#130 = FACE_OUTER_BOUND ( 'NONE', #115, .T. ) ;
#131 = DIRECTION ( 'NONE',  ( 1.000000000000000000, 0.0000000000000000000, 0.0000000000000000000 ) ) ;
#132 = UNCERTAINTY_MEASURE_WITH_UNIT (LENGTH_MEASURE( 1.000000000000000082E-05 ), #178, 'distance_accuracy_value', 'NONE');
#133 = FILL_AREA_STYLE ('',( #150 ) ) ;
#134 =( CONVERSION_BASED_UNIT ( 'INCH', #31 ) LENGTH_UNIT ( ) NAMED_UNIT ( #65 ) );
#135 = ORIENTED_EDGE ( 'NONE', *, *, #278, .F. ) ;
#136 = CARTESIAN_POINT ( 'NONE',  ( -0.1412499999999997646, 0.0000000000000000000, 2.000000000000000000 ) ) ;
#137 = CIRCLE ( 'NONE', #123, 0.1562500000000000000 ) ;
#138 = EDGE_LOOP ( 'NONE', ( #34, #223, #14, #36 ) ) ;
#139 = FACE_OUTER_BOUND ( 'NONE', #187, .T. ) ;
#140 = ADVANCED_FACE ( 'NONE', ( #103 ), #253, .T. ) ;
#141 = CARTESIAN_POINT ( 'NONE',  ( 6.123233995736766036E-17, 0.0000000000000000000, 0.5000000000000000000 ) ) ;
#142 = DIRECTION ( 'NONE',  ( -0.0000000000000000000, -0.0000000000000000000, -1.000000000000000000 ) ) ;
#143 = VECTOR ( 'NONE', #165, 39.37007874015748143 ) ;
#144 = VECTOR ( 'NONE', #210, 39.37007874015748143 ) ;
#145 = DIRECTION ( 'NONE',  ( -1.224646799147353207E-16, -0.0000000000000000000, -1.000000000000000000 ) ) ;
#146 = CARTESIAN_POINT ( 'NONE',  ( 6.134086053748422198E-17, 0.0000000000000000000, 0.5008861377843155660 ) ) ;
#147 = EDGE_CURVE ( 'NONE', #113, #287, #184, .T. ) ;
#148 = EDGE_CURVE ( 'NONE', #251, #110, #22, .T. ) ;
#149 = DIRECTION ( 'NONE',  ( -1.224646799147353207E-16, -0.0000000000000000000, -1.000000000000000000 ) ) ;
#150 = FILL_AREA_STYLE_COLOUR ( '', #50 ) ;
#151 = ORIENTED_EDGE ( 'NONE', *, *, #198, .F. ) ;
#152 = DIRECTION ( 'NONE',  ( -1.000000000000000000, 0.0000000000000000000, 1.224646799147353207E-16 ) ) ;
#153 = VECTOR ( 'NONE', #142, 39.37007874015748143 ) ;
#154 = ORIENTED_EDGE ( 'NONE', *, *, #148, .T. ) ;
#155 =( NAMED_UNIT ( * ) SI_UNIT ( $, .STERADIAN. ) SOLID_ANGLE_UNIT ( ) );
#156 = ORIENTED_EDGE ( 'NONE', *, *, #107, .T. ) ;
#157 =( NAMED_UNIT ( * ) PLANE_ANGLE_UNIT ( ) SI_UNIT ( $, .RADIAN. ) );
#158 =( NAMED_UNIT ( * ) PLANE_ANGLE_UNIT ( ) SI_UNIT ( $, .RADIAN. ) );
#159 = DIRECTION ( 'NONE',  ( -1.224646799147353207E-16, -0.0000000000000000000, -1.000000000000000000 ) ) ;
#160 = CIRCLE ( 'NONE', #102, 0.1562500000000000000 ) ;
#161 = CONICAL_SURFACE ( 'NONE', #83, 0.1412499999999997646, 0.7853981633974482790 ) ;
#162 = LINE ( 'NONE', #291, #143 ) ;
#163 = FACE_OUTER_BOUND ( 'NONE', #66, .T. ) ;
#164 = FACE_OUTER_BOUND ( 'NONE', #224, .T. ) ;
#165 = DIRECTION ( 'NONE',  ( -1.224646799147353207E-16, -0.0000000000000000000, -1.000000000000000000 ) ) ;
#166 = CARTESIAN_POINT ( 'NONE',  ( 0.0000000000000000000, 0.0000000000000000000, 2.000000000000000000 ) ) ;
#167 = LINE ( 'NONE', #24, #112 ) ;
#168 = CARTESIAN_POINT ( 'NONE',  ( 0.0000000000000000000, 0.0000000000000000000, 2.000000000000000000 ) ) ;
#169 = VECTOR ( 'NONE', #145, 39.37007874015748143 ) ;
#170 = ADVANCED_FACE ( 'NONE', ( #208 ), #77, .T. ) ;
#171 = PLANE ( 'NONE',  #233 ) ;
#172 = MANIFOLD_SOLID_BREP ( 'Cut-Revolve1', #79 ) ;
#173 = CARTESIAN_POINT ( 'NONE',  ( 0.1562500000000000000, 1.913510623667739463E-17, 1.984999999999999654 ) ) ;
#174 = CIRCLE ( 'NONE', #195, 0.1560937499999999756 ) ;
#175 = CIRCLE ( 'NONE', #64, 0.1412499999999997646 ) ;
#176 = ORIENTED_EDGE ( 'NONE', *, *, #109, .F. ) ;
#177 = ORIENTED_EDGE ( 'NONE', *, *, #107, .F. ) ;
#178 =( CONVERSION_BASED_UNIT ( 'INCH', #61 ) LENGTH_UNIT ( ) NAMED_UNIT ( #41 ) );
#179 = VERTEX_POINT ( 'NONE', #173 ) ;
#180 = ADVANCED_FACE ( 'NONE', ( #130 ), #259, .T. ) ;
#181 = DIRECTION ( 'NONE',  ( 1.224646799147353207E-16, 0.0000000000000000000, 1.000000000000000000 ) ) ;
#182 = DIRECTION ( 'NONE',  ( 1.000000000000000000, 0.0000000000000000000, 0.0000000000000000000 ) ) ;
#183 = CONICAL_SURFACE ( 'NONE', #92, 0.1560937499999999478, 0.1745329251994339470 ) ;
#184 = CIRCLE ( 'NONE', #213, 0.1412499999999997646 ) ;
#185 = ORIENTED_EDGE ( 'NONE', *, *, #248, .F. ) ;
#186 = DIRECTION ( 'NONE',  ( -1.224646799147353207E-16, -0.0000000000000000000, -1.000000000000000000 ) ) ;
#187 = EDGE_LOOP ( 'NONE', ( #72, #247, #82, #295 ) ) ;
#188 = EDGE_CURVE ( 'NONE', #251, #203, #189, .T. ) ;
#189 = LINE ( 'NONE', #191, #217 ) ;
#190 = DIRECTION ( 'NONE',  ( -0.0000000000000000000, -0.0000000000000000000, -1.000000000000000000 ) ) ;
#191 = CARTESIAN_POINT ( 'NONE',  ( -0.1560937499999998923, 1.911597113044071073E-17, 0.5000000000000000000 ) ) ;
#192 = AXIS2_PLACEMENT_3D ( 'NONE', #51, #25, #125 ) ;
#193 = DIRECTION ( 'NONE',  ( 1.000000000000000000, 0.0000000000000000000, 0.0000000000000000000 ) ) ;
#194 =( LENGTH_UNIT ( ) NAMED_UNIT ( * ) SI_UNIT ( $, .METRE. ) );
#195 = AXIS2_PLACEMENT_3D ( 'NONE', #206, #186, #246 ) ;
#196 = AXIS2_PLACEMENT_3D ( 'NONE', #166, #254, #275 ) ;
#197 = DIRECTION ( 'NONE',  ( 0.0000000000000000000, 0.0000000000000000000, 1.000000000000000000 ) ) ;
#198 = EDGE_CURVE ( 'NONE', #113, #179, #5, .T. ) ;
#199 = EDGE_CURVE ( 'NONE', #297, #203, #274, .T. ) ;
#200 = VECTOR ( 'NONE', #19, 39.37007874015748143 ) ;
#201 = VERTEX_POINT ( 'NONE', #260 ) ;
#202 = STYLED_ITEM ( 'NONE', ( #281 ), #7 ) ;
#203 = VERTEX_POINT ( 'NONE', #106 ) ;
#204 = DIRECTION ( 'NONE',  ( 1.224646799147353207E-16, 0.0000000000000000000, 1.000000000000000000 ) ) ;
#205 = CARTESIAN_POINT ( 'NONE',  ( 0.0000000000000000000, 0.0000000000000000000, 0.0000000000000000000 ) ) ;
#206 = CARTESIAN_POINT ( 'NONE',  ( 2.341031285748743514E-33, 0.0000000000000000000, 1.911597113044071690E-17 ) ) ;
#207 = EDGE_LOOP ( 'NONE', ( #237, #285 ) ) ;
#208 = FACE_OUTER_BOUND ( 'NONE', #138, .T. ) ;
#209 = PRESENTATION_LAYER_ASSIGNMENT (  '', '', ( #88 ) ) ;
#210 = DIRECTION ( 'NONE',  ( 0.7071067811865475727, 8.659560562354932858E-17, -0.7071067811865474617 ) ) ;
#211 = SURFACE_STYLE_USAGE ( .BOTH. , #280 ) ;
#212 = CARTESIAN_POINT ( 'NONE',  ( 0.1412499999999997646, 1.821662113731686019E-17, 2.000000000000000000 ) ) ;
#213 = AXIS2_PLACEMENT_3D ( 'NONE', #235, #258, #255 ) ;
#214 = FACE_OUTER_BOUND ( 'NONE', #207, .T. ) ;
#215 = DIRECTION ( 'NONE',  ( -0.1736481776669312194, 2.126576849575783625E-17, 0.9848077530122077983 ) ) ;
#216 = EDGE_CURVE ( 'NONE', #9, #251, #98, .T. ) ;
#217 = VECTOR ( 'NONE', #215, 39.37007874015748143 ) ;
#218 = ORIENTED_EDGE ( 'NONE', *, *, #81, .T. ) ;
#219 =( NAMED_UNIT ( * ) SI_UNIT ( $, .STERADIAN. ) SOLID_ANGLE_UNIT ( ) );
#220 = DIRECTION ( 'NONE',  ( -1.224646799147353207E-16, -0.0000000000000000000, -1.000000000000000000 ) ) ;
#221 = COLOUR_RGB ( '',0.7921568627450980005, 0.8196078431372548767, 0.9333333333333333481 ) ;
#222 = APPLICATION_PROTOCOL_DEFINITION ( 'draft international standard', 'automotive_design', 1998, #40 ) ;
#223 = ORIENTED_EDGE ( 'NONE', *, *, #198, .T. ) ;
#224 = EDGE_LOOP ( 'NONE', ( #185, #282, #156, #84 ) ) ;
#225 = ORIENTED_EDGE ( 'NONE', *, *, #148, .F. ) ;
#226 = AXIS2_PLACEMENT_3D ( 'NONE', #205, #45, #43 ) ;
#227 = LENGTH_MEASURE_WITH_UNIT ( LENGTH_MEASURE( 0.02539999999999999897 ), #194 );
#228 = ADVANCED_FACE ( 'NONE', ( #54 ), #126, .T. ) ;
#229 = CARTESIAN_POINT ( 'NONE',  ( -0.1560937499999999756, 0.0000000000000000000, 3.823194226088143379E-17 ) ) ;
#230 = ORIENTED_EDGE ( 'NONE', *, *, #199, .T. ) ;
#231 = SURFACE_STYLE_FILL_AREA ( #298 ) ;
#232 = CARTESIAN_POINT ( 'NONE',  ( 0.0000000000000000000, 0.0000000000000000000, 0.0000000000000000000 ) ) ;
#233 = AXIS2_PLACEMENT_3D ( 'NONE', #1, #48, #55 ) ;
#234 = AXIS2_PLACEMENT_3D ( 'NONE', #283, #220, #152 ) ;
#235 = CARTESIAN_POINT ( 'NONE',  ( 0.0000000000000000000, 0.0000000000000000000, 2.000000000000000000 ) ) ;
#236 = ADVANCED_FACE ( 'NONE', ( #76 ), #161, .T. ) ;
#237 = ORIENTED_EDGE ( 'NONE', *, *, #267, .T. ) ;
#238 = CARTESIAN_POINT ( 'NONE',  ( 0.0000000000000000000, 0.0000000000000000000, 0.0000000000000000000 ) ) ;
#239 = ORIENTED_EDGE ( 'NONE', *, *, #109, .T. ) ;
#240 = CARTESIAN_POINT ( 'NONE',  ( -0.1562500000000000000, 0.0000000000000000000, 1.984999999999999654 ) ) ;
#241 = PRODUCT_RELATED_PRODUCT_CATEGORY ( 'part', '', ( #296 ) ) ;
#242 = AXIS2_PLACEMENT_3D ( 'NONE', #141, #181, #182 ) ;
#243 = APPLICATION_PROTOCOL_DEFINITION ( 'draft international standard', 'automotive_design', 1998, #8 ) ;
#244 = ORIENTED_EDGE ( 'NONE', *, *, #69, .F. ) ;
#245 = DIRECTION ( 'NONE',  ( 1.000000000000000000, 0.0000000000000000000, 0.0000000000000000000 ) ) ;
#246 = DIRECTION ( 'NONE',  ( -1.000000000000000000, 0.0000000000000000000, 1.224646799147353454E-16 ) ) ;
#247 = ORIENTED_EDGE ( 'NONE', *, *, #216, .F. ) ;
#248 = EDGE_CURVE ( 'NONE', #251, #9, #108, .T. ) ;
#249 = CARTESIAN_POINT ( 'NONE',  ( 6.134086053748422198E-17, 0.0000000000000000000, 0.5008861377843155660 ) ) ;
#250 = MECHANICAL_DESIGN_GEOMETRIC_PRESENTATION_REPRESENTATION (  '', ( #88 ), #32 ) ;
#251 = VERTEX_POINT ( 'NONE', #277 ) ;
#252 = CARTESIAN_POINT ( 'NONE',  ( 0.1412499999999997646, 1.729813603795632883E-17, 2.000000000000000000 ) ) ;
#253 = CYLINDRICAL_SURFACE ( 'NONE', #262, 0.1560937499999999478 ) ;
#254 = DIRECTION ( 'NONE',  ( -0.0000000000000000000, -0.0000000000000000000, -1.000000000000000000 ) ) ;
#255 = DIRECTION ( 'NONE',  ( 1.000000000000000000, 0.0000000000000000000, 0.0000000000000000000 ) ) ;
#256 = DIRECTION ( 'NONE',  ( 0.0000000000000000000, 0.0000000000000000000, -1.000000000000000000 ) ) ;
#257 = AXIS2_PLACEMENT_3D ( 'NONE', #57, #80, #131 ) ;
#258 = DIRECTION ( 'NONE',  ( 0.0000000000000000000, 0.0000000000000000000, 1.000000000000000000 ) ) ;
#259 = CYLINDRICAL_SURFACE ( 'NONE', #38, 0.1562500000000000000 ) ;
#260 = CARTESIAN_POINT ( 'NONE',  ( 0.1562500000000000833, 1.913510623667740080E-17, 0.5008861377843155660 ) ) ;
#261 = EDGE_CURVE ( 'NONE', #201, #203, #137, .T. ) ;
#262 = AXIS2_PLACEMENT_3D ( 'NONE', #232, #149, #100 ) ;
#263 = VERTEX_POINT ( 'NONE', #279 ) ;
#264 = SURFACE_STYLE_FILL_AREA ( #133 ) ;
#265 =( GEOMETRIC_REPRESENTATION_CONTEXT ( 3 ) GLOBAL_UNCERTAINTY_ASSIGNED_CONTEXT ( ( #75 ) ) GLOBAL_UNIT_ASSIGNED_CONTEXT ( ( #134, #288, #155 ) ) REPRESENTATION_CONTEXT ( 'NONE', 'WORKASPACE' ) );
#266 = EDGE_LOOP ( 'NONE', ( #151, #270, #39, #135 ) ) ;
#267 = EDGE_CURVE ( 'NONE', #287, #113, #175, .T. ) ;
#268 = DIRECTION ( 'NONE',  ( 0.0000000000000000000, 0.0000000000000000000, -1.000000000000000000 ) ) ;
#269 = AXIS2_PLACEMENT_3D ( 'NONE', #67, #68, #91 ) ;
#270 = ORIENTED_EDGE ( 'NONE', *, *, #267, .F. ) ;
#271 =( GEOMETRIC_REPRESENTATION_CONTEXT ( 3 ) GLOBAL_UNCERTAINTY_ASSIGNED_CONTEXT ( ( #132 ) ) GLOBAL_UNIT_ASSIGNED_CONTEXT ( ( #178, #157, #219 ) ) REPRESENTATION_CONTEXT ( 'NONE', 'WORKASPACE' ) );
#272 = EDGE_LOOP ( 'NONE', ( #218, #239, #177, #58 ) ) ;
#273 = CARTESIAN_POINT ( 'NONE',  ( 0.0000000000000000000, 0.0000000000000000000, 1.984999999999999654 ) ) ;
#274 = LINE ( 'NONE', #27, #117 ) ;
#275 = DIRECTION ( 'NONE',  ( -1.000000000000000000, 0.0000000000000000000, 0.0000000000000000000 ) ) ;
#276 = CIRCLE ( 'NONE', #70, 0.1562500000000000000 ) ;
#277 = CARTESIAN_POINT ( 'NONE',  ( -0.1560937499999998923, 1.912553868355905422E-17, 0.5000000000000000000 ) ) ;
#278 = EDGE_CURVE ( 'NONE', #179, #297, #284, .T. ) ;
#279 = CARTESIAN_POINT ( 'NONE',  ( 0.1560937499999999756, 1.911597113044071690E-17, 3.791200677927629740E-33 ) ) ;
#280 = SURFACE_SIDE_STYLE ('',( #231 ) ) ;
#281 = PRESENTATION_STYLE_ASSIGNMENT (( #13 ) ) ;
#282 = ORIENTED_EDGE ( 'NONE', *, *, #188, .T. ) ;
#283 = CARTESIAN_POINT ( 'NONE',  ( 0.0000000000000000000, 0.0000000000000000000, 0.0000000000000000000 ) ) ;
#284 = CIRCLE ( 'NONE', #257, 0.1562500000000000000 ) ;
#285 = ORIENTED_EDGE ( 'NONE', *, *, #147, .T. ) ;
#286 = DIRECTION ( 'NONE',  ( 1.000000000000000000, 0.0000000000000000000, 0.0000000000000000000 ) ) ;
#287 = VERTEX_POINT ( 'NONE', #136 ) ;
#288 =( NAMED_UNIT ( * ) PLANE_ANGLE_UNIT ( ) SI_UNIT ( $, .RADIAN. ) );
#289 = ORIENTED_EDGE ( 'NONE', *, *, #2, .F. ) ;
#290 = ADVANCED_FACE ( 'NONE', ( #12 ), #87, .T. ) ;
#291 = CARTESIAN_POINT ( 'NONE',  ( 0.1560937499999999478, 1.911597113044071073E-17, -1.911597113044071073E-17 ) ) ;
#292 = ORIENTED_EDGE ( 'NONE', *, *, #261, .F. ) ;
#293 = DIRECTION ( 'NONE',  ( 1.000000000000000000, 0.0000000000000000000, 0.0000000000000000000 ) ) ;
#294 = PRODUCT_DEFINITION_FORMATION_WITH_SPECIFIED_SOURCE ( 'ANY', '', #296, .NOT_KNOWN. ) ;
#295 = ORIENTED_EDGE ( 'NONE', *, *, #261, .T. ) ;
#296 = PRODUCT ( 'Micro_SEM-312-02', 'Micro_SEM-312-02', '', ( #35 ) ) ;
#297 = VERTEX_POINT ( 'NONE', #240 ) ;
#298 = FILL_AREA_STYLE ('',( #124 ) ) ;
#299 = AXIS2_PLACEMENT_3D ( 'NONE', #26, #129, #4 ) ;
ENDSEC;
END-ISO-10303-21;
