ISO-10303-21;
HEADER;
FILE_DESCRIPTION (( 'STEP AP214' ),
    '1' );
FILE_NAME ('Micro_SEM-109-02X.STEP',
    '2021-09-02T01:16:57',
    ( '' ),
    ( '' ),
    'SwSTEP 2.0',
    'SolidWorks 2020',
    '' );
FILE_SCHEMA (( 'AUTOMOTIVE_DESIGN' ));
ENDSEC;

DATA;
#1 = DIRECTION ( 'NONE',  ( -1.224646799147353454E-16, -0.0000000000000000000, -1.000000000000000000 ) ) ;
#2 = DIRECTION ( 'NONE',  ( -1.000000000000000000, 0.0000000000000000000, 0.0000000000000000000 ) ) ;
#3 = CARTESIAN_POINT ( 'NONE',  ( 0.06250000000000000000, 7.654042494670956004E-18, 1.485000000000000764 ) ) ;
#4 = DIRECTION ( 'NONE',  ( 0.0000000000000000000, 0.0000000000000000000, -1.000000000000000000 ) ) ;
#5 = CARTESIAN_POINT ( 'NONE',  ( 0.0000000000000000000, 0.0000000000000000000, 1.500000000000000222 ) ) ;
#6 = ADVANCED_FACE ( 'NONE', ( #118 ), #247, .T. ) ;
#7 = MECHANICAL_DESIGN_GEOMETRIC_PRESENTATION_REPRESENTATION (  '', ( #150 ), #22 ) ;
#8 = CARTESIAN_POINT ( 'NONE',  ( 2.302335982397024786E-17, 0.0000000000000000000, 0.1880000000000000282 ) ) ;
#9 = ORIENTED_EDGE ( 'NONE', *, *, #11, .T. ) ;
#10 = CARTESIAN_POINT ( 'NONE',  ( 0.05464530000000000776, 6.692119173344686636E-18, -6.692119173344688177E-18 ) ) ;
#11 = EDGE_CURVE ( 'NONE', #64, #90, #149, .T. ) ;
#12 = LENGTH_MEASURE_WITH_UNIT ( LENGTH_MEASURE( 0.02539999999999999897 ), #128 );
#13 = CARTESIAN_POINT ( 'NONE',  ( 0.05464529999999999388, 6.692119173344685866E-18, 9.478001694819074349E-34 ) ) ;
#14 = VECTOR ( 'NONE', #138, 39.37007874015748143 ) ;
#15 = CARTESIAN_POINT ( 'NONE',  ( 0.0000000000000000000, 0.0000000000000000000, 0.0000000000000000000 ) ) ;
#16 = DIRECTION ( 'NONE',  ( -1.224646799147353454E-16, -0.0000000000000000000, -1.000000000000000000 ) ) ;
#17 = CARTESIAN_POINT ( 'NONE',  ( 0.0000000000000000000, 0.0000000000000000000, 0.0000000000000000000 ) ) ;
#18 = ORIENTED_EDGE ( 'NONE', *, *, #38, .T. ) ;
#19 = EDGE_CURVE ( 'NONE', #258, #184, #216, .T. ) ;
#20 = ORIENTED_EDGE ( 'NONE', *, *, #78, .F. ) ;
#21 = EDGE_LOOP ( 'NONE', ( #233, #45, #54, #131 ) ) ;
#22 =( GEOMETRIC_REPRESENTATION_CONTEXT ( 3 ) GLOBAL_UNCERTAINTY_ASSIGNED_CONTEXT ( ( #168 ) ) GLOBAL_UNIT_ASSIGNED_CONTEXT ( ( #223, #174, #265 ) ) REPRESENTATION_CONTEXT ( 'NONE', 'WORKASPACE' ) );
#23 = DIRECTION ( 'NONE',  ( 1.224646799147353454E-16, 0.0000000000000000000, 1.000000000000000000 ) ) ;
#24 = ORIENTED_EDGE ( 'NONE', *, *, #38, .F. ) ;
#25 = ADVANCED_FACE ( 'NONE', ( #189 ), #137, .T. ) ;
#26 = APPLICATION_CONTEXT ( 'automotive_design' ) ;
#27 = DIRECTION ( 'NONE',  ( -1.224646799147353454E-16, -0.0000000000000000000, -1.000000000000000000 ) ) ;
#28 = ORIENTED_EDGE ( 'NONE', *, *, #188, .T. ) ;
#29 = APPLICATION_CONTEXT ( 'automotive_design' ) ;
#30 = CARTESIAN_POINT ( 'NONE',  ( 2.302335982397024786E-17, 0.0000000000000000000, 0.1880000000000000282 ) ) ;
#31 = CIRCLE ( 'NONE', #142, 0.06250000000000000000 ) ;
#32 = DIRECTION ( 'NONE',  ( 0.0000000000000000000, 0.0000000000000000000, -1.000000000000000000 ) ) ;
#33 = CARTESIAN_POINT ( 'NONE',  ( -0.06249999999999997224, 0.0000000000000000000, 0.2325462173085509621 ) ) ;
#34 = FACE_OUTER_BOUND ( 'NONE', #193, .T. ) ;
#35 = APPLICATION_PROTOCOL_DEFINITION ( 'draft international standard', 'automotive_design', 1998, #26 ) ;
#36 = DIRECTION ( 'NONE',  ( -0.0000000000000000000, -0.0000000000000000000, -1.000000000000000000 ) ) ;
#37 = LINE ( 'NONE', #127, #14 ) ;
#38 = EDGE_CURVE ( 'NONE', #184, #258, #297, .T. ) ;
#39 = AXIS2_PLACEMENT_3D ( 'NONE', #178, #287, #101 ) ;
#40 = ADVANCED_FACE ( 'NONE', ( #134 ), #170, .T. ) ;
#41 = ORIENTED_EDGE ( 'NONE', *, *, #91, .T. ) ;
#42 = ADVANCED_FACE ( 'NONE', ( #112 ), #110, .T. ) ;
#43 = VECTOR ( 'NONE', #286, 39.37007874015747433 ) ;
#44 = ORIENTED_EDGE ( 'NONE', *, *, #227, .T. ) ;
#45 = ORIENTED_EDGE ( 'NONE', *, *, #252, .T. ) ;
#46 =( CONVERSION_BASED_UNIT ( 'INCH', #100 ) LENGTH_UNIT ( ) NAMED_UNIT ( #207 ) );
#47 = ORIENTED_EDGE ( 'NONE', *, *, #289, .T. ) ;
#48 = CIRCLE ( 'NONE', #89, 0.04750000000000064587 ) ;
#49 = DIRECTION ( 'NONE',  ( -1.000000000000000000, 0.0000000000000000000, 1.224646799147353700E-16 ) ) ;
#50 = ORIENTED_EDGE ( 'NONE', *, *, #289, .F. ) ;
#51 = DIRECTION ( 'NONE',  ( -0.7071067811865456854, 0.0000000000000000000, -0.7071067811865493491 ) ) ;
#52 = DIRECTION ( 'NONE',  ( 0.0000000000000000000, 0.0000000000000000000, -1.000000000000000000 ) ) ;
#53 = DIRECTION ( 'NONE',  ( 0.0000000000000000000, 0.0000000000000000000, 1.000000000000000000 ) ) ;
#54 = ORIENTED_EDGE ( 'NONE', *, *, #154, .T. ) ;
#55 =( GEOMETRIC_REPRESENTATION_CONTEXT ( 3 ) GLOBAL_UNCERTAINTY_ASSIGNED_CONTEXT ( ( #240 ) ) GLOBAL_UNIT_ASSIGNED_CONTEXT ( ( #175, #83, #199 ) ) REPRESENTATION_CONTEXT ( 'NONE', 'WORKASPACE' ) );
#56 = PLANE ( 'NONE',  #280 ) ;
#57 = CARTESIAN_POINT ( 'NONE',  ( 0.05464530000000002857, 0.0000000000000000000, 0.1880000000000000282 ) ) ;
#58 = CARTESIAN_POINT ( 'NONE',  ( 0.06250000000000000000, 7.654042494670956004E-18, 1.500000000000000222 ) ) ;
#59 = SURFACE_SIDE_STYLE ('',( #63 ) ) ;
#60 = LENGTH_MEASURE_WITH_UNIT ( LENGTH_MEASURE( 0.02539999999999999897 ), #266 );
#61 = ADVANCED_FACE ( 'NONE', ( #262 ), #141, .T. ) ;
#62 = PRODUCT_DEFINITION_SHAPE ( 'NONE', 'NONE',  #293 ) ;
#63 = SURFACE_STYLE_FILL_AREA ( #146 ) ;
#64 = VERTEX_POINT ( 'NONE', #246 ) ;
#65 = VECTOR ( 'NONE', #1, 39.37007874015748143 ) ;
#66 = ORIENTED_EDGE ( 'NONE', *, *, #177, .F. ) ;
#67 = ADVANCED_FACE ( 'NONE', ( #148 ), #56, .F. ) ;
#68 = AXIS2_PLACEMENT_3D ( 'NONE', #275, #32, #163 ) ;
#69 = MECHANICAL_DESIGN_GEOMETRIC_PRESENTATION_REPRESENTATION (  '', ( #248 ), #55 ) ;
#70 = ORIENTED_EDGE ( 'NONE', *, *, #188, .F. ) ;
#71 = CARTESIAN_POINT ( 'NONE',  ( 0.0000000000000000000, 0.0000000000000000000, 1.500000000000000222 ) ) ;
#72 = DIRECTION ( 'NONE',  ( -1.224646799147353454E-16, -0.0000000000000000000, -1.000000000000000000 ) ) ;
#73 = ORIENTED_EDGE ( 'NONE', *, *, #220, .T. ) ;
#74 = CARTESIAN_POINT ( 'NONE',  ( 8.195482325149204388E-34, 0.0000000000000000000, 6.692119173344687407E-18 ) ) ;
#75 = VERTEX_POINT ( 'NONE', #122 ) ;
#76 = DIRECTION ( 'NONE',  ( -1.224646799147353454E-16, -0.0000000000000000000, -1.000000000000000000 ) ) ;
#77 = CARTESIAN_POINT ( 'NONE',  ( 0.0000000000000000000, 0.0000000000000000000, 1.485000000000000764 ) ) ;
#78 = EDGE_CURVE ( 'NONE', #184, #217, #84, .T. ) ;
#79 = CARTESIAN_POINT ( 'NONE',  ( 0.06250000000000002776, 7.654042494670959086E-18, 0.2325462173085509621 ) ) ;
#80 = LINE ( 'NONE', #58, #264 ) ;
#81 = DIRECTION ( 'NONE',  ( 1.000000000000000000, 0.0000000000000000000, -0.0000000000000000000 ) ) ;
#82 = VECTOR ( 'NONE', #102, 39.37007874015748143 ) ;
#83 =( NAMED_UNIT ( * ) PLANE_ANGLE_UNIT ( ) SI_UNIT ( $, .RADIAN. ) );
#84 = LINE ( 'NONE', #105, #130 ) ;
#85 = ADVANCED_FACE ( 'NONE', ( #34 ), #206, .T. ) ;
#86 = DIRECTION ( 'NONE',  ( 1.000000000000000000, 0.0000000000000000000, -0.0000000000000000000 ) ) ;
#87 = DIMENSIONAL_EXPONENTS ( 1.000000000000000000, 0.0000000000000000000, 0.0000000000000000000, 0.0000000000000000000, 0.0000000000000000000, 0.0000000000000000000, 0.0000000000000000000 ) ;
#88 = MANIFOLD_SOLID_BREP ( 'Cut-Revolve1', #155 ) ;
#89 = AXIS2_PLACEMENT_3D ( 'NONE', #5, #219, #222 ) ;
#90 = VERTEX_POINT ( 'NONE', #57 ) ;
#91 = EDGE_CURVE ( 'NONE', #258, #274, #80, .T. ) ;
#92 = VERTEX_POINT ( 'NONE', #13 ) ;
#93 =( NAMED_UNIT ( * ) PLANE_ANGLE_UNIT ( ) SI_UNIT ( $, .RADIAN. ) );
#94 = CARTESIAN_POINT ( 'NONE',  ( 0.0000000000000000000, 0.0000000000000000000, 1.500000000000000222 ) ) ;
#95 = AXIS2_PLACEMENT_3D ( 'NONE', #299, #234, #228 ) ;
#96 = FACE_OUTER_BOUND ( 'NONE', #21, .T. ) ;
#97 = ORIENTED_EDGE ( 'NONE', *, *, #19, .T. ) ;
#98 = LINE ( 'NONE', #190, #164 ) ;
#99 = ORIENTED_EDGE ( 'NONE', *, *, #78, .T. ) ;
#100 = LENGTH_MEASURE_WITH_UNIT ( LENGTH_MEASURE( 0.02539999999999999897 ), #245 );
#101 = DIRECTION ( 'NONE',  ( -1.000000000000000000, 0.0000000000000000000, 0.0000000000000000000 ) ) ;
#102 = DIRECTION ( 'NONE',  ( 0.7071067811865456854, 8.659560562354911904E-17, -0.7071067811865493491 ) ) ;
#103 = APPLICATION_PROTOCOL_DEFINITION ( 'draft international standard', 'automotive_design', 1998, #29 ) ;
#104 = SURFACE_STYLE_USAGE ( .BOTH. , #145 ) ;
#105 = CARTESIAN_POINT ( 'NONE',  ( -0.06250000000000000000, 0.0000000000000000000, 1.500000000000000222 ) ) ;
#106 = DIRECTION ( 'NONE',  ( 0.0000000000000000000, 0.0000000000000000000, 1.000000000000000000 ) ) ;
#107 = CIRCLE ( 'NONE', #135, 0.05464529999999999388 ) ;
#108 = EDGE_LOOP ( 'NONE', ( #162, #97, #99, #273 ) ) ;
#109 = AXIS2_PLACEMENT_3D ( 'NONE', #8, #23, #167 ) ;
#110 = CONICAL_SURFACE ( 'NONE', #268, 0.04750000000000064587, 0.7853981633974457255 ) ;
#111 = ORIENTED_EDGE ( 'NONE', *, *, #154, .F. ) ;
#112 = FACE_OUTER_BOUND ( 'NONE', #230, .T. ) ;
#113 = AXIS2_PLACEMENT_3D ( 'NONE', #71, #221, #133 ) ;
#114 = CARTESIAN_POINT ( 'NONE',  ( -0.04750000000000064587, 0.0000000000000000000, 1.500000000000000222 ) ) ;
#115 = EDGE_LOOP ( 'NONE', ( #47, #204 ) ) ;
#116 = DIRECTION ( 'NONE',  ( -1.000000000000000000, 0.0000000000000000000, 0.0000000000000000000 ) ) ;
#117 = CARTESIAN_POINT ( 'NONE',  ( -0.05464529999999998000, 6.692119173344686636E-18, 0.1880000000000000282 ) ) ;
#118 = FACE_OUTER_BOUND ( 'NONE', #243, .T. ) ;
#119 =( GEOMETRIC_REPRESENTATION_CONTEXT ( 3 ) GLOBAL_UNCERTAINTY_ASSIGNED_CONTEXT ( ( #214 ) ) GLOBAL_UNIT_ASSIGNED_CONTEXT ( ( #46, #93, #136 ) ) REPRESENTATION_CONTEXT ( 'NONE', 'WORKASPACE' ) );
#120 = DIRECTION ( 'NONE',  ( 1.000000000000000000, 0.0000000000000000000, 0.0000000000000000000 ) ) ;
#121 = ORIENTED_EDGE ( 'NONE', *, *, #19, .F. ) ;
#122 = CARTESIAN_POINT ( 'NONE',  ( -0.04750000000000064587, 0.0000000000000000000, 1.500000000000000222 ) ) ;
#123 = EDGE_CURVE ( 'NONE', #132, #258, #172, .T. ) ;
#124 = AXIS2_PLACEMENT_3D ( 'NONE', #263, #276, #215 ) ;
#125 = PRODUCT_DEFINITION_FORMATION_WITH_SPECIFIED_SOURCE ( 'ANY', '', #153, .NOT_KNOWN. ) ;
#126 = CARTESIAN_POINT ( 'NONE',  ( 0.04750000000000064587, 6.735557395310482421E-18, 1.500000000000000222 ) ) ;
#127 = CARTESIAN_POINT ( 'NONE',  ( -0.05464530000000000776, 0.0000000000000000000, 6.692119173344688177E-18 ) ) ;
#128 =( LENGTH_UNIT ( ) NAMED_UNIT ( * ) SI_UNIT ( $, .METRE. ) );
#129 = PRESENTATION_LAYER_ASSIGNMENT (  '', '', ( #248 ) ) ;
#130 = VECTOR ( 'NONE', #202, 39.37007874015748143 ) ;
#131 = ORIENTED_EDGE ( 'NONE', *, *, #201, .F. ) ;
#132 = VERTEX_POINT ( 'NONE', #126 ) ;
#133 = DIRECTION ( 'NONE',  ( -1.000000000000000000, 0.0000000000000000000, 0.0000000000000000000 ) ) ;
#134 = FACE_OUTER_BOUND ( 'NONE', #277, .T. ) ;
#135 = AXIS2_PLACEMENT_3D ( 'NONE', #169, #27, #49 ) ;
#136 =( NAMED_UNIT ( * ) SI_UNIT ( $, .STERADIAN. ) SOLID_ANGLE_UNIT ( ) );
#137 = CYLINDRICAL_SURFACE ( 'NONE', #208, 0.06250000000000000000 ) ;
#138 = DIRECTION ( 'NONE',  ( -1.224646799147353454E-16, -0.0000000000000000000, -1.000000000000000000 ) ) ;
#139 = DIRECTION ( 'NONE',  ( -1.000000000000000000, 0.0000000000000000000, 0.0000000000000000000 ) ) ;
#140 = DIRECTION ( 'NONE',  ( 1.000000000000000000, 0.0000000000000000000, 0.0000000000000000000 ) ) ;
#141 = CYLINDRICAL_SURFACE ( 'NONE', #95, 0.05464530000000000776 ) ;
#142 = AXIS2_PLACEMENT_3D ( 'NONE', #283, #166, #120 ) ;
#143 = ADVANCED_FACE ( 'NONE', ( #197 ), #151, .T. ) ;
#144 = DIRECTION ( 'NONE',  ( -1.000000000000000000, 0.0000000000000000000, 0.0000000000000000000 ) ) ;
#145 = SURFACE_SIDE_STYLE ('',( #292 ) ) ;
#146 = FILL_AREA_STYLE ('',( #290 ) ) ;
#147 = CARTESIAN_POINT ( 'NONE',  ( 0.04750000000000064587, 5.817072295950006528E-18, 1.500000000000000222 ) ) ;
#148 = FACE_OUTER_BOUND ( 'NONE', #213, .T. ) ;
#149 = CIRCLE ( 'NONE', #279, 0.05464530000000000776 ) ;
#150 = STYLED_ITEM ( 'NONE', ( #176 ), #88 ) ;
#151 = CYLINDRICAL_SURFACE ( 'NONE', #196, 0.05464530000000000776 ) ;
#152 = EDGE_CURVE ( 'NONE', #64, #251, #37, .T. ) ;
#153 = PRODUCT ( 'Micro_SEM-109-02X', 'Micro_SEM-109-02X', '', ( #181 ) ) ;
#154 = EDGE_CURVE ( 'NONE', #217, #274, #31, .T. ) ;
#155 = CLOSED_SHELL ( 'NONE', ( #61, #198, #42, #40, #25, #272, #85, #6, #143, #67 ) ) ;
#156 = PRESENTATION_LAYER_ASSIGNMENT (  '', '', ( #150 ) ) ;
#157 = ORIENTED_EDGE ( 'NONE', *, *, #123, .T. ) ;
#158 = EDGE_LOOP ( 'NONE', ( #9, #191, #255, #232 ) ) ;
#159 = CIRCLE ( 'NONE', #165, 0.05464529999999999388 ) ;
#160 = EDGE_CURVE ( 'NONE', #75, #184, #261, .T. ) ;
#161 = ORIENTED_EDGE ( 'NONE', *, *, #123, .F. ) ;
#162 = ORIENTED_EDGE ( 'NONE', *, *, #91, .F. ) ;
#163 = DIRECTION ( 'NONE',  ( 1.000000000000000000, 0.0000000000000000000, 0.0000000000000000000 ) ) ;
#164 = VECTOR ( 'NONE', #256, 39.37007874015748143 ) ;
#165 = AXIS2_PLACEMENT_3D ( 'NONE', #74, #76, #259 ) ;
#166 = DIRECTION ( 'NONE',  ( -1.224646799147353454E-16, -0.0000000000000000000, -1.000000000000000000 ) ) ;
#167 = DIRECTION ( 'NONE',  ( 1.000000000000000000, 0.0000000000000000000, 0.0000000000000000000 ) ) ;
#168 = UNCERTAINTY_MEASURE_WITH_UNIT (LENGTH_MEASURE( 1.000000000000000082E-05 ), #223, 'distance_accuracy_value', 'NONE');
#169 = CARTESIAN_POINT ( 'NONE',  ( 8.195482325149204388E-34, 0.0000000000000000000, 6.692119173344687407E-18 ) ) ;
#170 = CYLINDRICAL_SURFACE ( 'NONE', #113, 0.06250000000000000000 ) ;
#171 = LINE ( 'NONE', #10, #65 ) ;
#172 = LINE ( 'NONE', #147, #82 ) ;
#173 = EDGE_CURVE ( 'NONE', #90, #92, #171, .T. ) ;
#174 =( NAMED_UNIT ( * ) PLANE_ANGLE_UNIT ( ) SI_UNIT ( $, .RADIAN. ) );
#175 =( CONVERSION_BASED_UNIT ( 'INCH', #12 ) LENGTH_UNIT ( ) NAMED_UNIT ( #298 ) );
#176 = PRESENTATION_STYLE_ASSIGNMENT (( #104 ) ) ;
#177 = EDGE_CURVE ( 'NONE', #132, #75, #271, .T. ) ;
#178 = CARTESIAN_POINT ( 'NONE',  ( 0.0000000000000000000, 0.0000000000000000000, 1.500000000000000222 ) ) ;
#179 = PRESENTATION_STYLE_ASSIGNMENT (( #224 ) ) ;
#180 = CIRCLE ( 'NONE', #253, 0.05464530000000000776 ) ;
#181 = PRODUCT_CONTEXT ( 'NONE', #26, 'mechanical' ) ;
#182 = ADVANCED_BREP_SHAPE_REPRESENTATION ( 'Micro_SEM-109-02X', ( #88, #229 ), #119 ) ;
#183 = CIRCLE ( 'NONE', #225, 0.06250000000000000000 ) ;
#184 = VERTEX_POINT ( 'NONE', #210 ) ;
#185 = CARTESIAN_POINT ( 'NONE',  ( -0.05464529999999999388, 0.0000000000000000000, 1.338423834668937481E-17 ) ) ;
#186 = ORIENTED_EDGE ( 'NONE', *, *, #252, .F. ) ;
#187 = PLANE ( 'NONE',  #218 ) ;
#188 = EDGE_CURVE ( 'NONE', #90, #64, #180, .T. ) ;
#189 = FACE_OUTER_BOUND ( 'NONE', #108, .T. ) ;
#190 = CARTESIAN_POINT ( 'NONE',  ( 0.05464530000000002857, 0.0000000000000000000, 0.1880000000000000282 ) ) ;
#191 = ORIENTED_EDGE ( 'NONE', *, *, #173, .T. ) ;
#192 = DIRECTION ( 'NONE',  ( 1.000000000000000000, 0.0000000000000000000, 0.0000000000000000000 ) ) ;
#193 = EDGE_LOOP ( 'NONE', ( #161, #50, #284, #121 ) ) ;
#194 = CARTESIAN_POINT ( 'NONE',  ( 2.847869806807417895E-17, 0.0000000000000000000, 0.2325462173085509621 ) ) ;
#195 = DIRECTION ( 'NONE',  ( 0.0000000000000000000, 0.0000000000000000000, 1.000000000000000000 ) ) ;
#196 = AXIS2_PLACEMENT_3D ( 'NONE', #226, #16, #267 ) ;
#197 = FACE_OUTER_BOUND ( 'NONE', #211, .T. ) ;
#198 = ADVANCED_FACE ( 'NONE', ( #96 ), #203, .T. ) ;
#199 =( NAMED_UNIT ( * ) SI_UNIT ( $, .STERADIAN. ) SOLID_ANGLE_UNIT ( ) );
#200 = FILL_AREA_STYLE ('',( #291 ) ) ;
#201 = EDGE_CURVE ( 'NONE', #90, #274, #98, .T. ) ;
#202 = DIRECTION ( 'NONE',  ( -0.0000000000000000000, -0.0000000000000000000, -1.000000000000000000 ) ) ;
#203 = CONICAL_SURFACE ( 'NONE', #124, 0.05464530000000000776, 0.1745329251994339192 ) ;
#204 = ORIENTED_EDGE ( 'NONE', *, *, #177, .T. ) ;
#205 = EDGE_CURVE ( 'NONE', #92, #251, #159, .T. ) ;
#206 = CONICAL_SURFACE ( 'NONE', #39, 0.04750000000000064587, 0.7853981633974457255 ) ;
#207 = DIMENSIONAL_EXPONENTS ( 1.000000000000000000, 0.0000000000000000000, 0.0000000000000000000, 0.0000000000000000000, 0.0000000000000000000, 0.0000000000000000000, 0.0000000000000000000 ) ;
#208 = AXIS2_PLACEMENT_3D ( 'NONE', #94, #237, #116 ) ;
#209 = DIRECTION ( 'NONE',  ( -1.224646799147353454E-16, -0.0000000000000000000, -1.000000000000000000 ) ) ;
#210 = CARTESIAN_POINT ( 'NONE',  ( -0.06250000000000000000, 0.0000000000000000000, 1.485000000000000764 ) ) ;
#211 = EDGE_LOOP ( 'NONE', ( #239, #28, #257, #231 ) ) ;
#212 = CARTESIAN_POINT ( 'NONE',  ( 0.0000000000000000000, 0.0000000000000000000, 1.500000000000000222 ) ) ;
#213 = EDGE_LOOP ( 'NONE', ( #73, #270 ) ) ;
#214 = UNCERTAINTY_MEASURE_WITH_UNIT (LENGTH_MEASURE( 1.000000000000000082E-05 ), #46, 'distance_accuracy_value', 'NONE');
#215 = DIRECTION ( 'NONE',  ( 1.000000000000000000, 0.0000000000000000000, 0.0000000000000000000 ) ) ;
#216 = CIRCLE ( 'NONE', #68, 0.06250000000000000000 ) ;
#217 = VERTEX_POINT ( 'NONE', #33 ) ;
#218 = AXIS2_PLACEMENT_3D ( 'NONE', #285, #242, #81 ) ;
#219 = DIRECTION ( 'NONE',  ( 0.0000000000000000000, 0.0000000000000000000, 1.000000000000000000 ) ) ;
#220 = EDGE_CURVE ( 'NONE', #251, #92, #107, .T. ) ;
#221 = DIRECTION ( 'NONE',  ( -0.0000000000000000000, -0.0000000000000000000, -1.000000000000000000 ) ) ;
#222 = DIRECTION ( 'NONE',  ( 1.000000000000000000, 0.0000000000000000000, 0.0000000000000000000 ) ) ;
#223 =( CONVERSION_BASED_UNIT ( 'INCH', #60 ) LENGTH_UNIT ( ) NAMED_UNIT ( #87 ) );
#224 = SURFACE_STYLE_USAGE ( .BOTH. , #59 ) ;
#225 = AXIS2_PLACEMENT_3D ( 'NONE', #194, #278, #140 ) ;
#226 = CARTESIAN_POINT ( 'NONE',  ( 0.0000000000000000000, 0.0000000000000000000, 0.0000000000000000000 ) ) ;
#227 = EDGE_CURVE ( 'NONE', #274, #217, #183, .T. ) ;
#228 = DIRECTION ( 'NONE',  ( -1.000000000000000000, 0.0000000000000000000, 1.224646799147353454E-16 ) ) ;
#229 = AXIS2_PLACEMENT_3D ( 'NONE', #15, #106, #295 ) ;
#230 = EDGE_LOOP ( 'NONE', ( #66, #157, #24, #254 ) ) ;
#231 = ORIENTED_EDGE ( 'NONE', *, *, #205, .F. ) ;
#232 = ORIENTED_EDGE ( 'NONE', *, *, #152, .F. ) ;
#233 = ORIENTED_EDGE ( 'NONE', *, *, #11, .F. ) ;
#234 = DIRECTION ( 'NONE',  ( -1.224646799147353454E-16, -0.0000000000000000000, -1.000000000000000000 ) ) ;
#235 = FACE_OUTER_BOUND ( 'NONE', #115, .T. ) ;
#236 = CARTESIAN_POINT ( 'NONE',  ( 2.302335982397024786E-17, 0.0000000000000000000, 0.1880000000000000282 ) ) ;
#237 = DIRECTION ( 'NONE',  ( -0.0000000000000000000, -0.0000000000000000000, -1.000000000000000000 ) ) ;
#238 = LINE ( 'NONE', #117, #43 ) ;
#239 = ORIENTED_EDGE ( 'NONE', *, *, #173, .F. ) ;
#240 = UNCERTAINTY_MEASURE_WITH_UNIT (LENGTH_MEASURE( 1.000000000000000082E-05 ), #175, 'distance_accuracy_value', 'NONE');
#241 = PRODUCT_RELATED_PRODUCT_CATEGORY ( 'part', '', ( #153 ) ) ;
#242 = DIRECTION ( 'NONE',  ( 0.0000000000000000000, 0.0000000000000000000, 1.000000000000000000 ) ) ;
#243 = EDGE_LOOP ( 'NONE', ( #186, #70, #250, #44 ) ) ;
#244 = AXIS2_PLACEMENT_3D ( 'NONE', #77, #4, #281 ) ;
#245 =( LENGTH_UNIT ( ) NAMED_UNIT ( * ) SI_UNIT ( $, .METRE. ) );
#246 = CARTESIAN_POINT ( 'NONE',  ( -0.05464529999999998000, 7.173080834007822861E-18, 0.1880000000000000282 ) ) ;
#247 = CONICAL_SURFACE ( 'NONE', #109, 0.05464530000000000776, 0.1745329251994339192 ) ;
#248 = STYLED_ITEM ( 'NONE', ( #179 ), #182 ) ;
#249 = VECTOR ( 'NONE', #51, 39.37007874015748143 ) ;
#250 = ORIENTED_EDGE ( 'NONE', *, *, #201, .T. ) ;
#251 = VERTEX_POINT ( 'NONE', #185 ) ;
#252 = EDGE_CURVE ( 'NONE', #64, #217, #238, .T. ) ;
#253 = AXIS2_PLACEMENT_3D ( 'NONE', #30, #72, #144 ) ;
#254 = ORIENTED_EDGE ( 'NONE', *, *, #160, .F. ) ;
#255 = ORIENTED_EDGE ( 'NONE', *, *, #220, .F. ) ;
#256 = DIRECTION ( 'NONE',  ( 0.1736481776669314137, 0.0000000000000000000, 0.9848077530122077983 ) ) ;
#257 = ORIENTED_EDGE ( 'NONE', *, *, #152, .T. ) ;
#258 = VERTEX_POINT ( 'NONE', #3 ) ;
#259 = DIRECTION ( 'NONE',  ( -1.000000000000000000, 0.0000000000000000000, 1.224646799147353700E-16 ) ) ;
#260 = CARTESIAN_POINT ( 'NONE',  ( 0.0000000000000000000, 0.0000000000000000000, 1.500000000000000222 ) ) ;
#261 = LINE ( 'NONE', #114, #249 ) ;
#262 = FACE_OUTER_BOUND ( 'NONE', #158, .T. ) ;
#263 = CARTESIAN_POINT ( 'NONE',  ( 2.302335982397024786E-17, 0.0000000000000000000, 0.1880000000000000282 ) ) ;
#264 = VECTOR ( 'NONE', #36, 39.37007874015748143 ) ;
#265 =( NAMED_UNIT ( * ) SI_UNIT ( $, .STERADIAN. ) SOLID_ANGLE_UNIT ( ) );
#266 =( LENGTH_UNIT ( ) NAMED_UNIT ( * ) SI_UNIT ( $, .METRE. ) );
#267 = DIRECTION ( 'NONE',  ( -1.000000000000000000, 0.0000000000000000000, 1.224646799147353454E-16 ) ) ;
#268 = AXIS2_PLACEMENT_3D ( 'NONE', #260, #52, #139 ) ;
#269 = SHAPE_DEFINITION_REPRESENTATION ( #62, #182 ) ;
#270 = ORIENTED_EDGE ( 'NONE', *, *, #205, .T. ) ;
#271 = CIRCLE ( 'NONE', #296, 0.04750000000000064587 ) ;
#272 = ADVANCED_FACE ( 'NONE', ( #235 ), #187, .T. ) ;
#273 = ORIENTED_EDGE ( 'NONE', *, *, #227, .F. ) ;
#274 = VERTEX_POINT ( 'NONE', #79 ) ;
#275 = CARTESIAN_POINT ( 'NONE',  ( 0.0000000000000000000, 0.0000000000000000000, 1.485000000000000764 ) ) ;
#276 = DIRECTION ( 'NONE',  ( 1.224646799147353454E-16, 0.0000000000000000000, 1.000000000000000000 ) ) ;
#277 = EDGE_LOOP ( 'NONE', ( #18, #41, #111, #20 ) ) ;
#278 = DIRECTION ( 'NONE',  ( -1.224646799147353454E-16, -0.0000000000000000000, -1.000000000000000000 ) ) ;
#279 = AXIS2_PLACEMENT_3D ( 'NONE', #236, #209, #2 ) ;
#280 = AXIS2_PLACEMENT_3D ( 'NONE', #17, #195, #86 ) ;
#281 = DIRECTION ( 'NONE',  ( 1.000000000000000000, 0.0000000000000000000, 0.0000000000000000000 ) ) ;
#282 = PRODUCT_DEFINITION_CONTEXT ( 'detailed design', #29, 'design' ) ;
#283 = CARTESIAN_POINT ( 'NONE',  ( 2.847869806807417895E-17, 0.0000000000000000000, 0.2325462173085509621 ) ) ;
#284 = ORIENTED_EDGE ( 'NONE', *, *, #160, .T. ) ;
#285 = CARTESIAN_POINT ( 'NONE',  ( 0.0000000000000000000, 0.0000000000000000000, 1.500000000000000222 ) ) ;
#286 = DIRECTION ( 'NONE',  ( -0.1736481776669312194, 2.126576849575783625E-17, 0.9848077530122080203 ) ) ;
#287 = DIRECTION ( 'NONE',  ( 0.0000000000000000000, 0.0000000000000000000, -1.000000000000000000 ) ) ;
#288 = COLOUR_RGB ( '',0.7921568627450980005, 0.8196078431372548767, 0.9333333333333333481 ) ;
#289 = EDGE_CURVE ( 'NONE', #75, #132, #48, .T. ) ;
#290 = FILL_AREA_STYLE_COLOUR ( '', #294 ) ;
#291 = FILL_AREA_STYLE_COLOUR ( '', #288 ) ;
#292 = SURFACE_STYLE_FILL_AREA ( #200 ) ;
#293 = PRODUCT_DEFINITION ( 'UNKNOWN', '', #125, #282 ) ;
#294 = COLOUR_RGB ( '',0.7921568627450980005, 0.8196078431372548767, 0.9333333333333333481 ) ;
#295 = DIRECTION ( 'NONE',  ( 1.000000000000000000, 0.0000000000000000000, 0.0000000000000000000 ) ) ;
#296 = AXIS2_PLACEMENT_3D ( 'NONE', #212, #53, #192 ) ;
#297 = CIRCLE ( 'NONE', #244, 0.06250000000000000000 ) ;
#298 = DIMENSIONAL_EXPONENTS ( 1.000000000000000000, 0.0000000000000000000, 0.0000000000000000000, 0.0000000000000000000, 0.0000000000000000000, 0.0000000000000000000, 0.0000000000000000000 ) ;
#299 = CARTESIAN_POINT ( 'NONE',  ( 0.0000000000000000000, 0.0000000000000000000, 0.0000000000000000000 ) ) ;
ENDSEC;
END-ISO-10303-21;
