ISO-10303-21;
HEADER;
FILE_DESCRIPTION (( 'STEP AP214' ),
    '1' );
FILE_NAME ('12062.STEP',
    '2023-06-30T21:50:47',
    ( '' ),
    ( '' ),
    'SwSTEP 2.0',
    'SolidWorks 2023',
    '' );
FILE_SCHEMA (( 'AUTOMOTIVE_DESIGN' ));
ENDSEC;

DATA;
#1 =( CONVERSION_BASED_UNIT ( 'INCH', #58 ) LENGTH_UNIT ( ) NAMED_UNIT ( #290 ) );
#2 = DIRECTION ( 'NONE',  ( 0.000000000000000000, 1.000000000000000000, 0.000000000000000000 ) ) ;
#3 = CIRCLE ( 'NONE', #201, 0.09375000000000002776 ) ;
#4 = PRESENTATION_STYLE_ASSIGNMENT (( #203 ) ) ;
#5 =( CONVERSION_BASED_UNIT ( 'INCH', #285 ) LENGTH_UNIT ( ) NAMED_UNIT ( #128 ) );
#6 = APPLICATION_PROTOCOL_DEFINITION ( 'draft international standard', 'automotive_design', 1998, #169 ) ;
#7 = MECHANICAL_DESIGN_GEOMETRIC_PRESENTATION_REPRESENTATION (  '', ( #25 ), #111 ) ;
#8 = CIRCLE ( 'NONE', #181, 0.09375000000000002776 ) ;
#9 =( NAMED_UNIT ( * ) PLANE_ANGLE_UNIT ( ) SI_UNIT ( $, .RADIAN. ) );
#10 = CARTESIAN_POINT ( 'NONE',  ( 1.148106374200643247E-17, 0.3125000000000000000, 0.09374999999999997224 ) ) ;
#11 = EDGE_CURVE ( 'NONE', #138, #247, #222, .T. ) ;
#12 = MECHANICAL_DESIGN_GEOMETRIC_PRESENTATION_REPRESENTATION (  '', ( #313 ), #243 ) ;
#13 = FACE_OUTER_BOUND ( 'NONE', #192, .T. ) ;
#14 = CARTESIAN_POINT ( 'NONE',  ( 2.675941045781493104E-16, 0.3125000000000000000, 0.000000000000000000 ) ) ;
#15 = LENGTH_MEASURE_WITH_UNIT ( LENGTH_MEASURE( 0.02539999999999999897 ), #360 );
#16 = ORIENTED_EDGE ( 'NONE', *, *, #167, .F. ) ;
#17 = ORIENTED_EDGE ( 'NONE', *, *, #306, .T. ) ;
#18 = SURFACE_STYLE_FILL_AREA ( #338 ) ;
#19 = FACE_OUTER_BOUND ( 'NONE', #194, .T. ) ;
#20 = ORIENTED_EDGE ( 'NONE', *, *, #151, .T. ) ;
#21 = CARTESIAN_POINT ( 'NONE',  ( 0.09374999999999987510, 2.000000000000000000, 1.148106374200641089E-17 ) ) ;
#22 =( LENGTH_UNIT ( ) NAMED_UNIT ( * ) SI_UNIT ( $, .METRE. ) );
#23 = DIRECTION ( 'NONE',  ( -0.000000000000000000, -1.000000000000000000, -0.000000000000000000 ) ) ;
#24 = CARTESIAN_POINT ( 'NONE',  ( 0.000000000000000000, 0.000000000000000000, 0.000000000000000000 ) ) ;
#25 = STYLED_ITEM ( 'NONE', ( #149 ), #59 ) ;
#26 = STYLED_ITEM ( 'NONE', ( #4 ), #269 ) ;
#27 = DIRECTION ( 'NONE',  ( 0.000000000000000000, 0.000000000000000000, -1.000000000000000000 ) ) ;
#28 = DIRECTION ( 'NONE',  ( 0.000000000000000000, 0.000000000000000000, -1.000000000000000000 ) ) ;
#29 = DIRECTION ( 'NONE',  ( -0.000000000000000000, -1.000000000000000000, -0.000000000000000000 ) ) ;
#30 = FACE_OUTER_BOUND ( 'NONE', #72, .T. ) ;
#31 = PRESENTATION_LAYER_ASSIGNMENT (  '', '', ( #357 ) ) ;
#32 = SURFACE_STYLE_FILL_AREA ( #91 ) ;
#33 = MECHANICAL_DESIGN_GEOMETRIC_PRESENTATION_REPRESENTATION (  '', ( #54 ), #234 ) ;
#34 = AXIS2_PLACEMENT_3D ( 'NONE', #160, #224, #156 ) ;
#35 = PRODUCT_CONTEXT ( 'NONE', #90, 'mechanical' ) ;
#36 = LENGTH_MEASURE_WITH_UNIT ( LENGTH_MEASURE( 0.02539999999999999897 ), #212 );
#37 = CIRCLE ( 'NONE', #245, 0.09374999999999990286 ) ;
#38 =( CONVERSION_BASED_UNIT ( 'INCH', #15 ) LENGTH_UNIT ( ) NAMED_UNIT ( #255 ) );
#39 = ORIENTED_EDGE ( 'NONE', *, *, #306, .F. ) ;
#40 = PRODUCT_DEFINITION_CONTEXT ( 'detailed design', #169, 'design' ) ;
#41 = DIRECTION ( 'NONE',  ( 0.000000000000000000, 0.000000000000000000, -1.000000000000000000 ) ) ;
#42 =( NAMED_UNIT ( * ) SI_UNIT ( $, .STERADIAN. ) SOLID_ANGLE_UNIT ( ) );
#43 = ORIENTED_EDGE ( 'NONE', *, *, #106, .T. ) ;
#44 = CARTESIAN_POINT ( 'NONE',  ( -0.09374999999999983347, 2.000000000000000000, 0.000000000000000000 ) ) ;
#45 = CIRCLE ( 'NONE', #328, 0.09375000000000002776 ) ;
#46 = EDGE_CURVE ( 'NONE', #340, #105, #277, .T. ) ;
#47 = AXIS2_PLACEMENT_3D ( 'NONE', #312, #81, #55 ) ;
#48 = ORIENTED_EDGE ( 'NONE', *, *, #167, .T. ) ;
#49 =( NAMED_UNIT ( * ) SI_UNIT ( $, .STERADIAN. ) SOLID_ANGLE_UNIT ( ) );
#50 = CARTESIAN_POINT ( 'NONE',  ( 0.000000000000000000, 0.09375000000000004163, 0.000000000000000000 ) ) ;
#51 = ORIENTED_EDGE ( 'NONE', *, *, #106, .F. ) ;
#52 = CARTESIAN_POINT ( 'NONE',  ( 0.000000000000000000, 0.09375000000000004163, 0.000000000000000000 ) ) ;
#53 = DIRECTION ( 'NONE',  ( -1.000000000000000000, 0.000000000000000000, 0.000000000000000000 ) ) ;
#54 = STYLED_ITEM ( 'NONE', ( #61 ), #73 ) ;
#55 = DIRECTION ( 'NONE',  ( 0.000000000000000000, 0.000000000000000000, -1.000000000000000000 ) ) ;
#56 = DIRECTION ( 'NONE',  ( -1.222884531086113345E-16, 1.000000000000000000, -0.000000000000000000 ) ) ;
#57 = PLANE ( 'NONE',  #370 ) ;
#58 = LENGTH_MEASURE_WITH_UNIT ( LENGTH_MEASURE( 0.02539999999999999897 ), #257 );
#59 = ADVANCED_FACE ( 'NONE', ( #19 ), #369, .T. ) ;
#60 = CARTESIAN_POINT ( 'NONE',  ( 0.000000000000000000, 0.000000000000000000, 0.000000000000000000 ) ) ;
#61 = PRESENTATION_STYLE_ASSIGNMENT (( #207 ) ) ;
#62 = AXIS2_PLACEMENT_3D ( 'NONE', #14, #184, #183 ) ;
#63 = COLOUR_RGB ( '',1.000000000000000000, 0.000000000000000000, 0.000000000000000000 ) ;
#64 = CARTESIAN_POINT ( 'NONE',  ( -1.148106374200644017E-17, 0.09375000000000002776, 0.000000000000000000 ) ) ;
#65 =( CONVERSION_BASED_UNIT ( 'INCH', #36 ) LENGTH_UNIT ( ) NAMED_UNIT ( #317 ) );
#66 = UNCERTAINTY_MEASURE_WITH_UNIT (LENGTH_MEASURE( 1.000000000000000082E-05 ), #230, 'distance_accuracy_value', 'NONE');
#67 = CIRCLE ( 'NONE', #190, 0.09374999999999997224 ) ;
#68 =( CONVERSION_BASED_UNIT ( 'INCH', #214 ) LENGTH_UNIT ( ) NAMED_UNIT ( #228 ) );
#69 = PRESENTATION_LAYER_ASSIGNMENT (  '', '', ( #226 ) ) ;
#70 = ORIENTED_EDGE ( 'NONE', *, *, #46, .F. ) ;
#71 = EDGE_LOOP ( 'NONE', ( #48, #329, #142, #366 ) ) ;
#72 = EDGE_LOOP ( 'NONE', ( #16, #240 ) ) ;
#73 = ADVANCED_FACE ( 'NONE', ( #292 ), #262, .T. ) ;
#74 = COLOUR_RGB ( '',1.000000000000000000, 0.000000000000000000, 0.000000000000000000 ) ;
#75 = ORIENTED_EDGE ( 'NONE', *, *, #129, .F. ) ;
#76 =( CONVERSION_BASED_UNIT ( 'INCH', #331 ) LENGTH_UNIT ( ) NAMED_UNIT ( #189 ) );
#77 = VERTEX_POINT ( 'NONE', #288 ) ;
#78 = DIRECTION ( 'NONE',  ( 0.000000000000000000, 0.000000000000000000, -1.000000000000000000 ) ) ;
#79 = DIRECTION ( 'NONE',  ( 0.000000000000000000, 0.000000000000000000, -1.000000000000000000 ) ) ;
#80 = PRODUCT ( '12062', '12062', '', ( #35 ) ) ;
#81 = DIRECTION ( 'NONE',  ( -0.000000000000000000, -1.000000000000000000, -0.000000000000000000 ) ) ;
#82 = AXIS2_PLACEMENT_3D ( 'NONE', #24, #254, #259 ) ;
#83 = DIRECTION ( 'NONE',  ( -0.000000000000000000, -1.000000000000000000, -0.000000000000000000 ) ) ;
#84 =( GEOMETRIC_REPRESENTATION_CONTEXT ( 3 ) GLOBAL_UNCERTAINTY_ASSIGNED_CONTEXT ( ( #66 ) ) GLOBAL_UNIT_ASSIGNED_CONTEXT ( ( #230, #121, #318 ) ) REPRESENTATION_CONTEXT ( 'NONE', 'WORKASPACE' ) );
#85 = DIMENSIONAL_EXPONENTS ( 1.000000000000000000, 0.000000000000000000, 0.000000000000000000, 0.000000000000000000, 0.000000000000000000, 0.000000000000000000, 0.000000000000000000 ) ;
#86 = DIRECTION ( 'NONE',  ( -0.000000000000000000, -1.000000000000000000, -0.000000000000000000 ) ) ;
#87 = DIRECTION ( 'NONE',  ( 1.222884531086113345E-16, -1.000000000000000000, 0.000000000000000000 ) ) ;
#88 = FILL_AREA_STYLE_COLOUR ( '', #74 ) ;
#89 = LINE ( 'NONE', #147, #211 ) ;
#90 = APPLICATION_CONTEXT ( 'automotive_design' ) ;
#91 = FILL_AREA_STYLE ('',( #88 ) ) ;
#92 = VECTOR ( 'NONE', #364, 39.37007874015748143 ) ;
#93 = CIRCLE ( 'NONE', #325, 0.09374999999999990286 ) ;
#94 = DIRECTION ( 'NONE',  ( 0.000000000000000000, 0.000000000000000000, 1.000000000000000000 ) ) ;
#95 = CARTESIAN_POINT ( 'NONE',  ( -1.148106374200644017E-17, 0.09375000000000002776, 0.000000000000000000 ) ) ;
#96 = STYLED_ITEM ( 'NONE', ( #236 ), #204 ) ;
#97 =( NAMED_UNIT ( * ) PLANE_ANGLE_UNIT ( ) SI_UNIT ( $, .RADIAN. ) );
#98 = DIRECTION ( 'NONE',  ( -1.222884531086113345E-16, 1.000000000000000000, -0.000000000000000000 ) ) ;
#99 = ORIENTED_EDGE ( 'NONE', *, *, #178, .T. ) ;
#100 = UNCERTAINTY_MEASURE_WITH_UNIT (LENGTH_MEASURE( 1.000000000000000082E-05 ), #68, 'distance_accuracy_value', 'NONE');
#101 = FILL_AREA_STYLE ('',( #221 ) ) ;
#102 = COLOUR_RGB ( '',1.000000000000000000, 0.000000000000000000, 0.000000000000000000 ) ;
#103 = FILL_AREA_STYLE ('',( #131 ) ) ;
#104 = AXIS2_PLACEMENT_3D ( 'NONE', #133, #98, #330 ) ;
#105 = VERTEX_POINT ( 'NONE', #229 ) ;
#106 = EDGE_CURVE ( 'NONE', #336, #195, #225, .T. ) ;
#107 = ORIENTED_EDGE ( 'NONE', *, *, #346, .T. ) ;
#108 =( NAMED_UNIT ( * ) SI_UNIT ( $, .STERADIAN. ) SOLID_ANGLE_UNIT ( ) );
#109 = EDGE_LOOP ( 'NONE', ( #70, #107, #333, #361 ) ) ;
#110 = CARTESIAN_POINT ( 'NONE',  ( 1.148106374200644017E-17, 0.09375000000000004163, 0.09375000000000002776 ) ) ;
#111 =( GEOMETRIC_REPRESENTATION_CONTEXT ( 3 ) GLOBAL_UNCERTAINTY_ASSIGNED_CONTEXT ( ( #274 ) ) GLOBAL_UNIT_ASSIGNED_CONTEXT ( ( #1, #199, #146 ) ) REPRESENTATION_CONTEXT ( 'NONE', 'WORKASPACE' ) );
#112 = ORIENTED_EDGE ( 'NONE', *, *, #129, .T. ) ;
#113 = CARTESIAN_POINT ( 'NONE',  ( 2.675941045781492611E-16, 0.3125000000000000000, 0.000000000000000000 ) ) ;
#114 = CARTESIAN_POINT ( 'NONE',  ( 0.000000000000000000, 0.3125000000000000000, -0.09374999999999997224 ) ) ;
#115 = ADVANCED_FACE ( 'NONE', ( #202 ), #315, .T. ) ;
#116 =( LENGTH_UNIT ( ) NAMED_UNIT ( * ) SI_UNIT ( $, .METRE. ) );
#117 = LENGTH_MEASURE_WITH_UNIT ( LENGTH_MEASURE( 0.02539999999999999897 ), #22 );
#118 = COLOUR_RGB ( '',1.000000000000000000, 0.000000000000000000, 0.000000000000000000 ) ;
#119 = CARTESIAN_POINT ( 'NONE',  ( 6.123233995736766036E-17, 2.000000000000000000, 0.000000000000000000 ) ) ;
#120 = PRESENTATION_LAYER_ASSIGNMENT (  '', '', ( #96 ) ) ;
#121 =( NAMED_UNIT ( * ) PLANE_ANGLE_UNIT ( ) SI_UNIT ( $, .RADIAN. ) );
#122 = SURFACE_SIDE_STYLE ('',( #32 ) ) ;
#123 =( LENGTH_UNIT ( ) NAMED_UNIT ( * ) SI_UNIT ( $, .METRE. ) );
#124 = SURFACE_SIDE_STYLE ('',( #175 ) ) ;
#125 =( GEOMETRIC_REPRESENTATION_CONTEXT ( 3 ) GLOBAL_UNCERTAINTY_ASSIGNED_CONTEXT ( ( #193 ) ) GLOBAL_UNIT_ASSIGNED_CONTEXT ( ( #371, #177, #49 ) ) REPRESENTATION_CONTEXT ( 'NONE', 'WORKASPACE' ) );
#126 = PRODUCT_DEFINITION ( 'UNKNOWN', '', #298, #40 ) ;
#127 = SPHERICAL_SURFACE ( 'NONE', #337, 0.09375000000000002776 ) ;
#128 = DIMENSIONAL_EXPONENTS ( 1.000000000000000000, 0.000000000000000000, 0.000000000000000000, 0.000000000000000000, 0.000000000000000000, 0.000000000000000000, 0.000000000000000000 ) ;
#129 = EDGE_CURVE ( 'NONE', #195, #336, #67, .T. ) ;
#130 = MECHANICAL_DESIGN_GEOMETRIC_PRESENTATION_REPRESENTATION (  '', ( #26 ), #125 ) ;
#131 = FILL_AREA_STYLE_COLOUR ( '', #118 ) ;
#132 = UNCERTAINTY_MEASURE_WITH_UNIT (LENGTH_MEASURE( 1.000000000000000082E-05 ), #76, 'distance_accuracy_value', 'NONE');
#133 = CARTESIAN_POINT ( 'NONE',  ( 6.123233995736766036E-17, 2.000000000000000000, 0.000000000000000000 ) ) ;
#134 = ADVANCED_FACE ( 'NONE', ( #30 ), #326, .F. ) ;
#135 = VERTEX_POINT ( 'NONE', #276 ) ;
#136 = DIRECTION ( 'NONE',  ( -0.000000000000000000, -1.000000000000000000, -0.000000000000000000 ) ) ;
#137 = DIRECTION ( 'NONE',  ( 1.000000000000000000, 0.000000000000000000, 0.000000000000000000 ) ) ;
#138 = VERTEX_POINT ( 'NONE', #280 ) ;
#139 = VECTOR ( 'NONE', #239, 39.37007874015748143 ) ;
#140 = MECHANICAL_DESIGN_GEOMETRIC_PRESENTATION_REPRESENTATION (  '', ( #226 ), #314 ) ;
#141 = EDGE_LOOP ( 'NONE', ( #43, #99, #170, #165, #304 ) ) ;
#142 = ORIENTED_EDGE ( 'NONE', *, *, #233, .F. ) ;
#143 = ORIENTED_EDGE ( 'NONE', *, *, #372, .T. ) ;
#144 = AXIS2_PLACEMENT_3D ( 'NONE', #205, #2, #174 ) ;
#145 = FACE_OUTER_BOUND ( 'NONE', #166, .T. ) ;
#146 =( NAMED_UNIT ( * ) SI_UNIT ( $, .STERADIAN. ) SOLID_ANGLE_UNIT ( ) );
#147 = CARTESIAN_POINT ( 'NONE',  ( 0.000000000000000000, 0.000000000000000000, -0.09374999999999998612 ) ) ;
#148 = MANIFOLD_SOLID_BREP ( 'Revolve - Tool Body (Straight Shanked)', #308 ) ;
#149 = PRESENTATION_STYLE_ASSIGNMENT (( #179 ) ) ;
#150 = ADVANCED_BREP_SHAPE_REPRESENTATION ( '12062', ( #269, #148, #251 ), #84 ) ;
#151 = EDGE_CURVE ( 'NONE', #282, #135, #45, .T. ) ;
#152 =( NAMED_UNIT ( * ) SI_UNIT ( $, .STERADIAN. ) SOLID_ANGLE_UNIT ( ) );
#153 = CARTESIAN_POINT ( 'NONE',  ( 0.09375000000000002776, 0.09375000000000004163, 0.000000000000000000 ) ) ;
#154 = FACE_OUTER_BOUND ( 'NONE', #141, .T. ) ;
#155 = UNCERTAINTY_MEASURE_WITH_UNIT (LENGTH_MEASURE( 1.000000000000000082E-05 ), #65, 'distance_accuracy_value', 'NONE');
#156 = DIRECTION ( 'NONE',  ( 0.000000000000000000, 0.000000000000000000, -1.000000000000000000 ) ) ;
#157 = PRESENTATION_STYLE_ASSIGNMENT (( #196 ) ) ;
#158 = DIRECTION ( 'NONE',  ( 0.000000000000000000, 0.000000000000000000, 1.000000000000000000 ) ) ;
#159 = EDGE_LOOP ( 'NONE', ( #17, #215, #273, #143 ) ) ;
#160 = CARTESIAN_POINT ( 'NONE',  ( 0.000000000000000000, 0.000000000000000000, 0.000000000000000000 ) ) ;
#161 = ORIENTED_EDGE ( 'NONE', *, *, #339, .T. ) ;
#162 = PRESENTATION_STYLE_ASSIGNMENT (( #305 ) ) ;
#163 = VECTOR ( 'NONE', #249, 39.37007874015748143 ) ;
#164 = AXIS2_PLACEMENT_3D ( 'NONE', #191, #136, #41 ) ;
#165 = ORIENTED_EDGE ( 'NONE', *, *, #261, .F. ) ;
#166 = EDGE_LOOP ( 'NONE', ( #302, #161 ) ) ;
#167 = EDGE_CURVE ( 'NONE', #138, #340, #216, .T. ) ;
#168 = DIRECTION ( 'NONE',  ( -1.222884531086113345E-16, 1.000000000000000000, -0.000000000000000000 ) ) ;
#169 = APPLICATION_CONTEXT ( 'automotive_design' ) ;
#170 = ORIENTED_EDGE ( 'NONE', *, *, #372, .F. ) ;
#171 = LENGTH_MEASURE_WITH_UNIT ( LENGTH_MEASURE( 0.02539999999999999897 ), #123 );
#172 = PRESENTATION_LAYER_ASSIGNMENT (  '', '', ( #54 ) ) ;
#173 = AXIS2_PLACEMENT_3D ( 'NONE', #113, #168, #283 ) ;
#174 = DIRECTION ( 'NONE',  ( 0.000000000000000000, -0.000000000000000000, 1.000000000000000000 ) ) ;
#175 = SURFACE_STYLE_FILL_AREA ( #354 ) ;
#176 = ADVANCED_FACE ( 'NONE', ( #342 ), #210, .T. ) ;
#177 =( NAMED_UNIT ( * ) PLANE_ANGLE_UNIT ( ) SI_UNIT ( $, .RADIAN. ) );
#178 = EDGE_CURVE ( 'NONE', #195, #223, #206, .T. ) ;
#179 = SURFACE_STYLE_USAGE ( .BOTH. , #319 ) ;
#180 =( GEOMETRIC_REPRESENTATION_CONTEXT ( 3 ) GLOBAL_UNCERTAINTY_ASSIGNED_CONTEXT ( ( #132 ) ) GLOBAL_UNIT_ASSIGNED_CONTEXT ( ( #76, #271, #42 ) ) REPRESENTATION_CONTEXT ( 'NONE', 'WORKASPACE' ) );
#181 = AXIS2_PLACEMENT_3D ( 'NONE', #52, #29, #27 ) ;
#182 = CYLINDRICAL_SURFACE ( 'NONE', #104, 0.09374999999999980571 ) ;
#183 = DIRECTION ( 'NONE',  ( -1.000000000000000000, -1.222884531086113345E-16, 0.000000000000000000 ) ) ;
#184 = DIRECTION ( 'NONE',  ( -1.222884531086113345E-16, 1.000000000000000000, 0.000000000000000000 ) ) ;
#185 = PRESENTATION_STYLE_ASSIGNMENT (( #272 ) ) ;
#186 = EDGE_CURVE ( 'NONE', #282, #77, #344, .T. ) ;
#187 = AXIS2_PLACEMENT_3D ( 'NONE', #362, #297, #219 ) ;
#188 = CIRCLE ( 'NONE', #164, 0.09375000000000002776 ) ;
#189 = DIMENSIONAL_EXPONENTS ( 1.000000000000000000, 0.000000000000000000, 0.000000000000000000, 0.000000000000000000, 0.000000000000000000, 0.000000000000000000, 0.000000000000000000 ) ;
#190 = AXIS2_PLACEMENT_3D ( 'NONE', #350, #86, #316 ) ;
#191 = CARTESIAN_POINT ( 'NONE',  ( 0.000000000000000000, 0.09375000000000004163, 0.000000000000000000 ) ) ;
#192 = EDGE_LOOP ( 'NONE', ( #246, #20, #307, #220 ) ) ;
#193 = UNCERTAINTY_MEASURE_WITH_UNIT (LENGTH_MEASURE( 1.000000000000000082E-05 ), #371, 'distance_accuracy_value', 'NONE');
#194 = EDGE_LOOP ( 'NONE', ( #281, #112, #242, #363, #39 ) ) ;
#195 = VERTEX_POINT ( 'NONE', #10 ) ;
#196 = SURFACE_STYLE_USAGE ( .BOTH. , #301 ) ;
#197 = VERTEX_POINT ( 'NONE', #153 ) ;
#198 = FILL_AREA_STYLE ('',( #227 ) ) ;
#199 =( NAMED_UNIT ( * ) PLANE_ANGLE_UNIT ( ) SI_UNIT ( $, .RADIAN. ) );
#200 = AXIS2_PLACEMENT_3D ( 'NONE', #291, #83, #28 ) ;
#201 = AXIS2_PLACEMENT_3D ( 'NONE', #241, #78, #286 ) ;
#202 = FACE_OUTER_BOUND ( 'NONE', #109, .T. ) ;
#203 = SURFACE_STYLE_USAGE ( .BOTH. , #311 ) ;
#204 = ADVANCED_FACE ( 'NONE', ( #13 ), #127, .T. ) ;
#205 = CARTESIAN_POINT ( 'NONE',  ( 0.000000000000000000, 0.3125000000000000000, 0.000000000000000000 ) ) ;
#206 = LINE ( 'NONE', #267, #139 ) ;
#207 = SURFACE_STYLE_USAGE ( .BOTH. , #122 ) ;
#208 = MECHANICAL_DESIGN_GEOMETRIC_PRESENTATION_REPRESENTATION (  '', ( #96 ), #279 ) ;
#209 = ADVANCED_FACE ( 'NONE', ( #303 ), #182, .T. ) ;
#210 = SPHERICAL_SURFACE ( 'NONE', #278, 0.09375000000000002776 ) ;
#211 = VECTOR ( 'NONE', #258, 39.37007874015748143 ) ;
#212 =( LENGTH_UNIT ( ) NAMED_UNIT ( * ) SI_UNIT ( $, .METRE. ) );
#213 = UNCERTAINTY_MEASURE_WITH_UNIT (LENGTH_MEASURE( 1.000000000000000082E-05 ), #38, 'distance_accuracy_value', 'NONE');
#214 = LENGTH_MEASURE_WITH_UNIT ( LENGTH_MEASURE( 0.02539999999999999897 ), #358 );
#215 = ORIENTED_EDGE ( 'NONE', *, *, #186, .T. ) ;
#216 = CIRCLE ( 'NONE', #323, 0.09374999999999969469 ) ;
#217 = CARTESIAN_POINT ( 'NONE',  ( 6.123233995736766036E-17, 2.000000000000000000, 0.000000000000000000 ) ) ;
#218 = FILL_AREA_STYLE ('',( #284 ) ) ;
#219 = DIRECTION ( 'NONE',  ( 1.000000000000000000, 0.000000000000000000, -1.224646799147353207E-16 ) ) ;
#220 = ORIENTED_EDGE ( 'NONE', *, *, #293, .T. ) ;
#221 = FILL_AREA_STYLE_COLOUR ( '', #63 ) ;
#222 = LINE ( 'NONE', #332, #92 ) ;
#223 = VERTEX_POINT ( 'NONE', #110 ) ;
#224 = DIRECTION ( 'NONE',  ( -0.000000000000000000, -1.000000000000000000, -0.000000000000000000 ) ) ;
#225 = CIRCLE ( 'NONE', #200, 0.09374999999999997224 ) ;
#226 = STYLED_ITEM ( 'NONE', ( #162 ), #264 ) ;
#227 = FILL_AREA_STYLE_COLOUR ( '', #268 ) ;
#228 = DIMENSIONAL_EXPONENTS ( 1.000000000000000000, 0.000000000000000000, 0.000000000000000000, 0.000000000000000000, 0.000000000000000000, 0.000000000000000000, 0.000000000000000000 ) ;
#229 = CARTESIAN_POINT ( 'NONE',  ( 0.09374999999999995837, 2.000000000000000000, 1.148106374200641706E-17 ) ) ;
#230 =( CONVERSION_BASED_UNIT ( 'INCH', #117 ) LENGTH_UNIT ( ) NAMED_UNIT ( #85 ) );
#231 = SURFACE_STYLE_FILL_AREA ( #198 ) ;
#232 = FILL_AREA_STYLE_COLOUR ( '', #102 ) ;
#233 = EDGE_CURVE ( 'NONE', #247, #105, #93, .T. ) ;
#234 =( GEOMETRIC_REPRESENTATION_CONTEXT ( 3 ) GLOBAL_UNCERTAINTY_ASSIGNED_CONTEXT ( ( #300 ) ) GLOBAL_UNIT_ASSIGNED_CONTEXT ( ( #5, #352, #373 ) ) REPRESENTATION_CONTEXT ( 'NONE', 'WORKASPACE' ) );
#235 = SURFACE_STYLE_USAGE ( .BOTH. , #327 ) ;
#236 = PRESENTATION_STYLE_ASSIGNMENT (( #235 ) ) ;
#237 = PRESENTATION_LAYER_ASSIGNMENT (  '', '', ( #313 ) ) ;
#238 = PRESENTATION_LAYER_ASSIGNMENT (  '', '', ( #26 ) ) ;
#239 = DIRECTION ( 'NONE',  ( -0.000000000000000000, -1.000000000000000000, -0.000000000000000000 ) ) ;
#240 = ORIENTED_EDGE ( 'NONE', *, *, #346, .F. ) ;
#241 = CARTESIAN_POINT ( 'NONE',  ( -1.148106374200644017E-17, 0.09375000000000002776, 0.000000000000000000 ) ) ;
#242 = ORIENTED_EDGE ( 'NONE', *, *, #356, .T. ) ;
#243 =( GEOMETRIC_REPRESENTATION_CONTEXT ( 3 ) GLOBAL_UNCERTAINTY_ASSIGNED_CONTEXT ( ( #155 ) ) GLOBAL_UNIT_ASSIGNED_CONTEXT ( ( #65, #97, #152 ) ) REPRESENTATION_CONTEXT ( 'NONE', 'WORKASPACE' ) );
#244 = DIRECTION ( 'NONE',  ( -1.000000000000000000, 0.000000000000000000, 0.000000000000000000 ) ) ;
#245 = AXIS2_PLACEMENT_3D ( 'NONE', #341, #260, #351 ) ;
#246 = ORIENTED_EDGE ( 'NONE', *, *, #186, .F. ) ;
#247 = VERTEX_POINT ( 'NONE', #44 ) ;
#248 = CYLINDRICAL_SURFACE ( 'NONE', #34, 0.09374999999999998612 ) ;
#249 = DIRECTION ( 'NONE',  ( -1.222884531086113345E-16, 1.000000000000000000, -0.000000000000000000 ) ) ;
#250 = PRESENTATION_LAYER_ASSIGNMENT (  '', '', ( #25 ) ) ;
#251 = AXIS2_PLACEMENT_3D ( 'NONE', #60, #94, #294 ) ;
#252 = CARTESIAN_POINT ( 'NONE',  ( 0.09374999999999997224, 2.000000000000000000, 0.000000000000000000 ) ) ;
#253 = CARTESIAN_POINT ( 'NONE',  ( 2.675941045781492611E-16, 0.3125000000000000000, 0.000000000000000000 ) ) ;
#254 = DIRECTION ( 'NONE',  ( -0.000000000000000000, -1.000000000000000000, -0.000000000000000000 ) ) ;
#255 = DIMENSIONAL_EXPONENTS ( 1.000000000000000000, 0.000000000000000000, 0.000000000000000000, 0.000000000000000000, 0.000000000000000000, 0.000000000000000000, 0.000000000000000000 ) ;
#256 = CARTESIAN_POINT ( 'NONE',  ( 0.09374999999999995837, 0.3125000000000000000, 1.148106374200641706E-17 ) ) ;
#257 =( LENGTH_UNIT ( ) NAMED_UNIT ( * ) SI_UNIT ( $, .METRE. ) );
#258 = DIRECTION ( 'NONE',  ( -0.000000000000000000, -1.000000000000000000, -0.000000000000000000 ) ) ;
#259 = DIRECTION ( 'NONE',  ( 0.000000000000000000, 0.000000000000000000, -1.000000000000000000 ) ) ;
#260 = DIRECTION ( 'NONE',  ( -1.222884531086113345E-16, 1.000000000000000000, -0.000000000000000000 ) ) ;
#261 = EDGE_CURVE ( 'NONE', #135, #197, #188, .T. ) ;
#262 = PLANE ( 'NONE',  #144 ) ;
#263 = COLOUR_RGB ( '',0.7921568627450980005, 0.8196078431372548767, 0.9333333333333333481 ) ;
#264 = ADVANCED_FACE ( 'NONE', ( #154 ), #248, .T. ) ;
#265 = SURFACE_STYLE_FILL_AREA ( #103 ) ;
#266 = APPLICATION_PROTOCOL_DEFINITION ( 'draft international standard', 'automotive_design', 1998, #90 ) ;
#267 = CARTESIAN_POINT ( 'NONE',  ( 1.148106374200643401E-17, 0.000000000000000000, 0.09374999999999998612 ) ) ;
#268 = COLOUR_RGB ( '',1.000000000000000000, 0.000000000000000000, 0.000000000000000000 ) ;
#269 = MANIFOLD_SOLID_BREP ( 'Revolve - Cutting Edge', #320 ) ;
#270 = SURFACE_SIDE_STYLE ('',( #334 ) ) ;
#271 =( NAMED_UNIT ( * ) PLANE_ANGLE_UNIT ( ) SI_UNIT ( $, .RADIAN. ) );
#272 = SURFACE_STYLE_USAGE ( .BOTH. , #124 ) ;
#273 = ORIENTED_EDGE ( 'NONE', *, *, #293, .F. ) ;
#274 = UNCERTAINTY_MEASURE_WITH_UNIT (LENGTH_MEASURE( 1.000000000000000082E-05 ), #1, 'distance_accuracy_value', 'NONE');
#275 = FILL_AREA_STYLE_COLOUR ( '', #263 ) ;
#276 = CARTESIAN_POINT ( 'NONE',  ( 0.000000000000000000, 0.09375000000000004163, -0.09375000000000002776 ) ) ;
#277 = LINE ( 'NONE', #21, #163 ) ;
#278 = AXIS2_PLACEMENT_3D ( 'NONE', #64, #158, #137 ) ;
#279 =( GEOMETRIC_REPRESENTATION_CONTEXT ( 3 ) GLOBAL_UNCERTAINTY_ASSIGNED_CONTEXT ( ( #100 ) ) GLOBAL_UNIT_ASSIGNED_CONTEXT ( ( #68, #9, #359 ) ) REPRESENTATION_CONTEXT ( 'NONE', 'WORKASPACE' ) );
#280 = CARTESIAN_POINT ( 'NONE',  ( -0.09374999999999943101, 0.3125000000000000000, 0.000000000000000000 ) ) ;
#281 = ORIENTED_EDGE ( 'NONE', *, *, #178, .F. ) ;
#282 = VERTEX_POINT ( 'NONE', #353 ) ;
#283 = DIRECTION ( 'NONE',  ( -1.000000000000000000, 0.000000000000000000, 0.000000000000000000 ) ) ;
#284 = FILL_AREA_STYLE_COLOUR ( '', #287 ) ;
#285 = LENGTH_MEASURE_WITH_UNIT ( LENGTH_MEASURE( 0.02539999999999999897 ), #116 );
#286 = DIRECTION ( 'NONE',  ( -1.000000000000000000, 0.000000000000000000, 0.000000000000000000 ) ) ;
#287 = COLOUR_RGB ( '',0.7921568627450980005, 0.8196078431372548767, 0.9333333333333333481 ) ;
#288 = CARTESIAN_POINT ( 'NONE',  ( -5.740531871003220085E-18, 0.000000000000000000, 0.000000000000000000 ) ) ;
#289 = DIRECTION ( 'NONE',  ( -1.000000000000000000, 0.000000000000000000, 0.000000000000000000 ) ) ;
#290 = DIMENSIONAL_EXPONENTS ( 1.000000000000000000, 0.000000000000000000, 0.000000000000000000, 0.000000000000000000, 0.000000000000000000, 0.000000000000000000, 0.000000000000000000 ) ;
#291 = CARTESIAN_POINT ( 'NONE',  ( 0.000000000000000000, 0.3125000000000000000, 0.000000000000000000 ) ) ;
#292 = FACE_OUTER_BOUND ( 'NONE', #310, .T. ) ;
#293 = EDGE_CURVE ( 'NONE', #197, #77, #3, .T. ) ;
#294 = DIRECTION ( 'NONE',  ( 1.000000000000000000, 0.000000000000000000, 0.000000000000000000 ) ) ;
#295 = MECHANICAL_DESIGN_GEOMETRIC_PRESENTATION_REPRESENTATION (  '', ( #357 ), #180 ) ;
#296 = DIRECTION ( 'NONE',  ( 1.000000000000000000, 0.000000000000000000, 0.000000000000000000 ) ) ;
#297 = DIRECTION ( 'NONE',  ( 1.224646799147353207E-16, -0.000000000000000000, 1.000000000000000000 ) ) ;
#298 = PRODUCT_DEFINITION_FORMATION_WITH_SPECIFIED_SOURCE ( 'ANY', '', #80, .NOT_KNOWN. ) ;
#299 = PRODUCT_RELATED_PRODUCT_CATEGORY ( 'part', '', ( #80 ) ) ;
#300 = UNCERTAINTY_MEASURE_WITH_UNIT (LENGTH_MEASURE( 1.000000000000000082E-05 ), #5, 'distance_accuracy_value', 'NONE');
#301 = SURFACE_SIDE_STYLE ('',( #335 ) ) ;
#302 = ORIENTED_EDGE ( 'NONE', *, *, #233, .T. ) ;
#303 = FACE_OUTER_BOUND ( 'NONE', #71, .T. ) ;
#304 = ORIENTED_EDGE ( 'NONE', *, *, #356, .F. ) ;
#305 = SURFACE_STYLE_USAGE ( .BOTH. , #270 ) ;
#306 = EDGE_CURVE ( 'NONE', #223, #282, #8, .T. ) ;
#307 = ORIENTED_EDGE ( 'NONE', *, *, #261, .T. ) ;
#308 = CLOSED_SHELL ( 'NONE', ( #209, #134, #115, #368 ) ) ;
#309 =( LENGTH_UNIT ( ) NAMED_UNIT ( * ) SI_UNIT ( $, .METRE. ) );
#310 = EDGE_LOOP ( 'NONE', ( #51, #75 ) ) ;
#311 = SURFACE_SIDE_STYLE ('',( #18 ) ) ;
#312 = CARTESIAN_POINT ( 'NONE',  ( 0.000000000000000000, 0.09375000000000004163, 0.000000000000000000 ) ) ;
#313 = STYLED_ITEM ( 'NONE', ( #185 ), #176 ) ;
#314 =( GEOMETRIC_REPRESENTATION_CONTEXT ( 3 ) GLOBAL_UNCERTAINTY_ASSIGNED_CONTEXT ( ( #213 ) ) GLOBAL_UNIT_ASSIGNED_CONTEXT ( ( #38, #365, #108 ) ) REPRESENTATION_CONTEXT ( 'NONE', 'WORKASPACE' ) );
#315 = CYLINDRICAL_SURFACE ( 'NONE', #355, 0.09374999999999980571 ) ;
#316 = DIRECTION ( 'NONE',  ( 0.000000000000000000, 0.000000000000000000, -1.000000000000000000 ) ) ;
#317 = DIMENSIONAL_EXPONENTS ( 1.000000000000000000, 0.000000000000000000, 0.000000000000000000, 0.000000000000000000, 0.000000000000000000, 0.000000000000000000, 0.000000000000000000 ) ;
#318 =( NAMED_UNIT ( * ) SI_UNIT ( $, .STERADIAN. ) SOLID_ANGLE_UNIT ( ) );
#319 = SURFACE_SIDE_STYLE ('',( #231 ) ) ;
#320 = CLOSED_SHELL ( 'NONE', ( #176, #264, #73, #59, #204 ) ) ;
#321 = CIRCLE ( 'NONE', #47, 0.09375000000000002776 ) ;
#322 = SHAPE_DEFINITION_REPRESENTATION ( #349, #150 ) ;
#323 = AXIS2_PLACEMENT_3D ( 'NONE', #253, #347, #53 ) ;
#324 = DIRECTION ( 'NONE',  ( 0.000000000000000000, 0.000000000000000000, 1.000000000000000000 ) ) ;
#325 = AXIS2_PLACEMENT_3D ( 'NONE', #217, #367, #244 ) ;
#326 = PLANE ( 'NONE',  #62 ) ;
#327 = SURFACE_SIDE_STYLE ('',( #265 ) ) ;
#328 = AXIS2_PLACEMENT_3D ( 'NONE', #50, #23, #79 ) ;
#329 = ORIENTED_EDGE ( 'NONE', *, *, #46, .T. ) ;
#330 = DIRECTION ( 'NONE',  ( -1.000000000000000000, 0.000000000000000000, 0.000000000000000000 ) ) ;
#331 = LENGTH_MEASURE_WITH_UNIT ( LENGTH_MEASURE( 0.02539999999999999897 ), #309 );
#332 = CARTESIAN_POINT ( 'NONE',  ( -0.09374999999999973632, 2.000000000000000000, 0.000000000000000000 ) ) ;
#333 = ORIENTED_EDGE ( 'NONE', *, *, #11, .T. ) ;
#334 = SURFACE_STYLE_FILL_AREA ( #101 ) ;
#335 = SURFACE_STYLE_FILL_AREA ( #218 ) ;
#336 = VERTEX_POINT ( 'NONE', #114 ) ;
#337 = AXIS2_PLACEMENT_3D ( 'NONE', #95, #324, #296 ) ;
#338 = FILL_AREA_STYLE ('',( #275 ) ) ;
#339 = EDGE_CURVE ( 'NONE', #105, #247, #37, .T. ) ;
#340 = VERTEX_POINT ( 'NONE', #256 ) ;
#341 = CARTESIAN_POINT ( 'NONE',  ( 6.123233995736766036E-17, 2.000000000000000000, 0.000000000000000000 ) ) ;
#342 = FACE_OUTER_BOUND ( 'NONE', #159, .T. ) ;
#343 = DIMENSIONAL_EXPONENTS ( 1.000000000000000000, 0.000000000000000000, 0.000000000000000000, 0.000000000000000000, 0.000000000000000000, 0.000000000000000000, 0.000000000000000000 ) ;
#344 = CIRCLE ( 'NONE', #187, 0.09375000000000002776 ) ;
#345 = DIRECTION ( 'NONE',  ( 1.000000000000000000, 1.222884531086113345E-16, 0.000000000000000000 ) ) ;
#346 = EDGE_CURVE ( 'NONE', #340, #138, #348, .T. ) ;
#347 = DIRECTION ( 'NONE',  ( -1.222884531086113345E-16, 1.000000000000000000, -0.000000000000000000 ) ) ;
#348 = CIRCLE ( 'NONE', #173, 0.09374999999999969469 ) ;
#349 = PRODUCT_DEFINITION_SHAPE ( 'NONE', 'NONE',  #126 ) ;
#350 = CARTESIAN_POINT ( 'NONE',  ( 0.000000000000000000, 0.3125000000000000000, 0.000000000000000000 ) ) ;
#351 = DIRECTION ( 'NONE',  ( -1.000000000000000000, 0.000000000000000000, 0.000000000000000000 ) ) ;
#352 =( NAMED_UNIT ( * ) PLANE_ANGLE_UNIT ( ) SI_UNIT ( $, .RADIAN. ) );
#353 = CARTESIAN_POINT ( 'NONE',  ( -0.09375000000000002776, 0.09375000000000004163, 1.148106374200643863E-17 ) ) ;
#354 = FILL_AREA_STYLE ('',( #232 ) ) ;
#355 = AXIS2_PLACEMENT_3D ( 'NONE', #119, #56, #289 ) ;
#356 = EDGE_CURVE ( 'NONE', #336, #135, #89, .T. ) ;
#357 = STYLED_ITEM ( 'NONE', ( #157 ), #148 ) ;
#358 =( LENGTH_UNIT ( ) NAMED_UNIT ( * ) SI_UNIT ( $, .METRE. ) );
#359 =( NAMED_UNIT ( * ) SI_UNIT ( $, .STERADIAN. ) SOLID_ANGLE_UNIT ( ) );
#360 =( LENGTH_UNIT ( ) NAMED_UNIT ( * ) SI_UNIT ( $, .METRE. ) );
#361 = ORIENTED_EDGE ( 'NONE', *, *, #339, .F. ) ;
#362 = CARTESIAN_POINT ( 'NONE',  ( -1.148106374200644017E-17, 0.09375000000000002776, 0.000000000000000000 ) ) ;
#363 = ORIENTED_EDGE ( 'NONE', *, *, #151, .F. ) ;
#364 = DIRECTION ( 'NONE',  ( -1.222884531086113345E-16, 1.000000000000000000, -0.000000000000000000 ) ) ;
#365 =( NAMED_UNIT ( * ) PLANE_ANGLE_UNIT ( ) SI_UNIT ( $, .RADIAN. ) );
#366 = ORIENTED_EDGE ( 'NONE', *, *, #11, .F. ) ;
#367 = DIRECTION ( 'NONE',  ( -1.222884531086113345E-16, 1.000000000000000000, -0.000000000000000000 ) ) ;
#368 = ADVANCED_FACE ( 'NONE', ( #145 ), #57, .F. ) ;
#369 = CYLINDRICAL_SURFACE ( 'NONE', #82, 0.09374999999999998612 ) ;
#370 = AXIS2_PLACEMENT_3D ( 'NONE', #252, #87, #345 ) ;
#371 =( CONVERSION_BASED_UNIT ( 'INCH', #171 ) LENGTH_UNIT ( ) NAMED_UNIT ( #343 ) );
#372 = EDGE_CURVE ( 'NONE', #197, #223, #321, .T. ) ;
#373 =( NAMED_UNIT ( * ) SI_UNIT ( $, .STERADIAN. ) SOLID_ANGLE_UNIT ( ) );
ENDSEC;
END-ISO-10303-21;
