ISO-10303-21;
HEADER;
FILE_DESCRIPTION (( 'STEP AP214' ),
    '1' );
FILE_NAME ('Micro_RSC-312-2.STEP',
    '2021-09-03T17:50:52',
    ( '' ),
    ( '' ),
    'SwSTEP 2.0',
    'SolidWorks 2020',
    '' );
FILE_SCHEMA (( 'AUTOMOTIVE_DESIGN' ));
ENDSEC;

DATA;
#1 = CARTESIAN_POINT ( 'NONE',  ( 0.0000000000000000000, 0.0000000000000000000, 0.2637047354523606724 ) ) ;
#2 = CARTESIAN_POINT ( 'NONE',  ( 0.0000000000000000000, 0.0000000000000000000, 0.0000000000000000000 ) ) ;
#3 = ORIENTED_EDGE ( 'NONE', *, *, #23, .T. ) ;
#4 = CIRCLE ( 'NONE', #95, 0.1562500000000000000 ) ;
#5 = STYLED_ITEM ( 'NONE', ( #231 ), #60 ) ;
#6 = ADVANCED_FACE ( 'NONE', ( #51 ), #184, .T. ) ;
#7 = FACE_OUTER_BOUND ( 'NONE', #212, .T. ) ;
#8 =( NAMED_UNIT ( * ) SI_UNIT ( $, .STERADIAN. ) SOLID_ANGLE_UNIT ( ) );
#9 = PRODUCT_RELATED_PRODUCT_CATEGORY ( 'part', '', ( #112 ) ) ;
#10 = DIRECTION ( 'NONE',  ( -1.000000000000000000, 0.0000000000000000000, 0.0000000000000000000 ) ) ;
#11 = CONICAL_SURFACE ( 'NONE', #161, 0.003999999999999999216, 0.5235987755983003700 ) ;
#12 = DIRECTION ( 'NONE',  ( 0.5000000000000012212, 0.0000000000000000000, 0.8660254037844377084 ) ) ;
#13 = AXIS2_PLACEMENT_3D ( 'NONE', #1, #123, #10 ) ;
#14 = ADVANCED_FACE ( 'NONE', ( #159 ), #199, .T. ) ;
#15 = PRODUCT_DEFINITION_FORMATION_WITH_SPECIFIED_SOURCE ( 'ANY', '', #112, .NOT_KNOWN. ) ;
#16 = ORIENTED_EDGE ( 'NONE', *, *, #32, .T. ) ;
#17 = DIRECTION ( 'NONE',  ( 1.000000000000000000, 0.0000000000000000000, 0.0000000000000000000 ) ) ;
#18 = ADVANCED_FACE ( 'NONE', ( #78 ), #74, .T. ) ;
#19 = AXIS2_PLACEMENT_3D ( 'NONE', #213, #61, #17 ) ;
#20 = DIRECTION ( 'NONE',  ( 0.0000000000000000000, 0.0000000000000000000, -1.000000000000000000 ) ) ;
#21 = CARTESIAN_POINT ( 'NONE',  ( 0.003999999999999999216, 0.0000000000000000000, 2.500000000000000000 ) ) ;
#22 = APPLICATION_PROTOCOL_DEFINITION ( 'draft international standard', 'automotive_design', 1998, #160 ) ;
#23 = EDGE_CURVE ( 'NONE', #67, #221, #101, .T. ) ;
#24 = PRESENTATION_LAYER_ASSIGNMENT (  '', '', ( #77 ) ) ;
#25 = AXIS2_PLACEMENT_3D ( 'NONE', #44, #31, #93 ) ;
#26 = EDGE_LOOP ( 'NONE', ( #168, #172, #204, #117 ) ) ;
#27 = EDGE_CURVE ( 'NONE', #221, #64, #122, .T. ) ;
#28 = FACE_OUTER_BOUND ( 'NONE', #80, .T. ) ;
#29 = FILL_AREA_STYLE ('',( #166 ) ) ;
#30 = APPLICATION_CONTEXT ( 'automotive_design' ) ;
#31 = DIRECTION ( 'NONE',  ( 0.0000000000000000000, 0.0000000000000000000, 1.000000000000000000 ) ) ;
#32 = EDGE_CURVE ( 'NONE', #177, #193, #146, .T. ) ;
#33 = CARTESIAN_POINT ( 'NONE',  ( 0.003999999999999999216, 0.0000000000000000000, 0.0000000000000000000 ) ) ;
#34 = VERTEX_POINT ( 'NONE', #229 ) ;
#35 = ORIENTED_EDGE ( 'NONE', *, *, #23, .F. ) ;
#36 = ADVANCED_FACE ( 'NONE', ( #196 ), #134, .T. ) ;
#37 = EDGE_LOOP ( 'NONE', ( #154, #48, #62, #35 ) ) ;
#38 = EDGE_CURVE ( 'NONE', #67, #206, #189, .T. ) ;
#39 = AXIS2_PLACEMENT_3D ( 'NONE', #192, #243, #197 ) ;
#40 = CARTESIAN_POINT ( 'NONE',  ( 0.1562500000000000000, 1.913510623667739463E-17, 0.2637047354523606724 ) ) ;
#41 = DIRECTION ( 'NONE',  ( 1.000000000000000000, 0.0000000000000000000, 0.0000000000000000000 ) ) ;
#42 = EDGE_LOOP ( 'NONE', ( #75, #104, #135, #207 ) ) ;
#43 = EDGE_CURVE ( 'NONE', #203, #221, #4, .T. ) ;
#44 = CARTESIAN_POINT ( 'NONE',  ( 0.0000000000000000000, 0.0000000000000000000, 0.0000000000000000000 ) ) ;
#45 = PLANE ( 'NONE',  #191 ) ;
#46 = LINE ( 'NONE', #33, #68 ) ;
#47 = UNCERTAINTY_MEASURE_WITH_UNIT (LENGTH_MEASURE( 1.000000000000000082E-05 ), #181, 'distance_accuracy_value', 'NONE');
#48 = ORIENTED_EDGE ( 'NONE', *, *, #198, .T. ) ;
#49 =( NAMED_UNIT ( * ) SI_UNIT ( $, .STERADIAN. ) SOLID_ANGLE_UNIT ( ) );
#50 = ORIENTED_EDGE ( 'NONE', *, *, #211, .F. ) ;
#51 = FACE_OUTER_BOUND ( 'NONE', #152, .T. ) ;
#52 = EDGE_CURVE ( 'NONE', #203, #193, #225, .T. ) ;
#53 =( NAMED_UNIT ( * ) PLANE_ANGLE_UNIT ( ) SI_UNIT ( $, .RADIAN. ) );
#54 = ORIENTED_EDGE ( 'NONE', *, *, #43, .T. ) ;
#55 =( GEOMETRIC_REPRESENTATION_CONTEXT ( 3 ) GLOBAL_UNCERTAINTY_ASSIGNED_CONTEXT ( ( #47 ) ) GLOBAL_UNIT_ASSIGNED_CONTEXT ( ( #181, #53, #49 ) ) REPRESENTATION_CONTEXT ( 'NONE', 'WORKASPACE' ) );
#56 = CARTESIAN_POINT ( 'NONE',  ( -0.1562500000000000000, 0.0000000000000000000, 2.500000000000000000 ) ) ;
#57 = DIRECTION ( 'NONE',  ( 0.0000000000000000000, 0.0000000000000000000, 1.000000000000000000 ) ) ;
#58 = DIRECTION ( 'NONE',  ( -0.0000000000000000000, -0.0000000000000000000, -1.000000000000000000 ) ) ;
#59 = SURFACE_SIDE_STYLE ('',( #209 ) ) ;
#60 = ADVANCED_BREP_SHAPE_REPRESENTATION ( 'Micro_RSC-312-2', ( #155, #25 ), #55 ) ;
#61 = DIRECTION ( 'NONE',  ( 0.0000000000000000000, 0.0000000000000000000, -1.000000000000000000 ) ) ;
#62 = ORIENTED_EDGE ( 'NONE', *, *, #76, .F. ) ;
#63 = CLOSED_SHELL ( 'NONE', ( #36, #228, #214, #18, #247, #107, #6, #14 ) ) ;
#64 = VERTEX_POINT ( 'NONE', #40 ) ;
#65 = EDGE_CURVE ( 'NONE', #206, #67, #215, .T. ) ;
#66 = DIRECTION ( 'NONE',  ( -1.000000000000000000, 0.0000000000000000000, 0.0000000000000000000 ) ) ;
#67 = VERTEX_POINT ( 'NONE', #21 ) ;
#68 = VECTOR ( 'NONE', #12, 39.37007874015748854 ) ;
#69 = CARTESIAN_POINT ( 'NONE',  ( 0.0000000000000000000, 0.0000000000000000000, 2.236295264547639494 ) ) ;
#70 = CYLINDRICAL_SURFACE ( 'NONE', #143, 0.1562500000000000000 ) ;
#71 = CARTESIAN_POINT ( 'NONE',  ( 0.0000000000000000000, 0.0000000000000000000, 0.2637047354523606724 ) ) ;
#72 = UNCERTAINTY_MEASURE_WITH_UNIT (LENGTH_MEASURE( 1.000000000000000082E-05 ), #173, 'distance_accuracy_value', 'NONE');
#73 = SHAPE_DEFINITION_REPRESENTATION ( #239, #60 ) ;
#74 = CYLINDRICAL_SURFACE ( 'NONE', #39, 0.1562500000000000000 ) ;
#75 = ORIENTED_EDGE ( 'NONE', *, *, #27, .F. ) ;
#76 = EDGE_CURVE ( 'NONE', #221, #203, #179, .T. ) ;
#77 = STYLED_ITEM ( 'NONE', ( #188 ), #155 ) ;
#78 = FACE_OUTER_BOUND ( 'NONE', #42, .T. ) ;
#79 = DIRECTION ( 'NONE',  ( -1.000000000000000000, 0.0000000000000000000, 0.0000000000000000000 ) ) ;
#80 = EDGE_LOOP ( 'NONE', ( #54, #147, #50, #133 ) ) ;
#81 = MECHANICAL_DESIGN_GEOMETRIC_PRESENTATION_REPRESENTATION (  '', ( #5 ), #106 ) ;
#82 = DIRECTION ( 'NONE',  ( 0.0000000000000000000, 0.0000000000000000000, -1.000000000000000000 ) ) ;
#83 = DIRECTION ( 'NONE',  ( 0.0000000000000000000, 0.0000000000000000000, 1.000000000000000000 ) ) ;
#84 = CARTESIAN_POINT ( 'NONE',  ( 0.1562500000000000000, 1.913510623667739463E-17, 2.500000000000000000 ) ) ;
#85 = CARTESIAN_POINT ( 'NONE',  ( 0.0000000000000000000, 0.0000000000000000000, 0.0000000000000000000 ) ) ;
#86 = DIMENSIONAL_EXPONENTS ( 1.000000000000000000, 0.0000000000000000000, 0.0000000000000000000, 0.0000000000000000000, 0.0000000000000000000, 0.0000000000000000000, 0.0000000000000000000 ) ;
#87 = CIRCLE ( 'NONE', #151, 0.003999999999999999216 ) ;
#88 = FACE_OUTER_BOUND ( 'NONE', #121, .T. ) ;
#89 = DIRECTION ( 'NONE',  ( -0.0000000000000000000, -0.0000000000000000000, -1.000000000000000000 ) ) ;
#90 = CARTESIAN_POINT ( 'NONE',  ( 0.0000000000000000000, 0.0000000000000000000, 0.0000000000000000000 ) ) ;
#91 = DIRECTION ( 'NONE',  ( 0.0000000000000000000, 0.0000000000000000000, -1.000000000000000000 ) ) ;
#92 =( NAMED_UNIT ( * ) PLANE_ANGLE_UNIT ( ) SI_UNIT ( $, .RADIAN. ) );
#93 = DIRECTION ( 'NONE',  ( 1.000000000000000000, 0.0000000000000000000, 0.0000000000000000000 ) ) ;
#94 =( LENGTH_UNIT ( ) NAMED_UNIT ( * ) SI_UNIT ( $, .METRE. ) );
#95 = AXIS2_PLACEMENT_3D ( 'NONE', #141, #20, #158 ) ;
#96 = ORIENTED_EDGE ( 'NONE', *, *, #38, .F. ) ;
#97 = CARTESIAN_POINT ( 'NONE',  ( 0.0000000000000000000, 0.0000000000000000000, 2.500000000000000000 ) ) ;
#98 = DIRECTION ( 'NONE',  ( 1.000000000000000000, 0.0000000000000000000, 0.0000000000000000000 ) ) ;
#99 = CARTESIAN_POINT ( 'NONE',  ( -0.003999999999999999216, 4.898587196589411612E-19, 0.0000000000000000000 ) ) ;
#100 = VECTOR ( 'NONE', #120, 39.37007874015748854 ) ;
#101 = LINE ( 'NONE', #240, #230 ) ;
#102 = FILL_AREA_STYLE_COLOUR ( '', #201 ) ;
#103 = PRODUCT_DEFINITION_CONTEXT ( 'detailed design', #30, 'design' ) ;
#104 = ORIENTED_EDGE ( 'NONE', *, *, #76, .T. ) ;
#105 = CIRCLE ( 'NONE', #13, 0.1562500000000000000 ) ;
#106 =( GEOMETRIC_REPRESENTATION_CONTEXT ( 3 ) GLOBAL_UNCERTAINTY_ASSIGNED_CONTEXT ( ( #72 ) ) GLOBAL_UNIT_ASSIGNED_CONTEXT ( ( #173, #235, #113 ) ) REPRESENTATION_CONTEXT ( 'NONE', 'WORKASPACE' ) );
#107 = ADVANCED_FACE ( 'NONE', ( #7 ), #45, .F. ) ;
#108 = VECTOR ( 'NONE', #140, 39.37007874015748143 ) ;
#109 = PRODUCT_CONTEXT ( 'NONE', #160, 'mechanical' ) ;
#110 = DIRECTION ( 'NONE',  ( 1.000000000000000000, 0.0000000000000000000, -0.0000000000000000000 ) ) ;
#111 = CARTESIAN_POINT ( 'NONE',  ( 0.1562500000000000000, 1.913510623667739463E-17, 2.236295264547639494 ) ) ;
#112 = PRODUCT ( 'Micro_RSC-312-2', 'Micro_RSC-312-2', '', ( #109 ) ) ;
#113 =( NAMED_UNIT ( * ) SI_UNIT ( $, .STERADIAN. ) SOLID_ANGLE_UNIT ( ) );
#114 = MECHANICAL_DESIGN_GEOMETRIC_PRESENTATION_REPRESENTATION (  '', ( #77 ), #131 ) ;
#115 = ORIENTED_EDGE ( 'NONE', *, *, #43, .F. ) ;
#116 = CARTESIAN_POINT ( 'NONE',  ( -0.1562500000000000000, 0.0000000000000000000, 0.2637047354523606724 ) ) ;
#117 = ORIENTED_EDGE ( 'NONE', *, *, #185, .T. ) ;
#118 = CARTESIAN_POINT ( 'NONE',  ( -0.003999999999999999216, -4.898587196589411612E-19, 2.500000000000000000 ) ) ;
#119 = EDGE_CURVE ( 'NONE', #177, #34, #241, .T. ) ;
#120 = DIRECTION ( 'NONE',  ( -0.5000000000000012212, -6.123233995736780827E-17, -0.8660254037844377084 ) ) ;
#121 = EDGE_LOOP ( 'NONE', ( #175, #16, #195, #220 ) ) ;
#122 = LINE ( 'NONE', #84, #138 ) ;
#123 = DIRECTION ( 'NONE',  ( -0.0000000000000000000, -0.0000000000000000000, -1.000000000000000000 ) ) ;
#124 = LENGTH_MEASURE_WITH_UNIT ( LENGTH_MEASURE( 0.02539999999999999897 ), #94 );
#125 = AXIS2_PLACEMENT_3D ( 'NONE', #249, #83, #157 ) ;
#126 = DIRECTION ( 'NONE',  ( -1.000000000000000000, 0.0000000000000000000, 0.0000000000000000000 ) ) ;
#127 = DIRECTION ( 'NONE',  ( 0.0000000000000000000, 0.0000000000000000000, 1.000000000000000000 ) ) ;
#128 = AXIS2_PLACEMENT_3D ( 'NONE', #226, #57, #98 ) ;
#129 = ORIENTED_EDGE ( 'NONE', *, *, #65, .F. ) ;
#130 = SURFACE_STYLE_FILL_AREA ( #29 ) ;
#131 =( GEOMETRIC_REPRESENTATION_CONTEXT ( 3 ) GLOBAL_UNCERTAINTY_ASSIGNED_CONTEXT ( ( #132 ) ) GLOBAL_UNIT_ASSIGNED_CONTEXT ( ( #200, #92, #8 ) ) REPRESENTATION_CONTEXT ( 'NONE', 'WORKASPACE' ) );
#132 = UNCERTAINTY_MEASURE_WITH_UNIT (LENGTH_MEASURE( 1.000000000000000082E-05 ), #200, 'distance_accuracy_value', 'NONE');
#133 = ORIENTED_EDGE ( 'NONE', *, *, #52, .F. ) ;
#134 = CONICAL_SURFACE ( 'NONE', #19, 0.003999999999999999216, 0.5235987755983003700 ) ;
#135 = ORIENTED_EDGE ( 'NONE', *, *, #52, .T. ) ;
#136 = LINE ( 'NONE', #118, #100 ) ;
#137 = CARTESIAN_POINT ( 'NONE',  ( -0.003999999999999999216, -9.812482478168168956E-18, 2.500000000000000000 ) ) ;
#138 = VECTOR ( 'NONE', #210, 39.37007874015748143 ) ;
#139 = LENGTH_MEASURE_WITH_UNIT ( LENGTH_MEASURE( 0.02539999999999999897 ), #176 );
#140 = DIRECTION ( 'NONE',  ( -0.0000000000000000000, -0.0000000000000000000, -1.000000000000000000 ) ) ;
#141 = CARTESIAN_POINT ( 'NONE',  ( 0.0000000000000000000, 0.0000000000000000000, 2.236295264547639494 ) ) ;
#142 = ORIENTED_EDGE ( 'NONE', *, *, #119, .T. ) ;
#143 = AXIS2_PLACEMENT_3D ( 'NONE', #169, #149, #216 ) ;
#144 = DIRECTION ( 'NONE',  ( 0.0000000000000000000, 0.0000000000000000000, 1.000000000000000000 ) ) ;
#145 = EDGE_CURVE ( 'NONE', #34, #177, #87, .T. ) ;
#146 = LINE ( 'NONE', #99, #187 ) ;
#147 = ORIENTED_EDGE ( 'NONE', *, *, #27, .T. ) ;
#148 = CIRCLE ( 'NONE', #205, 0.1562500000000000000 ) ;
#149 = DIRECTION ( 'NONE',  ( -0.0000000000000000000, -0.0000000000000000000, -1.000000000000000000 ) ) ;
#150 = DIRECTION ( 'NONE',  ( -1.000000000000000000, 0.0000000000000000000, 0.0000000000000000000 ) ) ;
#151 = AXIS2_PLACEMENT_3D ( 'NONE', #85, #89, #232 ) ;
#152 = EDGE_LOOP ( 'NONE', ( #190, #217, #3, #115 ) ) ;
#153 = DIRECTION ( 'NONE',  ( -0.0000000000000000000, -0.0000000000000000000, -1.000000000000000000 ) ) ;
#154 = ORIENTED_EDGE ( 'NONE', *, *, #38, .T. ) ;
#155 = MANIFOLD_SOLID_BREP ( 'Mirror1', #63 ) ;
#156 = COLOUR_RGB ( '',0.7921568627450980005, 0.8196078431372548767, 0.9333333333333333481 ) ;
#157 = DIRECTION ( 'NONE',  ( 1.000000000000000000, 0.0000000000000000000, -0.0000000000000000000 ) ) ;
#158 = DIRECTION ( 'NONE',  ( -1.000000000000000000, 0.0000000000000000000, 0.0000000000000000000 ) ) ;
#159 = FACE_OUTER_BOUND ( 'NONE', #234, .T. ) ;
#160 = APPLICATION_CONTEXT ( 'automotive_design' ) ;
#161 = AXIS2_PLACEMENT_3D ( 'NONE', #163, #144, #41 ) ;
#162 = DIRECTION ( 'NONE',  ( 0.5000000000000012212, 0.0000000000000000000, -0.8660254037844377084 ) ) ;
#163 = CARTESIAN_POINT ( 'NONE',  ( 0.0000000000000000000, 0.0000000000000000000, 0.0000000000000000000 ) ) ;
#164 = CONICAL_SURFACE ( 'NONE', #128, 0.003999999999999999216, 0.5235987755983003700 ) ;
#165 = SURFACE_STYLE_USAGE ( .BOTH. , #59 ) ;
#166 = FILL_AREA_STYLE_COLOUR ( '', #156 ) ;
#167 = AXIS2_PLACEMENT_3D ( 'NONE', #178, #82, #126 ) ;
#168 = ORIENTED_EDGE ( 'NONE', *, *, #32, .F. ) ;
#169 = CARTESIAN_POINT ( 'NONE',  ( 0.0000000000000000000, 0.0000000000000000000, 2.500000000000000000 ) ) ;
#170 = SURFACE_SIDE_STYLE ('',( #130 ) ) ;
#171 = CARTESIAN_POINT ( 'NONE',  ( -0.003999999999999999216, 9.812482478168165875E-18, 0.0000000000000000000 ) ) ;
#172 = ORIENTED_EDGE ( 'NONE', *, *, #145, .F. ) ;
#173 =( CONVERSION_BASED_UNIT ( 'INCH', #124 ) LENGTH_UNIT ( ) NAMED_UNIT ( #180 ) );
#174 = DIRECTION ( 'NONE',  ( 0.0000000000000000000, 0.0000000000000000000, -1.000000000000000000 ) ) ;
#175 = ORIENTED_EDGE ( 'NONE', *, *, #119, .F. ) ;
#176 =( LENGTH_UNIT ( ) NAMED_UNIT ( * ) SI_UNIT ( $, .METRE. ) );
#177 = VERTEX_POINT ( 'NONE', #171 ) ;
#178 = CARTESIAN_POINT ( 'NONE',  ( 0.0000000000000000000, 0.0000000000000000000, 2.500000000000000000 ) ) ;
#179 = CIRCLE ( 'NONE', #219, 0.1562500000000000000 ) ;
#180 = DIMENSIONAL_EXPONENTS ( 1.000000000000000000, 0.0000000000000000000, 0.0000000000000000000, 0.0000000000000000000, 0.0000000000000000000, 0.0000000000000000000, 0.0000000000000000000 ) ;
#181 =( CONVERSION_BASED_UNIT ( 'INCH', #139 ) LENGTH_UNIT ( ) NAMED_UNIT ( #86 ) );
#182 = FACE_OUTER_BOUND ( 'NONE', #26, .T. ) ;
#183 = CARTESIAN_POINT ( 'NONE',  ( 0.0000000000000000000, 0.0000000000000000000, 2.500000000000000000 ) ) ;
#184 = CONICAL_SURFACE ( 'NONE', #248, 0.003999999999999999216, 0.5235987755983003700 ) ;
#185 = EDGE_CURVE ( 'NONE', #64, #193, #148, .T. ) ;
#186 = ORIENTED_EDGE ( 'NONE', *, *, #145, .T. ) ;
#187 = VECTOR ( 'NONE', #208, 39.37007874015748854 ) ;
#188 = PRESENTATION_STYLE_ASSIGNMENT (( #218 ) ) ;
#189 = CIRCLE ( 'NONE', #222, 0.003999999999999999216 ) ;
#190 = ORIENTED_EDGE ( 'NONE', *, *, #198, .F. ) ;
#191 = AXIS2_PLACEMENT_3D ( 'NONE', #90, #127, #110 ) ;
#192 = CARTESIAN_POINT ( 'NONE',  ( 0.0000000000000000000, 0.0000000000000000000, 2.500000000000000000 ) ) ;
#193 = VERTEX_POINT ( 'NONE', #116 ) ;
#194 = PRODUCT_DEFINITION ( 'UNKNOWN', '', #15, #103 ) ;
#195 = ORIENTED_EDGE ( 'NONE', *, *, #211, .T. ) ;
#196 = FACE_OUTER_BOUND ( 'NONE', #37, .T. ) ;
#197 = DIRECTION ( 'NONE',  ( -1.000000000000000000, 0.0000000000000000000, 0.0000000000000000000 ) ) ;
#198 = EDGE_CURVE ( 'NONE', #206, #203, #136, .T. ) ;
#199 = PLANE ( 'NONE',  #125 ) ;
#200 =( CONVERSION_BASED_UNIT ( 'INCH', #202 ) LENGTH_UNIT ( ) NAMED_UNIT ( #246 ) );
#201 = COLOUR_RGB ( '',0.7921568627450980005, 0.8196078431372548767, 0.9333333333333333481 ) ;
#202 = LENGTH_MEASURE_WITH_UNIT ( LENGTH_MEASURE( 0.02539999999999999897 ), #237 );
#203 = VERTEX_POINT ( 'NONE', #224 ) ;
#204 = ORIENTED_EDGE ( 'NONE', *, *, #223, .T. ) ;
#205 = AXIS2_PLACEMENT_3D ( 'NONE', #71, #153, #150 ) ;
#206 = VERTEX_POINT ( 'NONE', #137 ) ;
#207 = ORIENTED_EDGE ( 'NONE', *, *, #185, .F. ) ;
#208 = DIRECTION ( 'NONE',  ( -0.5000000000000012212, 6.123233995736780827E-17, 0.8660254037844377084 ) ) ;
#209 = SURFACE_STYLE_FILL_AREA ( #227 ) ;
#210 = DIRECTION ( 'NONE',  ( -0.0000000000000000000, -0.0000000000000000000, -1.000000000000000000 ) ) ;
#211 = EDGE_CURVE ( 'NONE', #193, #64, #105, .T. ) ;
#212 = EDGE_LOOP ( 'NONE', ( #186, #142 ) ) ;
#213 = CARTESIAN_POINT ( 'NONE',  ( 0.0000000000000000000, 0.0000000000000000000, 2.500000000000000000 ) ) ;
#214 = ADVANCED_FACE ( 'NONE', ( #28 ), #70, .T. ) ;
#215 = CIRCLE ( 'NONE', #167, 0.003999999999999999216 ) ;
#216 = DIRECTION ( 'NONE',  ( -1.000000000000000000, 0.0000000000000000000, 0.0000000000000000000 ) ) ;
#217 = ORIENTED_EDGE ( 'NONE', *, *, #65, .T. ) ;
#218 = SURFACE_STYLE_USAGE ( .BOTH. , #170 ) ;
#219 = AXIS2_PLACEMENT_3D ( 'NONE', #69, #91, #233 ) ;
#220 = ORIENTED_EDGE ( 'NONE', *, *, #223, .F. ) ;
#221 = VERTEX_POINT ( 'NONE', #111 ) ;
#222 = AXIS2_PLACEMENT_3D ( 'NONE', #97, #174, #79 ) ;
#223 = EDGE_CURVE ( 'NONE', #34, #64, #46, .T. ) ;
#224 = CARTESIAN_POINT ( 'NONE',  ( -0.1562500000000000000, 0.0000000000000000000, 2.236295264547639494 ) ) ;
#225 = LINE ( 'NONE', #56, #108 ) ;
#226 = CARTESIAN_POINT ( 'NONE',  ( 0.0000000000000000000, 0.0000000000000000000, 0.0000000000000000000 ) ) ;
#227 = FILL_AREA_STYLE ('',( #102 ) ) ;
#228 = ADVANCED_FACE ( 'NONE', ( #88 ), #164, .T. ) ;
#229 = CARTESIAN_POINT ( 'NONE',  ( 0.003999999999999999216, 0.0000000000000000000, 0.0000000000000000000 ) ) ;
#230 = VECTOR ( 'NONE', #162, 39.37007874015748854 ) ;
#231 = PRESENTATION_STYLE_ASSIGNMENT (( #165 ) ) ;
#232 = DIRECTION ( 'NONE',  ( -1.000000000000000000, 0.0000000000000000000, 0.0000000000000000000 ) ) ;
#233 = DIRECTION ( 'NONE',  ( -1.000000000000000000, 0.0000000000000000000, 0.0000000000000000000 ) ) ;
#234 = EDGE_LOOP ( 'NONE', ( #96, #129 ) ) ;
#235 =( NAMED_UNIT ( * ) PLANE_ANGLE_UNIT ( ) SI_UNIT ( $, .RADIAN. ) );
#236 = APPLICATION_PROTOCOL_DEFINITION ( 'draft international standard', 'automotive_design', 1998, #30 ) ;
#237 =( LENGTH_UNIT ( ) NAMED_UNIT ( * ) SI_UNIT ( $, .METRE. ) );
#238 = AXIS2_PLACEMENT_3D ( 'NONE', #2, #58, #66 ) ;
#239 = PRODUCT_DEFINITION_SHAPE ( 'NONE', 'NONE',  #194 ) ;
#240 = CARTESIAN_POINT ( 'NONE',  ( 0.003999999999999999216, 0.0000000000000000000, 2.500000000000000000 ) ) ;
#241 = CIRCLE ( 'NONE', #238, 0.003999999999999999216 ) ;
#242 = DIRECTION ( 'NONE',  ( 0.0000000000000000000, 0.0000000000000000000, -1.000000000000000000 ) ) ;
#243 = DIRECTION ( 'NONE',  ( -0.0000000000000000000, -0.0000000000000000000, -1.000000000000000000 ) ) ;
#244 = PRESENTATION_LAYER_ASSIGNMENT (  '', '', ( #5 ) ) ;
#245 = DIRECTION ( 'NONE',  ( 1.000000000000000000, 0.0000000000000000000, 0.0000000000000000000 ) ) ;
#246 = DIMENSIONAL_EXPONENTS ( 1.000000000000000000, 0.0000000000000000000, 0.0000000000000000000, 0.0000000000000000000, 0.0000000000000000000, 0.0000000000000000000, 0.0000000000000000000 ) ;
#247 = ADVANCED_FACE ( 'NONE', ( #182 ), #11, .T. ) ;
#248 = AXIS2_PLACEMENT_3D ( 'NONE', #183, #242, #245 ) ;
#249 = CARTESIAN_POINT ( 'NONE',  ( 0.0000000000000000000, 0.0000000000000000000, 2.500000000000000000 ) ) ;
ENDSEC;
END-ISO-10303-21;
