ISO-10303-21;
HEADER;
FILE_DESCRIPTION (( 'STEP AP214' ),
    '1' );
FILE_NAME ('Micro_SFBM-002-0X.STEP',
    '2022-03-15T15:18:02',
    ( '' ),
    ( '' ),
    'SwSTEP 2.0',
    'SolidWorks 2022',
    '' );
FILE_SCHEMA (( 'AUTOMOTIVE_DESIGN' ));
ENDSEC;

DATA;
#1 = DIRECTION ( 'NONE',  ( 1.224646799147353207E-16, 0.000000000000000000, 1.000000000000000000 ) ) ;
#2 = ORIENTED_EDGE ( 'NONE', *, *, #202, .T. ) ;
#3 = AXIS2_PLACEMENT_3D ( 'NONE', #83, #231, #217 ) ;
#4 = DIRECTION ( 'NONE',  ( 1.000000000000000000, 0.000000000000000000, 0.000000000000000000 ) ) ;
#5 = LINE ( 'NONE', #256, #179 ) ;
#6 =( NAMED_UNIT ( * ) PLANE_ANGLE_UNIT ( ) SI_UNIT ( $, .RADIAN. ) );
#7 = ORIENTED_EDGE ( 'NONE', *, *, #279, .T. ) ;
#8 = DIRECTION ( 'NONE',  ( 1.000000000000000000, 0.000000000000000000, 0.000000000000000000 ) ) ;
#9 = SURFACE_STYLE_FILL_AREA ( #154 ) ;
#10 = ORIENTED_EDGE ( 'NONE', *, *, #245, .F. ) ;
#11 =( LENGTH_UNIT ( ) NAMED_UNIT ( * ) SI_UNIT ( $, .METRE. ) );
#12 = FACE_OUTER_BOUND ( 'NONE', #106, .T. ) ;
#13 = AXIS2_PLACEMENT_3D ( 'NONE', #43, #145, #191 ) ;
#14 = PRESENTATION_LAYER_ASSIGNMENT (  '', '', ( #44 ) ) ;
#15 = SPHERICAL_SURFACE ( 'NONE', #321, 0.003933062999999999663 ) ;
#16 = DIRECTION ( 'NONE',  ( 1.000000000000000000, 0.000000000000000000, 0.000000000000000000 ) ) ;
#17 = CARTESIAN_POINT ( 'NONE',  ( 4.816613013794886010E-19, 0.000000000000000000, 0.003933062999999999663 ) ) ;
#18 = DIRECTION ( 'NONE',  ( 0.000000000000000000, 0.000000000000000000, 1.000000000000000000 ) ) ;
#19 = DIRECTION ( 'NONE',  ( -1.000000000000000000, 0.000000000000000000, 1.224646799147353207E-16 ) ) ;
#20 = AXIS2_PLACEMENT_3D ( 'NONE', #148, #47, #92 ) ;
#21 = FILL_AREA_STYLE ('',( #272 ) ) ;
#22 = CARTESIAN_POINT ( 'NONE',  ( -0.003933062999999983184, 4.816613013794868676E-19, 0.01181100000000002287 ) ) ;
#23 = MECHANICAL_DESIGN_GEOMETRIC_PRESENTATION_REPRESENTATION (  '', ( #44 ), #46 ) ;
#24 = DIRECTION ( 'NONE',  ( 0.000000000000000000, -1.000000000000000000, 0.000000000000000000 ) ) ;
#25 = CIRCLE ( 'NONE', #48, 0.1181100000000000066 ) ;
#26 = ORIENTED_EDGE ( 'NONE', *, *, #210, .F. ) ;
#27 = VECTOR ( 'NONE', #167, 39.37007874015747433 ) ;
#28 = VERTEX_POINT ( 'NONE', #268 ) ;
#29 = LENGTH_MEASURE_WITH_UNIT ( LENGTH_MEASURE( 0.02539999999999999897 ), #73 );
#30 = VERTEX_POINT ( 'NONE', #311 ) ;
#31 = CARTESIAN_POINT ( 'NONE',  ( 4.816613013794886010E-19, 0.000000000000000000, 0.003933062999999999663 ) ) ;
#32 = FILL_AREA_STYLE_COLOUR ( '', #199 ) ;
#33 =( GEOMETRIC_REPRESENTATION_CONTEXT ( 3 ) GLOBAL_UNCERTAINTY_ASSIGNED_CONTEXT ( ( #175 ) ) GLOBAL_UNIT_ASSIGNED_CONTEXT ( ( #189, #124, #305 ) ) REPRESENTATION_CONTEXT ( 'NONE', 'WORKASPACE' ) );
#34 = ORIENTED_EDGE ( 'NONE', *, *, #210, .T. ) ;
#35 = CLOSED_SHELL ( 'NONE', ( #275, #108, #287, #90, #55, #99, #147, #119, #133, #169, #89 ) ) ;
#36 = ORIENTED_EDGE ( 'NONE', *, *, #146, .T. ) ;
#37 = EDGE_LOOP ( 'NONE', ( #151, #34, #100, #208 ) ) ;
#38 = AXIS2_PLACEMENT_3D ( 'NONE', #80, #134, #125 ) ;
#39 = CYLINDRICAL_SURFACE ( 'NONE', #102, 0.1181100000000000066 ) ;
#40 = AXIS2_PLACEMENT_3D ( 'NONE', #235, #182, #237 ) ;
#41 = CARTESIAN_POINT ( 'NONE',  ( 0.000000000000000000, 0.000000000000000000, 0.000000000000000000 ) ) ;
#42 = DIRECTION ( 'NONE',  ( 0.7071067811865358044, 8.659560562354788645E-17, -0.7071067811865590080 ) ) ;
#43 = CARTESIAN_POINT ( 'NONE',  ( 4.816613013794886010E-19, 0.000000000000000000, 0.003933062999999999663 ) ) ;
#44 = STYLED_ITEM ( 'NONE', ( #283 ), #302 ) ;
#45 = CARTESIAN_POINT ( 'NONE',  ( 0.000000000000000000, 0.000000000000000000, 0.000000000000000000 ) ) ;
#46 =( GEOMETRIC_REPRESENTATION_CONTEXT ( 3 ) GLOBAL_UNCERTAINTY_ASSIGNED_CONTEXT ( ( #116 ) ) GLOBAL_UNIT_ASSIGNED_CONTEXT ( ( #51, #54, #121 ) ) REPRESENTATION_CONTEXT ( 'NONE', 'WORKASPACE' ) );
#47 = DIRECTION ( 'NONE',  ( -0.000000000000000000, -0.000000000000000000, -1.000000000000000000 ) ) ;
#48 = AXIS2_PLACEMENT_3D ( 'NONE', #140, #251, #76 ) ;
#49 = DIRECTION ( 'NONE',  ( 1.000000000000000000, 0.000000000000000000, 0.000000000000000000 ) ) ;
#50 = EDGE_LOOP ( 'NONE', ( #123, #36, #78, #227 ) ) ;
#51 =( CONVERSION_BASED_UNIT ( 'INCH', #29 ) LENGTH_UNIT ( ) NAMED_UNIT ( #299 ) );
#52 = DIMENSIONAL_EXPONENTS ( 1.000000000000000000, 0.000000000000000000, 0.000000000000000000, 0.000000000000000000, 0.000000000000000000, 0.000000000000000000, 0.000000000000000000 ) ;
#53 = STYLED_ITEM ( 'NONE', ( #130 ), #246 ) ;
#54 =( NAMED_UNIT ( * ) PLANE_ANGLE_UNIT ( ) SI_UNIT ( $, .RADIAN. ) );
#55 = ADVANCED_FACE ( 'NONE', ( #267 ), #39, .T. ) ;
#56 = VERTEX_POINT ( 'NONE', #187 ) ;
#57 = PRODUCT_CONTEXT ( 'NONE', #294, 'mechanical' ) ;
#58 = ORIENTED_EDGE ( 'NONE', *, *, #240, .F. ) ;
#59 = VECTOR ( 'NONE', #243, 39.37007874015748143 ) ;
#60 = CARTESIAN_POINT ( 'NONE',  ( 0.000000000000000000, 0.000000000000000000, 2.244094000000000033 ) ) ;
#61 = ORIENTED_EDGE ( 'NONE', *, *, #195, .F. ) ;
#62 = SPHERICAL_SURFACE ( 'NONE', #86, 0.003933062999999999663 ) ;
#63 = DIRECTION ( 'NONE',  ( 1.000000000000000000, 0.000000000000000000, -0.000000000000000000 ) ) ;
#64 = CARTESIAN_POINT ( 'NONE',  ( 0.1181100000000000066, 1.446430334472939084E-17, 2.244094000000000033 ) ) ;
#65 = EDGE_CURVE ( 'NONE', #28, #56, #131, .T. ) ;
#66 = DIRECTION ( 'NONE',  ( -1.224646799147353207E-16, -0.000000000000000000, -1.000000000000000000 ) ) ;
#67 = DIRECTION ( 'NONE',  ( -1.000000000000000000, 0.000000000000000000, 0.000000000000000000 ) ) ;
#68 = VECTOR ( 'NONE', #42, 39.37007874015748854 ) ;
#69 = DIRECTION ( 'NONE',  ( -1.000000000000000000, 0.000000000000000000, 1.224646799147353207E-16 ) ) ;
#70 = PRODUCT_DEFINITION_CONTEXT ( 'detailed design', #221, 'design' ) ;
#71 = VERTEX_POINT ( 'NONE', #87 ) ;
#72 = VECTOR ( 'NONE', #241, 39.37007874015748143 ) ;
#73 =( LENGTH_UNIT ( ) NAMED_UNIT ( * ) SI_UNIT ( $, .METRE. ) );
#74 = EDGE_CURVE ( 'NONE', #176, #104, #162, .T. ) ;
#75 = EDGE_LOOP ( 'NONE', ( #111, #203, #2, #103 ) ) ;
#76 = DIRECTION ( 'NONE',  ( 1.000000000000000000, 0.000000000000000000, 0.000000000000000000 ) ) ;
#77 = AXIS2_PLACEMENT_3D ( 'NONE', #295, #320, #67 ) ;
#78 = ORIENTED_EDGE ( 'NONE', *, *, #65, .T. ) ;
#79 = ORIENTED_EDGE ( 'NONE', *, *, #298, .F. ) ;
#80 = CARTESIAN_POINT ( 'NONE',  ( 0.000000000000000000, 0.000000000000000000, 2.229093999999999465 ) ) ;
#81 = ORIENTED_EDGE ( 'NONE', *, *, #264, .F. ) ;
#82 = LENGTH_MEASURE_WITH_UNIT ( LENGTH_MEASURE( 0.02539999999999999897 ), #308 );
#83 = CARTESIAN_POINT ( 'NONE',  ( 4.816613013794886010E-19, 0.000000000000000000, 0.003933062999999999663 ) ) ;
#84 = AXIS2_PLACEMENT_3D ( 'NONE', #291, #18, #16 ) ;
#85 = DIRECTION ( 'NONE',  ( -1.000000000000000000, 0.000000000000000000, 0.000000000000000000 ) ) ;
#86 = AXIS2_PLACEMENT_3D ( 'NONE', #31, #286, #4 ) ;
#87 = CARTESIAN_POINT ( 'NONE',  ( 0.1181100000000000066, 1.446430334472939084E-17, 2.229093999999999465 ) ) ;
#88 = PLANE ( 'NONE',  #122 ) ;
#89 = ADVANCED_FACE ( 'NONE', ( #12 ), #62, .T. ) ;
#90 = ADVANCED_FACE ( 'NONE', ( #309 ), #282, .T. ) ;
#91 = CONICAL_SURFACE ( 'NONE', #40, 0.003933062999999984918, 0.1745329251994338915 ) ;
#92 = DIRECTION ( 'NONE',  ( -1.000000000000000000, 0.000000000000000000, 0.000000000000000000 ) ) ;
#93 = LINE ( 'NONE', #112, #324 ) ;
#94 = SURFACE_STYLE_FILL_AREA ( #21 ) ;
#95 = FACE_OUTER_BOUND ( 'NONE', #323, .T. ) ;
#96 = DIRECTION ( 'NONE',  ( 0.000000000000000000, 0.000000000000000000, 1.000000000000000000 ) ) ;
#97 = EDGE_CURVE ( 'NONE', #201, #288, #255, .T. ) ;
#98 = VERTEX_POINT ( 'NONE', #184 ) ;
#99 = ADVANCED_FACE ( 'NONE', ( #115 ), #196, .T. ) ;
#100 = ORIENTED_EDGE ( 'NONE', *, *, #240, .T. ) ;
#101 = CIRCLE ( 'NONE', #13, 0.003933062999999999663 ) ;
#102 = AXIS2_PLACEMENT_3D ( 'NONE', #181, #137, #85 ) ;
#103 = ORIENTED_EDGE ( 'NONE', *, *, #260, .F. ) ;
#104 = VERTEX_POINT ( 'NONE', #113 ) ;
#105 = AXIS2_PLACEMENT_3D ( 'NONE', #290, #242, #233 ) ;
#106 = EDGE_LOOP ( 'NONE', ( #10, #214, #285 ) ) ;
#107 = EDGE_LOOP ( 'NONE', ( #109, #190, #258, #79 ) ) ;
#108 = ADVANCED_FACE ( 'NONE', ( #171 ), #277, .T. ) ;
#109 = ORIENTED_EDGE ( 'NONE', *, *, #183, .F. ) ;
#110 =( NAMED_UNIT ( * ) SI_UNIT ( $, .STERADIAN. ) SOLID_ANGLE_UNIT ( ) );
#111 = ORIENTED_EDGE ( 'NONE', *, *, #228, .F. ) ;
#112 = CARTESIAN_POINT ( 'NONE',  ( -0.1031100000000002570, 0.000000000000000000, 2.244094000000000033 ) ) ;
#113 = CARTESIAN_POINT ( 'NONE',  ( 0.003933062999999985786, 4.816613013794868676E-19, 0.003933062999999998796 ) ) ;
#114 = CONICAL_SURFACE ( 'NONE', #226, 0.1031100000000002570, 0.7853981633974318477 ) ;
#115 = FACE_OUTER_BOUND ( 'NONE', #107, .T. ) ;
#116 = UNCERTAINTY_MEASURE_WITH_UNIT (LENGTH_MEASURE( 1.000000000000000082E-05 ), #51, 'distance_accuracy_value', 'NONE');
#117 = DIRECTION ( 'NONE',  ( -1.000000000000000000, 0.000000000000000000, 0.000000000000000000 ) ) ;
#118 = DIRECTION ( 'NONE',  ( 0.000000000000000000, 0.000000000000000000, -1.000000000000000000 ) ) ;
#119 = ADVANCED_FACE ( 'NONE', ( #142 ), #114, .T. ) ;
#120 = ORIENTED_EDGE ( 'NONE', *, *, #298, .T. ) ;
#121 =( NAMED_UNIT ( * ) SI_UNIT ( $, .STERADIAN. ) SOLID_ANGLE_UNIT ( ) );
#122 = AXIS2_PLACEMENT_3D ( 'NONE', #141, #96, #63 ) ;
#123 = ORIENTED_EDGE ( 'NONE', *, *, #74, .F. ) ;
#124 =( NAMED_UNIT ( * ) PLANE_ANGLE_UNIT ( ) SI_UNIT ( $, .RADIAN. ) );
#125 = DIRECTION ( 'NONE',  ( 1.000000000000000000, 0.000000000000000000, 0.000000000000000000 ) ) ;
#126 = ORIENTED_EDGE ( 'NONE', *, *, #279, .F. ) ;
#127 = CARTESIAN_POINT ( 'NONE',  ( 0.000000000000000000, 0.000000000000000000, 0.000000000000000000 ) ) ;
#128 = DIRECTION ( 'NONE',  ( -1.000000000000000000, 0.000000000000000000, 0.000000000000000000 ) ) ;
#129 = AXIS2_PLACEMENT_3D ( 'NONE', #192, #224, #271 ) ;
#130 = PRESENTATION_STYLE_ASSIGNMENT (( #161 ) ) ;
#131 = LINE ( 'NONE', #259, #229 ) ;
#132 = AXIS2_PLACEMENT_3D ( 'NONE', #127, #304, #177 ) ;
#133 = ADVANCED_FACE ( 'NONE', ( #95 ), #153, .T. ) ;
#134 = DIRECTION ( 'NONE',  ( 0.000000000000000000, 0.000000000000000000, -1.000000000000000000 ) ) ;
#135 = ORIENTED_EDGE ( 'NONE', *, *, #65, .F. ) ;
#136 = DIRECTION ( 'NONE',  ( -0.000000000000000000, -0.000000000000000000, -1.000000000000000000 ) ) ;
#137 = DIRECTION ( 'NONE',  ( -0.000000000000000000, -0.000000000000000000, -1.000000000000000000 ) ) ;
#138 =( GEOMETRIC_REPRESENTATION_CONTEXT ( 3 ) GLOBAL_UNCERTAINTY_ASSIGNED_CONTEXT ( ( #172 ) ) GLOBAL_UNIT_ASSIGNED_CONTEXT ( ( #238, #6, #110 ) ) REPRESENTATION_CONTEXT ( 'NONE', 'WORKASPACE' ) );
#139 = ORIENTED_EDGE ( 'NONE', *, *, #228, .T. ) ;
#140 = CARTESIAN_POINT ( 'NONE',  ( 0.000000000000000000, 0.000000000000000000, 2.229093999999999465 ) ) ;
#141 = CARTESIAN_POINT ( 'NONE',  ( 0.000000000000000000, 0.000000000000000000, 2.244094000000000033 ) ) ;
#142 = FACE_OUTER_BOUND ( 'NONE', #75, .T. ) ;
#143 = APPLICATION_PROTOCOL_DEFINITION ( 'draft international standard', 'automotive_design', 1998, #294 ) ;
#144 = CIRCLE ( 'NONE', #38, 0.1181100000000000066 ) ;
#145 = DIRECTION ( 'NONE',  ( 1.224646799147353207E-16, 1.000000000000000000, -0.000000000000000000 ) ) ;
#146 = EDGE_CURVE ( 'NONE', #176, #28, #306, .T. ) ;
#147 = ADVANCED_FACE ( 'NONE', ( #278 ), #88, .T. ) ;
#148 = CARTESIAN_POINT ( 'NONE',  ( 0.000000000000000000, 0.000000000000000000, 2.244094000000000033 ) ) ;
#149 = DIRECTION ( 'NONE',  ( -0.000000000000000000, -0.000000000000000000, -1.000000000000000000 ) ) ;
#150 = CIRCLE ( 'NONE', #84, 0.1031100000000002570 ) ;
#151 = ORIENTED_EDGE ( 'NONE', *, *, #165, .F. ) ;
#152 = APPLICATION_PROTOCOL_DEFINITION ( 'draft international standard', 'automotive_design', 1998, #221 ) ;
#153 = CONICAL_SURFACE ( 'NONE', #170, 0.003933062999999984918, 0.1745329251994338915 ) ;
#154 = FILL_AREA_STYLE ('',( #32 ) ) ;
#155 = FACE_OUTER_BOUND ( 'NONE', #322, .T. ) ;
#156 = ORIENTED_EDGE ( 'NONE', *, *, #202, .F. ) ;
#157 = FACE_OUTER_BOUND ( 'NONE', #37, .T. ) ;
#158 = ORIENTED_EDGE ( 'NONE', *, *, #195, .T. ) ;
#159 = EDGE_CURVE ( 'NONE', #239, #104, #247, .T. ) ;
#160 = AXIS2_PLACEMENT_3D ( 'NONE', #222, #24, #118 ) ;
#161 = SURFACE_STYLE_USAGE ( .BOTH. , #186 ) ;
#162 = LINE ( 'NONE', #236, #72 ) ;
#163 = EDGE_LOOP ( 'NONE', ( #61, #139, #126, #156 ) ) ;
#164 = CIRCLE ( 'NONE', #269, 0.003933062999999985786 ) ;
#165 = EDGE_CURVE ( 'NONE', #28, #176, #204, .T. ) ;
#166 = LINE ( 'NONE', #168, #59 ) ;
#167 = DIRECTION ( 'NONE',  ( -0.1736481776669311916, 2.126576849575783316E-17, 0.9848077530122080203 ) ) ;
#168 = CARTESIAN_POINT ( 'NONE',  ( 0.003933062999999986653, 0.000000000000000000, 0.01181100000000002287 ) ) ;
#169 = ADVANCED_FACE ( 'NONE', ( #200 ), #223, .T. ) ;
#170 = AXIS2_PLACEMENT_3D ( 'NONE', #248, #194, #318 ) ;
#171 = FACE_OUTER_BOUND ( 'NONE', #206, .T. ) ;
#172 = UNCERTAINTY_MEASURE_WITH_UNIT (LENGTH_MEASURE( 1.000000000000000082E-05 ), #238, 'distance_accuracy_value', 'NONE');
#173 = LINE ( 'NONE', #64, #301 ) ;
#174 = EDGE_CURVE ( 'NONE', #176, #252, #166, .T. ) ;
#175 = UNCERTAINTY_MEASURE_WITH_UNIT (LENGTH_MEASURE( 1.000000000000000082E-05 ), #189, 'distance_accuracy_value', 'NONE');
#176 = VERTEX_POINT ( 'NONE', #317 ) ;
#177 = DIRECTION ( 'NONE',  ( 1.000000000000000000, 0.000000000000000000, 0.000000000000000000 ) ) ;
#178 = SURFACE_STYLE_USAGE ( .BOTH. , #197 ) ;
#179 = VECTOR ( 'NONE', #136, 39.37007874015748143 ) ;
#180 = DIRECTION ( 'NONE',  ( -1.000000000000000000, 0.000000000000000000, 1.356612038155893713E-16 ) ) ;
#181 = CARTESIAN_POINT ( 'NONE',  ( 0.000000000000000000, 0.000000000000000000, 2.244094000000000033 ) ) ;
#182 = DIRECTION ( 'NONE',  ( 1.224646799147353207E-16, 0.000000000000000000, 1.000000000000000000 ) ) ;
#183 = EDGE_CURVE ( 'NONE', #71, #252, #173, .T. ) ;
#184 = CARTESIAN_POINT ( 'NONE',  ( -0.1181099999999999234, 0.000000000000000000, 0.6593405870277332381 ) ) ;
#185 = PRODUCT_DEFINITION ( 'UNKNOWN', '', #205, #70 ) ;
#186 = SURFACE_SIDE_STYLE ('',( #9 ) ) ;
#187 = CARTESIAN_POINT ( 'NONE',  ( -0.003933062999999984918, 0.000000000000000000, 0.003933062999999999663 ) ) ;
#188 = AXIS2_PLACEMENT_3D ( 'NONE', #207, #281, #8 ) ;
#189 =( CONVERSION_BASED_UNIT ( 'INCH', #82 ) LENGTH_UNIT ( ) NAMED_UNIT ( #52 ) );
#190 = ORIENTED_EDGE ( 'NONE', *, *, #260, .T. ) ;
#191 = DIRECTION ( 'NONE',  ( -1.000000000000000000, 1.224646799147353207E-16, 0.000000000000000000 ) ) ;
#192 = CARTESIAN_POINT ( 'NONE',  ( 1.446430334472941858E-18, 0.000000000000000000, 0.01181100000000002287 ) ) ;
#193 = CIRCLE ( 'NONE', #3, 0.003933062999999985786 ) ;
#194 = DIRECTION ( 'NONE',  ( 1.224646799147353207E-16, 0.000000000000000000, 1.000000000000000000 ) ) ;
#195 = EDGE_CURVE ( 'NONE', #288, #201, #150, .T. ) ;
#196 = CYLINDRICAL_SURFACE ( 'NONE', #20, 0.1181100000000000066 ) ;
#197 = SURFACE_SIDE_STYLE ('',( #94 ) ) ;
#198 = CARTESIAN_POINT ( 'NONE',  ( 0.000000000000000000, 0.000000000000000000, 2.244094000000000033 ) ) ;
#199 = COLOUR_RGB ( '',0.7921568627450980005, 0.8196078431372548767, 0.9333333333333333481 ) ;
#200 = FACE_OUTER_BOUND ( 'NONE', #50, .T. ) ;
#201 = VERTEX_POINT ( 'NONE', #220 ) ;
#202 = EDGE_CURVE ( 'NONE', #201, #30, #93, .T. ) ;
#203 = ORIENTED_EDGE ( 'NONE', *, *, #97, .F. ) ;
#204 = CIRCLE ( 'NONE', #129, 0.003933062999999984918 ) ;
#205 = PRODUCT_DEFINITION_FORMATION_WITH_SPECIFIED_SOURCE ( 'ANY', '', #266, .NOT_KNOWN. ) ;
#206 = EDGE_LOOP ( 'NONE', ( #232, #315, #230, #135 ) ) ;
#207 = CARTESIAN_POINT ( 'NONE',  ( 8.074593394514503154E-17, 0.000000000000000000, 0.6593405870277332381 ) ) ;
#208 = ORIENTED_EDGE ( 'NONE', *, *, #174, .F. ) ;
#209 = CIRCLE ( 'NONE', #216, 0.1181100000000000066 ) ;
#210 = EDGE_CURVE ( 'NONE', #28, #98, #292, .T. ) ;
#211 = CARTESIAN_POINT ( 'NONE',  ( 0.1031100000000002570, 1.354581824536888722E-17, 2.244094000000000033 ) ) ;
#212 = DIRECTION ( 'NONE',  ( -1.224646799147353207E-16, -0.000000000000000000, -1.000000000000000000 ) ) ;
#213 = EDGE_LOOP ( 'NONE', ( #280, #158 ) ) ;
#214 = ORIENTED_EDGE ( 'NONE', *, *, #159, .T. ) ;
#215 = PRODUCT_DEFINITION_SHAPE ( 'NONE', 'NONE',  #185 ) ;
#216 = AXIS2_PLACEMENT_3D ( 'NONE', #244, #66, #274 ) ;
#217 = DIRECTION ( 'NONE',  ( -1.000000000000000000, 0.000000000000000000, 1.356612038155893713E-16 ) ) ;
#218 = ORIENTED_EDGE ( 'NONE', *, *, #174, .T. ) ;
#219 = DIRECTION ( 'NONE',  ( -0.7071067811865358044, 0.000000000000000000, -0.7071067811865590080 ) ) ;
#220 = CARTESIAN_POINT ( 'NONE',  ( -0.1031100000000002570, 0.000000000000000000, 2.244094000000000033 ) ) ;
#221 = APPLICATION_CONTEXT ( 'automotive_design' ) ;
#222 = CARTESIAN_POINT ( 'NONE',  ( 4.816613013794886010E-19, 0.000000000000000000, 0.003933062999999999663 ) ) ;
#223 = CYLINDRICAL_SURFACE ( 'NONE', #262, 0.003933062999999985786 ) ;
#224 = DIRECTION ( 'NONE',  ( -1.224646799147353207E-16, -0.000000000000000000, -1.000000000000000000 ) ) ;
#225 = DIRECTION ( 'NONE',  ( 0.000000000000000000, 1.000000000000000000, 0.000000000000000000 ) ) ;
#226 = AXIS2_PLACEMENT_3D ( 'NONE', #198, #249, #117 ) ;
#227 = ORIENTED_EDGE ( 'NONE', *, *, #265, .T. ) ;
#228 = EDGE_CURVE ( 'NONE', #288, #71, #273, .T. ) ;
#229 = VECTOR ( 'NONE', #212, 39.37007874015748143 ) ;
#230 = ORIENTED_EDGE ( 'NONE', *, *, #264, .T. ) ;
#231 = DIRECTION ( 'NONE',  ( 1.224646799147353207E-16, 0.000000000000000000, 1.000000000000000000 ) ) ;
#232 = ORIENTED_EDGE ( 'NONE', *, *, #165, .T. ) ;
#233 = DIRECTION ( 'NONE',  ( 1.000000000000000000, 0.000000000000000000, 0.000000000000000000 ) ) ;
#234 = CIRCLE ( 'NONE', #188, 0.1181100000000000066 ) ;
#235 = CARTESIAN_POINT ( 'NONE',  ( 1.446430334472941858E-18, 0.000000000000000000, 0.01181100000000002287 ) ) ;
#236 = CARTESIAN_POINT ( 'NONE',  ( 0.003933062999999985786, 4.816613013794868676E-19, -4.816613013794868676E-19 ) ) ;
#237 = DIRECTION ( 'NONE',  ( 1.000000000000000000, 0.000000000000000000, 0.000000000000000000 ) ) ;
#238 =( CONVERSION_BASED_UNIT ( 'INCH', #289 ) LENGTH_UNIT ( ) NAMED_UNIT ( #325 ) );
#239 = VERTEX_POINT ( 'NONE', #293 ) ;
#240 = EDGE_CURVE ( 'NONE', #98, #252, #209, .T. ) ;
#241 = DIRECTION ( 'NONE',  ( -1.224646799147353207E-16, -0.000000000000000000, -1.000000000000000000 ) ) ;
#242 = DIRECTION ( 'NONE',  ( 0.000000000000000000, 0.000000000000000000, 1.000000000000000000 ) ) ;
#243 = DIRECTION ( 'NONE',  ( 0.1736481776669313859, 0.000000000000000000, 0.9848077530122077983 ) ) ;
#244 = CARTESIAN_POINT ( 'NONE',  ( 8.074593394514503154E-17, 0.000000000000000000, 0.6593405870277332381 ) ) ;
#245 = EDGE_CURVE ( 'NONE', #239, #56, #101, .T. ) ;
#246 = MANIFOLD_SOLID_BREP ( 'Fillet1', #35 ) ;
#247 = CIRCLE ( 'NONE', #160, 0.003933062999999999663 ) ;
#248 = CARTESIAN_POINT ( 'NONE',  ( 1.446430334472941858E-18, 0.000000000000000000, 0.01181100000000002287 ) ) ;
#249 = DIRECTION ( 'NONE',  ( 0.000000000000000000, 0.000000000000000000, -1.000000000000000000 ) ) ;
#250 = PRESENTATION_LAYER_ASSIGNMENT (  '', '', ( #53 ) ) ;
#251 = DIRECTION ( 'NONE',  ( 0.000000000000000000, 0.000000000000000000, -1.000000000000000000 ) ) ;
#252 = VERTEX_POINT ( 'NONE', #314 ) ;
#253 = ORIENTED_EDGE ( 'NONE', *, *, #300, .F. ) ;
#254 = SHAPE_DEFINITION_REPRESENTATION ( #215, #302 ) ;
#255 = CIRCLE ( 'NONE', #105, 0.1031100000000002570 ) ;
#256 = CARTESIAN_POINT ( 'NONE',  ( -0.1181100000000000066, 0.000000000000000000, 2.244094000000000033 ) ) ;
#257 = CARTESIAN_POINT ( 'NONE',  ( 4.816613013794886010E-19, 0.000000000000000000, 0.003933062999999999663 ) ) ;
#258 = ORIENTED_EDGE ( 'NONE', *, *, #300, .T. ) ;
#259 = CARTESIAN_POINT ( 'NONE',  ( -0.003933062999999985786, 0.000000000000000000, 4.816613013794868676E-19 ) ) ;
#260 = EDGE_CURVE ( 'NONE', #71, #30, #144, .T. ) ;
#261 = ORIENTED_EDGE ( 'NONE', *, *, #159, .F. ) ;
#262 = AXIS2_PLACEMENT_3D ( 'NONE', #41, #297, #69 ) ;
#263 = DIRECTION ( 'NONE',  ( 0.000000000000000000, 0.000000000000000000, -1.000000000000000000 ) ) ;
#264 = EDGE_CURVE ( 'NONE', #104, #56, #193, .T. ) ;
#265 = EDGE_CURVE ( 'NONE', #56, #104, #164, .T. ) ;
#266 = PRODUCT ( 'Micro_SFBM-002-0X', 'Micro_SFBM-002-0X', '', ( #57 ) ) ;
#267 = FACE_OUTER_BOUND ( 'NONE', #307, .T. ) ;
#268 = CARTESIAN_POINT ( 'NONE',  ( -0.003933062999999983184, 7.472982323054439386E-18, 0.01181100000000002287 ) ) ;
#269 = AXIS2_PLACEMENT_3D ( 'NONE', #257, #1, #180 ) ;
#270 = COLOUR_RGB ( '',0.7921568627450980005, 0.8196078431372548767, 0.9333333333333333481 ) ;
#271 = DIRECTION ( 'NONE',  ( -1.000000000000000000, 0.000000000000000000, 0.000000000000000000 ) ) ;
#272 = FILL_AREA_STYLE_COLOUR ( '', #270 ) ;
#273 = LINE ( 'NONE', #319, #68 ) ;
#274 = DIRECTION ( 'NONE',  ( 1.000000000000000000, 0.000000000000000000, 0.000000000000000000 ) ) ;
#275 = ADVANCED_FACE ( 'NONE', ( #155 ), #15, .T. ) ;
#276 = MECHANICAL_DESIGN_GEOMETRIC_PRESENTATION_REPRESENTATION (  '', ( #53 ), #138 ) ;
#277 = CYLINDRICAL_SURFACE ( 'NONE', #312, 0.003933062999999985786 ) ;
#278 = FACE_OUTER_BOUND ( 'NONE', #213, .T. ) ;
#279 = EDGE_CURVE ( 'NONE', #30, #71, #25, .T. ) ;
#280 = ORIENTED_EDGE ( 'NONE', *, *, #97, .T. ) ;
#281 = DIRECTION ( 'NONE',  ( -1.224646799147353207E-16, -0.000000000000000000, -1.000000000000000000 ) ) ;
#282 = CONICAL_SURFACE ( 'NONE', #296, 0.1031100000000002570, 0.7853981633974318477 ) ;
#283 = PRESENTATION_STYLE_ASSIGNMENT (( #178 ) ) ;
#284 = ORIENTED_EDGE ( 'NONE', *, *, #245, .T. ) ;
#285 = ORIENTED_EDGE ( 'NONE', *, *, #265, .F. ) ;
#286 = DIRECTION ( 'NONE',  ( 0.000000000000000000, 1.000000000000000000, 0.000000000000000000 ) ) ;
#287 = ADVANCED_FACE ( 'NONE', ( #157 ), #91, .T. ) ;
#288 = VERTEX_POINT ( 'NONE', #211 ) ;
#289 = LENGTH_MEASURE_WITH_UNIT ( LENGTH_MEASURE( 0.02539999999999999897 ), #11 );
#290 = CARTESIAN_POINT ( 'NONE',  ( 0.000000000000000000, 0.000000000000000000, 2.244094000000000033 ) ) ;
#291 = CARTESIAN_POINT ( 'NONE',  ( 0.000000000000000000, 0.000000000000000000, 2.244094000000000033 ) ) ;
#292 = LINE ( 'NONE', #22, #27 ) ;
#293 = CARTESIAN_POINT ( 'NONE',  ( 7.224919520692327570E-19, 0.000000000000000000, 0.000000000000000000 ) ) ;
#294 = APPLICATION_CONTEXT ( 'automotive_design' ) ;
#295 = CARTESIAN_POINT ( 'NONE',  ( 1.446430334472941858E-18, 0.000000000000000000, 0.01181100000000002287 ) ) ;
#296 = AXIS2_PLACEMENT_3D ( 'NONE', #60, #263, #128 ) ;
#297 = DIRECTION ( 'NONE',  ( -1.224646799147353207E-16, -0.000000000000000000, -1.000000000000000000 ) ) ;
#298 = EDGE_CURVE ( 'NONE', #252, #98, #234, .T. ) ;
#299 = DIMENSIONAL_EXPONENTS ( 1.000000000000000000, 0.000000000000000000, 0.000000000000000000, 0.000000000000000000, 0.000000000000000000, 0.000000000000000000, 0.000000000000000000 ) ;
#300 = EDGE_CURVE ( 'NONE', #30, #98, #5, .T. ) ;
#301 = VECTOR ( 'NONE', #149, 39.37007874015748143 ) ;
#302 = ADVANCED_BREP_SHAPE_REPRESENTATION ( 'Micro_SFBM-002-0X', ( #246, #132 ), #33 ) ;
#303 = ORIENTED_EDGE ( 'NONE', *, *, #146, .F. ) ;
#304 = DIRECTION ( 'NONE',  ( 0.000000000000000000, 0.000000000000000000, 1.000000000000000000 ) ) ;
#305 =( NAMED_UNIT ( * ) SI_UNIT ( $, .STERADIAN. ) SOLID_ANGLE_UNIT ( ) );
#306 = CIRCLE ( 'NONE', #77, 0.003933062999999984918 ) ;
#307 = EDGE_LOOP ( 'NONE', ( #7, #310, #58, #253 ) ) ;
#308 =( LENGTH_UNIT ( ) NAMED_UNIT ( * ) SI_UNIT ( $, .METRE. ) );
#309 = FACE_OUTER_BOUND ( 'NONE', #163, .T. ) ;
#310 = ORIENTED_EDGE ( 'NONE', *, *, #183, .T. ) ;
#311 = CARTESIAN_POINT ( 'NONE',  ( -0.1181100000000000066, 0.000000000000000000, 2.229093999999999465 ) ) ;
#312 = AXIS2_PLACEMENT_3D ( 'NONE', #45, #316, #19 ) ;
#313 = PRODUCT_RELATED_PRODUCT_CATEGORY ( 'part', '', ( #266 ) ) ;
#314 = CARTESIAN_POINT ( 'NONE',  ( 0.1181100000000000899, 1.446430334472940009E-17, 0.6593405870277332381 ) ) ;
#315 = ORIENTED_EDGE ( 'NONE', *, *, #74, .T. ) ;
#316 = DIRECTION ( 'NONE',  ( -1.224646799147353207E-16, -0.000000000000000000, -1.000000000000000000 ) ) ;
#317 = CARTESIAN_POINT ( 'NONE',  ( 0.003933062999999986653, 0.000000000000000000, 0.01181100000000002287 ) ) ;
#318 = DIRECTION ( 'NONE',  ( 1.000000000000000000, 0.000000000000000000, 0.000000000000000000 ) ) ;
#319 = CARTESIAN_POINT ( 'NONE',  ( 0.1031100000000002570, 1.262733314600838667E-17, 2.244094000000000033 ) ) ;
#320 = DIRECTION ( 'NONE',  ( -1.224646799147353207E-16, -0.000000000000000000, -1.000000000000000000 ) ) ;
#321 = AXIS2_PLACEMENT_3D ( 'NONE', #17, #225, #49 ) ;
#322 = EDGE_LOOP ( 'NONE', ( #261, #284, #81 ) ) ;
#323 = EDGE_LOOP ( 'NONE', ( #26, #303, #218, #120 ) ) ;
#324 = VECTOR ( 'NONE', #219, 39.37007874015748854 ) ;
#325 = DIMENSIONAL_EXPONENTS ( 1.000000000000000000, 0.000000000000000000, 0.000000000000000000, 0.000000000000000000, 0.000000000000000000, 0.000000000000000000, 0.000000000000000000 ) ;
ENDSEC;
END-ISO-10303-21;
