ISO-10303-21;
HEADER;
FILE_DESCRIPTION (( 'STEP AP214' ),
    '1' );
FILE_NAME ('Micro_SEM-203-03X.STEP',
    '2021-09-02T02:15:47',
    ( '' ),
    ( '' ),
    'SwSTEP 2.0',
    'SolidWorks 2020',
    '' );
FILE_SCHEMA (( 'AUTOMOTIVE_DESIGN' ));
ENDSEC;

DATA;
#1 = DIRECTION ( 'NONE',  ( -1.000000000000000000, 0.0000000000000000000, 0.0000000000000000000 ) ) ;
#2 = EDGE_CURVE ( 'NONE', #41, #285, #21, .T. ) ;
#3 = DIRECTION ( 'NONE',  ( 1.224646799147353207E-16, 0.0000000000000000000, 1.000000000000000000 ) ) ;
#4 = CYLINDRICAL_SURFACE ( 'NONE', #265, 0.1014484499999999956 ) ;
#5 = DIRECTION ( 'NONE',  ( -1.224646799147353207E-16, -0.0000000000000000000, -1.000000000000000000 ) ) ;
#6 = CIRCLE ( 'NONE', #184, 0.1014484499999999956 ) ;
#7 = DIRECTION ( 'NONE',  ( -1.224646799147353207E-16, -0.0000000000000000000, -1.000000000000000000 ) ) ;
#8 = ORIENTED_EDGE ( 'NONE', *, *, #138, .F. ) ;
#9 = FACE_OUTER_BOUND ( 'NONE', #157, .T. ) ;
#10 = ORIENTED_EDGE ( 'NONE', *, *, #189, .T. ) ;
#11 =( NAMED_UNIT ( * ) PLANE_ANGLE_UNIT ( ) SI_UNIT ( $, .RADIAN. ) );
#12 = EDGE_LOOP ( 'NONE', ( #36, #164, #34, #202 ) ) ;
#13 = VECTOR ( 'NONE', #152, 39.37007874015748143 ) ;
#14 = DIRECTION ( 'NONE',  ( -1.224646799147353207E-16, -0.0000000000000000000, -1.000000000000000000 ) ) ;
#15 = VERTEX_POINT ( 'NONE', #245 ) ;
#16 = AXIS2_PLACEMENT_3D ( 'NONE', #173, #175, #106 ) ;
#17 = ORIENTED_EDGE ( 'NONE', *, *, #52, .T. ) ;
#18 = DIMENSIONAL_EXPONENTS ( 1.000000000000000000, 0.0000000000000000000, 0.0000000000000000000, 0.0000000000000000000, 0.0000000000000000000, 0.0000000000000000000, 0.0000000000000000000 ) ;
#19 = DIRECTION ( 'NONE',  ( -1.000000000000000000, 0.0000000000000000000, 0.0000000000000000000 ) ) ;
#20 = DIMENSIONAL_EXPONENTS ( 1.000000000000000000, 0.0000000000000000000, 0.0000000000000000000, 0.0000000000000000000, 0.0000000000000000000, 0.0000000000000000000, 0.0000000000000000000 ) ;
#21 = CIRCLE ( 'NONE', #178, 0.1014484499999999956 ) ;
#22 = DIRECTION ( 'NONE',  ( 0.0000000000000000000, 0.0000000000000000000, 1.000000000000000000 ) ) ;
#23 = CARTESIAN_POINT ( 'NONE',  ( 0.0000000000000000000, 0.0000000000000000000, 2.000000000000000000 ) ) ;
#24 = CYLINDRICAL_SURFACE ( 'NONE', #232, 0.1250000000000000000 ) ;
#25 = CARTESIAN_POINT ( 'NONE',  ( 0.0000000000000000000, 0.0000000000000000000, 2.000000000000000000 ) ) ;
#26 = CLOSED_SHELL ( 'NONE', ( #101, #181, #88, #223, #80, #107, #72, #247, #82, #42 ) ) ;
#27 = DIRECTION ( 'NONE',  ( 1.000000000000000000, 0.0000000000000000000, 0.0000000000000000000 ) ) ;
#28 = FILL_AREA_STYLE_COLOUR ( '', #201 ) ;
#29 = ORIENTED_EDGE ( 'NONE', *, *, #31, .T. ) ;
#30 = SURFACE_STYLE_FILL_AREA ( #277 ) ;
#31 = EDGE_CURVE ( 'NONE', #15, #274, #141, .T. ) ;
#32 = DIRECTION ( 'NONE',  ( 1.224646799147353207E-16, 0.0000000000000000000, 1.000000000000000000 ) ) ;
#33 = CARTESIAN_POINT ( 'NONE',  ( -0.1250000000000000000, 0.0000000000000000000, 2.000000000000000000 ) ) ;
#34 = ORIENTED_EDGE ( 'NONE', *, *, #259, .F. ) ;
#35 = DIRECTION ( 'NONE',  ( -0.1736481776669311083, 2.126576849575782084E-17, 0.9848077530122080203 ) ) ;
#36 = ORIENTED_EDGE ( 'NONE', *, *, #189, .F. ) ;
#37 = CONICAL_SURFACE ( 'NONE', #146, 0.1014484499999999956, 0.1745329251994338082 ) ;
#38 =( LENGTH_UNIT ( ) NAMED_UNIT ( * ) SI_UNIT ( $, .METRE. ) );
#39 = VECTOR ( 'NONE', #40, 39.37007874015748143 ) ;
#40 = DIRECTION ( 'NONE',  ( -0.0000000000000000000, -0.0000000000000000000, -1.000000000000000000 ) ) ;
#41 = VERTEX_POINT ( 'NONE', #275 ) ;
#42 = ADVANCED_FACE ( 'NONE', ( #75 ), #162, .F. ) ;
#43 = ORIENTED_EDGE ( 'NONE', *, *, #268, .F. ) ;
#44 = ORIENTED_EDGE ( 'NONE', *, *, #292, .F. ) ;
#45 = DIMENSIONAL_EXPONENTS ( 1.000000000000000000, 0.0000000000000000000, 0.0000000000000000000, 0.0000000000000000000, 0.0000000000000000000, 0.0000000000000000000, 0.0000000000000000000 ) ;
#46 = DIRECTION ( 'NONE',  ( -1.000000000000000000, 0.0000000000000000000, 0.0000000000000000000 ) ) ;
#47 = UNCERTAINTY_MEASURE_WITH_UNIT (LENGTH_MEASURE( 1.000000000000000082E-05 ), #270, 'distance_accuracy_value', 'NONE');
#48 = EDGE_CURVE ( 'NONE', #93, #218, #100, .T. ) ;
#49 = DIRECTION ( 'NONE',  ( 0.1736481776669313026, 0.0000000000000000000, 0.9848077530122077983 ) ) ;
#50 = CARTESIAN_POINT ( 'NONE',  ( -0.1249999999999999306, 0.0000000000000000000, 0.5085674773388167980 ) ) ;
#51 = AXIS2_PLACEMENT_3D ( 'NONE', #23, #123, #46 ) ;
#52 = EDGE_CURVE ( 'NONE', #15, #240, #297, .T. ) ;
#53 = CARTESIAN_POINT ( 'NONE',  ( 0.1250000000000000555, 1.530808498934192125E-17, 0.5085674773388167980 ) ) ;
#54 = CARTESIAN_POINT ( 'NONE',  ( 0.0000000000000000000, 0.0000000000000000000, 2.000000000000000000 ) ) ;
#55 = CARTESIAN_POINT ( 'NONE',  ( 0.1014484500000000511, 0.0000000000000000000, 0.3750000000000000555 ) ) ;
#56 =( GEOMETRIC_REPRESENTATION_CONTEXT ( 3 ) GLOBAL_UNCERTAINTY_ASSIGNED_CONTEXT ( ( #210 ) ) GLOBAL_UNIT_ASSIGNED_CONTEXT ( ( #241, #11, #160 ) ) REPRESENTATION_CONTEXT ( 'NONE', 'WORKASPACE' ) );
#57 = LENGTH_MEASURE_WITH_UNIT ( LENGTH_MEASURE( 0.02539999999999999897 ), #284 );
#58 = ORIENTED_EDGE ( 'NONE', *, *, #295, .T. ) ;
#59 = CARTESIAN_POINT ( 'NONE',  ( 4.592425496802575451E-17, 0.0000000000000000000, 0.3750000000000000555 ) ) ;
#60 = AXIS2_PLACEMENT_3D ( 'NONE', #280, #213, #78 ) ;
#61 = DIRECTION ( 'NONE',  ( -0.0000000000000000000, -0.0000000000000000000, -1.000000000000000000 ) ) ;
#62 = COLOUR_RGB ( '',0.7921568627450980005, 0.8196078431372548767, 0.9333333333333333481 ) ;
#63 = CARTESIAN_POINT ( 'NONE',  ( -0.1014484499999999539, 1.242385195709603026E-17, 0.3750000000000000555 ) ) ;
#64 = DIRECTION ( 'NONE',  ( -1.224646799147353207E-16, -0.0000000000000000000, -1.000000000000000000 ) ) ;
#65 = AXIS2_PLACEMENT_3D ( 'NONE', #170, #3, #126 ) ;
#66 = PRODUCT ( 'Micro_SEM-203-03X', 'Micro_SEM-203-03X', '', ( #122 ) ) ;
#67 = DIRECTION ( 'NONE',  ( -1.000000000000000000, 0.0000000000000000000, 1.224646799147353207E-16 ) ) ;
#68 = PRODUCT_DEFINITION ( 'UNKNOWN', '', #197, #171 ) ;
#69 = EDGE_LOOP ( 'NONE', ( #207, #8, #264, #71 ) ) ;
#70 = PRODUCT_DEFINITION_SHAPE ( 'NONE', 'NONE',  #68 ) ;
#71 = ORIENTED_EDGE ( 'NONE', *, *, #140, .T. ) ;
#72 = ADVANCED_FACE ( 'NONE', ( #228 ), #291, .T. ) ;
#73 =( NAMED_UNIT ( * ) SI_UNIT ( $, .STERADIAN. ) SOLID_ANGLE_UNIT ( ) );
#74 = AXIS2_PLACEMENT_3D ( 'NONE', #220, #203, #180 ) ;
#75 = FACE_OUTER_BOUND ( 'NONE', #188, .T. ) ;
#76 = LENGTH_MEASURE_WITH_UNIT ( LENGTH_MEASURE( 0.02539999999999999897 ), #132 );
#77 = DIRECTION ( 'NONE',  ( -1.224646799147353207E-16, -0.0000000000000000000, -1.000000000000000000 ) ) ;
#78 = DIRECTION ( 'NONE',  ( 1.000000000000000000, 0.0000000000000000000, -0.0000000000000000000 ) ) ;
#79 = AXIS2_PLACEMENT_3D ( 'NONE', #147, #145, #211 ) ;
#80 = ADVANCED_FACE ( 'NONE', ( #148 ), #24, .T. ) ;
#81 = CARTESIAN_POINT ( 'NONE',  ( -0.1014484499999999956, 0.0000000000000000000, 1.242385195709603026E-17 ) ) ;
#82 = ADVANCED_FACE ( 'NONE', ( #142 ), #117, .T. ) ;
#83 = CARTESIAN_POINT ( 'NONE',  ( -0.1014484499999999539, 1.386596847321897422E-17, 0.3750000000000000555 ) ) ;
#84 = APPLICATION_CONTEXT ( 'automotive_design' ) ;
#85 = AXIS2_PLACEMENT_3D ( 'NONE', #225, #22, #120 ) ;
#86 = AXIS2_PLACEMENT_3D ( 'NONE', #287, #217, #182 ) ;
#87 = ORIENTED_EDGE ( 'NONE', *, *, #295, .F. ) ;
#88 = ADVANCED_FACE ( 'NONE', ( #163 ), #256, .T. ) ;
#89 = SURFACE_STYLE_USAGE ( .BOTH. , #205 ) ;
#90 = MECHANICAL_DESIGN_GEOMETRIC_PRESENTATION_REPRESENTATION (  '', ( #159 ), #119 ) ;
#91 = PRESENTATION_STYLE_ASSIGNMENT (( #89 ) ) ;
#92 = CARTESIAN_POINT ( 'NONE',  ( 0.0000000000000000000, 0.0000000000000000000, 0.0000000000000000000 ) ) ;
#93 = VERTEX_POINT ( 'NONE', #195 ) ;
#94 = DIRECTION ( 'NONE',  ( -0.7071067811865434649, 0.0000000000000000000, -0.7071067811865515695 ) ) ;
#95 = VECTOR ( 'NONE', #49, 39.37007874015748143 ) ;
#96 =( NAMED_UNIT ( * ) PLANE_ANGLE_UNIT ( ) SI_UNIT ( $, .RADIAN. ) );
#97 = ORIENTED_EDGE ( 'NONE', *, *, #31, .F. ) ;
#98 = VECTOR ( 'NONE', #61, 39.37007874015748143 ) ;
#99 = APPLICATION_PROTOCOL_DEFINITION ( 'draft international standard', 'automotive_design', 1998, #84 ) ;
#100 = LINE ( 'NONE', #103, #39 ) ;
#101 = ADVANCED_FACE ( 'NONE', ( #127 ), #4, .T. ) ;
#102 = ORIENTED_EDGE ( 'NONE', *, *, #199, .T. ) ;
#103 = CARTESIAN_POINT ( 'NONE',  ( 0.1250000000000000000, 1.530808498934191509E-17, 2.000000000000000000 ) ) ;
#104 = MECHANICAL_DESIGN_GEOMETRIC_PRESENTATION_REPRESENTATION (  '', ( #121 ), #267 ) ;
#105 = DIRECTION ( 'NONE',  ( -0.0000000000000000000, -0.0000000000000000000, -1.000000000000000000 ) ) ;
#106 = DIRECTION ( 'NONE',  ( 1.000000000000000000, 0.0000000000000000000, 0.0000000000000000000 ) ) ;
#107 = ADVANCED_FACE ( 'NONE', ( #9 ), #172, .T. ) ;
#108 = CARTESIAN_POINT ( 'NONE',  ( 0.1014484500000000511, 0.0000000000000000000, 0.3750000000000000555 ) ) ;
#109 = VECTOR ( 'NONE', #94, 39.37007874015748143 ) ;
#110 = CARTESIAN_POINT ( 'NONE',  ( -0.1250000000000000000, 0.0000000000000000000, 1.984999999999999432 ) ) ;
#111 = DIRECTION ( 'NONE',  ( -1.000000000000000000, 0.0000000000000000000, 0.0000000000000000000 ) ) ;
#112 =( NAMED_UNIT ( * ) SI_UNIT ( $, .STERADIAN. ) SOLID_ANGLE_UNIT ( ) );
#113 = VERTEX_POINT ( 'NONE', #50 ) ;
#114 =( NAMED_UNIT ( * ) PLANE_ANGLE_UNIT ( ) SI_UNIT ( $, .RADIAN. ) );
#115 = DIRECTION ( 'NONE',  ( 0.0000000000000000000, 0.0000000000000000000, -1.000000000000000000 ) ) ;
#116 = AXIS2_PLACEMENT_3D ( 'NONE', #248, #224, #19 ) ;
#117 = CYLINDRICAL_SURFACE ( 'NONE', #296, 0.1014484499999999956 ) ;
#118 = ORIENTED_EDGE ( 'NONE', *, *, #255, .T. ) ;
#119 =( GEOMETRIC_REPRESENTATION_CONTEXT ( 3 ) GLOBAL_UNCERTAINTY_ASSIGNED_CONTEXT ( ( #168 ) ) GLOBAL_UNIT_ASSIGNED_CONTEXT ( ( #169, #114, #112 ) ) REPRESENTATION_CONTEXT ( 'NONE', 'WORKASPACE' ) );
#120 = DIRECTION ( 'NONE',  ( 1.000000000000000000, 0.0000000000000000000, -0.0000000000000000000 ) ) ;
#121 = STYLED_ITEM ( 'NONE', ( #91 ), #227 ) ;
#122 = PRODUCT_CONTEXT ( 'NONE', #133, 'mechanical' ) ;
#123 = DIRECTION ( 'NONE',  ( 0.0000000000000000000, 0.0000000000000000000, -1.000000000000000000 ) ) ;
#124 = DIRECTION ( 'NONE',  ( -0.0000000000000000000, -0.0000000000000000000, -1.000000000000000000 ) ) ;
#125 = CYLINDRICAL_SURFACE ( 'NONE', #130, 0.1250000000000000000 ) ;
#126 = DIRECTION ( 'NONE',  ( 1.000000000000000000, 0.0000000000000000000, 0.0000000000000000000 ) ) ;
#127 = FACE_OUTER_BOUND ( 'NONE', #250, .T. ) ;
#128 = EDGE_LOOP ( 'NONE', ( #134, #253, #144, #192 ) ) ;
#129 = SURFACE_SIDE_STYLE ('',( #30 ) ) ;
#130 = AXIS2_PLACEMENT_3D ( 'NONE', #54, #105, #111 ) ;
#131 = ORIENTED_EDGE ( 'NONE', *, *, #138, .T. ) ;
#132 =( LENGTH_UNIT ( ) NAMED_UNIT ( * ) SI_UNIT ( $, .METRE. ) );
#133 = APPLICATION_CONTEXT ( 'automotive_design' ) ;
#134 = ORIENTED_EDGE ( 'NONE', *, *, #48, .F. ) ;
#135 = DIRECTION ( 'NONE',  ( -1.000000000000000000, 0.0000000000000000000, 0.0000000000000000000 ) ) ;
#136 = EDGE_LOOP ( 'NONE', ( #269, #131, #206, #216 ) ) ;
#137 = SURFACE_STYLE_FILL_AREA ( #290 ) ;
#138 = EDGE_CURVE ( 'NONE', #165, #174, #191, .T. ) ;
#139 = APPLICATION_PROTOCOL_DEFINITION ( 'draft international standard', 'automotive_design', 1998, #133 ) ;
#140 = EDGE_CURVE ( 'NONE', #218, #113, #226, .T. ) ;
#141 = CIRCLE ( 'NONE', #79, 0.1099999999999996397 ) ;
#142 = FACE_OUTER_BOUND ( 'NONE', #136, .T. ) ;
#143 = DIRECTION ( 'NONE',  ( 1.000000000000000000, 0.0000000000000000000, 0.0000000000000000000 ) ) ;
#144 = ORIENTED_EDGE ( 'NONE', *, *, #289, .T. ) ;
#145 = DIRECTION ( 'NONE',  ( 0.0000000000000000000, 0.0000000000000000000, 1.000000000000000000 ) ) ;
#146 = AXIS2_PLACEMENT_3D ( 'NONE', #150, #32, #238 ) ;
#147 = CARTESIAN_POINT ( 'NONE',  ( 0.0000000000000000000, 0.0000000000000000000, 2.000000000000000000 ) ) ;
#148 = FACE_OUTER_BOUND ( 'NONE', #128, .T. ) ;
#149 = PRODUCT_RELATED_PRODUCT_CATEGORY ( 'part', '', ( #66 ) ) ;
#150 = CARTESIAN_POINT ( 'NONE',  ( 4.592425496802575451E-17, 0.0000000000000000000, 0.3750000000000000555 ) ) ;
#151 = AXIS2_PLACEMENT_3D ( 'NONE', #59, #14, #135 ) ;
#152 = DIRECTION ( 'NONE',  ( -1.224646799147353207E-16, -0.0000000000000000000, -1.000000000000000000 ) ) ;
#153 = EDGE_LOOP ( 'NONE', ( #43, #97, #17, #235 ) ) ;
#154 = DIRECTION ( 'NONE',  ( -1.000000000000000000, 0.0000000000000000000, 1.224646799147353207E-16 ) ) ;
#155 = SURFACE_STYLE_USAGE ( .BOTH. , #129 ) ;
#156 = PRESENTATION_LAYER_ASSIGNMENT (  '', '', ( #121 ) ) ;
#157 = EDGE_LOOP ( 'NONE', ( #29, #10 ) ) ;
#158 = ORIENTED_EDGE ( 'NONE', *, *, #292, .T. ) ;
#159 = STYLED_ITEM ( 'NONE', ( #198 ), #251 ) ;
#160 =( NAMED_UNIT ( * ) SI_UNIT ( $, .STERADIAN. ) SOLID_ANGLE_UNIT ( ) );
#161 = CARTESIAN_POINT ( 'NONE',  ( 0.1099999999999996397, 1.438959988998137757E-17, 2.000000000000000000 ) ) ;
#162 = PLANE ( 'NONE',  #85 ) ;
#163 = FACE_OUTER_BOUND ( 'NONE', #12, .T. ) ;
#164 = ORIENTED_EDGE ( 'NONE', *, *, #268, .T. ) ;
#165 = VERTEX_POINT ( 'NONE', #108 ) ;
#166 = CIRCLE ( 'NONE', #74, 0.1250000000000000000 ) ;
#167 = CARTESIAN_POINT ( 'NONE',  ( -0.1099999999999996397, 0.0000000000000000000, 2.000000000000000000 ) ) ;
#168 = UNCERTAINTY_MEASURE_WITH_UNIT (LENGTH_MEASURE( 1.000000000000000082E-05 ), #169, 'distance_accuracy_value', 'NONE');
#169 =( CONVERSION_BASED_UNIT ( 'INCH', #76 ) LENGTH_UNIT ( ) NAMED_UNIT ( #20 ) );
#170 = CARTESIAN_POINT ( 'NONE',  ( 4.592425496802575451E-17, 0.0000000000000000000, 0.3750000000000000555 ) ) ;
#171 = PRODUCT_DEFINITION_CONTEXT ( 'detailed design', #84, 'design' ) ;
#172 = PLANE ( 'NONE',  #60 ) ;
#173 = CARTESIAN_POINT ( 'NONE',  ( 6.228155332734261484E-17, 0.0000000000000000000, 0.5085674773388167980 ) ) ;
#174 = VERTEX_POINT ( 'NONE', #83 ) ;
#175 = DIRECTION ( 'NONE',  ( -1.224646799147353207E-16, -0.0000000000000000000, -1.000000000000000000 ) ) ;
#176 = ORIENTED_EDGE ( 'NONE', *, *, #48, .T. ) ;
#177 = LENGTH_MEASURE_WITH_UNIT ( LENGTH_MEASURE( 0.02539999999999999897 ), #38 );
#178 = AXIS2_PLACEMENT_3D ( 'NONE', #208, #64, #299 ) ;
#179 = AXIS2_PLACEMENT_3D ( 'NONE', #92, #298, #143 ) ;
#180 = DIRECTION ( 'NONE',  ( 1.000000000000000000, 0.0000000000000000000, 0.0000000000000000000 ) ) ;
#181 = ADVANCED_FACE ( 'NONE', ( #194 ), #37, .T. ) ;
#182 = DIRECTION ( 'NONE',  ( 1.000000000000000000, 0.0000000000000000000, 0.0000000000000000000 ) ) ;
#183 = CARTESIAN_POINT ( 'NONE',  ( -0.1014484499999999956, 0.0000000000000000000, 2.484770391419206052E-17 ) ) ;
#184 = AXIS2_PLACEMENT_3D ( 'NONE', #215, #212, #154 ) ;
#185 = CARTESIAN_POINT ( 'NONE',  ( 0.0000000000000000000, 0.0000000000000000000, 0.0000000000000000000 ) ) ;
#186 = PRESENTATION_LAYER_ASSIGNMENT (  '', '', ( #159 ) ) ;
#187 = ORIENTED_EDGE ( 'NONE', *, *, #219, .F. ) ;
#188 = EDGE_LOOP ( 'NONE', ( #190, #229 ) ) ;
#189 = EDGE_CURVE ( 'NONE', #274, #15, #286, .T. ) ;
#190 = ORIENTED_EDGE ( 'NONE', *, *, #243, .T. ) ;
#191 = CIRCLE ( 'NONE', #246, 0.1014484499999999956 ) ;
#192 = ORIENTED_EDGE ( 'NONE', *, *, #140, .F. ) ;
#193 = CIRCLE ( 'NONE', #272, 0.1250000000000000000 ) ;
#194 = FACE_OUTER_BOUND ( 'NONE', #273, .T. ) ;
#195 = CARTESIAN_POINT ( 'NONE',  ( 0.1250000000000000000, 1.530808498934191509E-17, 1.984999999999999432 ) ) ;
#196 = DIRECTION ( 'NONE',  ( -1.000000000000000000, 0.0000000000000000000, 1.224646799147353207E-16 ) ) ;
#197 = PRODUCT_DEFINITION_FORMATION_WITH_SPECIFIED_SOURCE ( 'ANY', '', #66, .NOT_KNOWN. ) ;
#198 = PRESENTATION_STYLE_ASSIGNMENT (( #155 ) ) ;
#199 = EDGE_CURVE ( 'NONE', #165, #41, #283, .T. ) ;
#200 = CARTESIAN_POINT ( 'NONE',  ( 0.0000000000000000000, 0.0000000000000000000, 1.984999999999999432 ) ) ;
#201 = COLOUR_RGB ( '',0.7921568627450980005, 0.8196078431372548767, 0.9333333333333333481 ) ;
#202 = ORIENTED_EDGE ( 'NONE', *, *, #52, .F. ) ;
#203 = DIRECTION ( 'NONE',  ( 0.0000000000000000000, 0.0000000000000000000, -1.000000000000000000 ) ) ;
#204 = FILL_AREA_STYLE_COLOUR ( '', #62 ) ;
#205 = SURFACE_SIDE_STYLE ('',( #137 ) ) ;
#206 = ORIENTED_EDGE ( 'NONE', *, *, #231, .T. ) ;
#207 = ORIENTED_EDGE ( 'NONE', *, *, #255, .F. ) ;
#208 = CARTESIAN_POINT ( 'NONE',  ( 1.521483053233823417E-33, 0.0000000000000000000, 1.242385195709603026E-17 ) ) ;
#209 = ORIENTED_EDGE ( 'NONE', *, *, #231, .F. ) ;
#210 = UNCERTAINTY_MEASURE_WITH_UNIT (LENGTH_MEASURE( 1.000000000000000082E-05 ), #241, 'distance_accuracy_value', 'NONE');
#211 = DIRECTION ( 'NONE',  ( 1.000000000000000000, 0.0000000000000000000, 0.0000000000000000000 ) ) ;
#212 = DIRECTION ( 'NONE',  ( -1.224646799147353207E-16, -0.0000000000000000000, -1.000000000000000000 ) ) ;
#213 = DIRECTION ( 'NONE',  ( 0.0000000000000000000, 0.0000000000000000000, 1.000000000000000000 ) ) ;
#214 = DIRECTION ( 'NONE',  ( -1.000000000000000000, 0.0000000000000000000, 0.0000000000000000000 ) ) ;
#215 = CARTESIAN_POINT ( 'NONE',  ( 1.521483053233823417E-33, 0.0000000000000000000, 1.242385195709603026E-17 ) ) ;
#216 = ORIENTED_EDGE ( 'NONE', *, *, #2, .F. ) ;
#217 = DIRECTION ( 'NONE',  ( -1.224646799147353207E-16, -0.0000000000000000000, -1.000000000000000000 ) ) ;
#218 = VERTEX_POINT ( 'NONE', #53 ) ;
#219 = EDGE_CURVE ( 'NONE', #165, #218, #233, .T. ) ;
#220 = CARTESIAN_POINT ( 'NONE',  ( 0.0000000000000000000, 0.0000000000000000000, 1.984999999999999432 ) ) ;
#221 = CIRCLE ( 'NONE', #151, 0.1014484499999999956 ) ;
#222 = CARTESIAN_POINT ( 'NONE',  ( 0.0000000000000000000, 0.0000000000000000000, 2.000000000000000000 ) ) ;
#223 = ADVANCED_FACE ( 'NONE', ( #282 ), #125, .T. ) ;
#224 = DIRECTION ( 'NONE',  ( 0.0000000000000000000, 0.0000000000000000000, -1.000000000000000000 ) ) ;
#225 = CARTESIAN_POINT ( 'NONE',  ( 0.0000000000000000000, 0.0000000000000000000, 0.0000000000000000000 ) ) ;
#226 = CIRCLE ( 'NONE', #16, 0.1250000000000000000 ) ;
#227 = ADVANCED_BREP_SHAPE_REPRESENTATION ( 'Micro_SEM-203-03X', ( #251, #179 ), #56 ) ;
#228 = FACE_OUTER_BOUND ( 'NONE', #153, .T. ) ;
#229 = ORIENTED_EDGE ( 'NONE', *, *, #2, .T. ) ;
#230 = DIRECTION ( 'NONE',  ( 0.0000000000000000000, 0.0000000000000000000, 1.000000000000000000 ) ) ;
#231 = EDGE_CURVE ( 'NONE', #174, #285, #254, .T. ) ;
#232 = AXIS2_PLACEMENT_3D ( 'NONE', #222, #124, #1 ) ;
#233 = LINE ( 'NONE', #55, #95 ) ;
#234 = LINE ( 'NONE', #63, #281 ) ;
#235 = ORIENTED_EDGE ( 'NONE', *, *, #279, .F. ) ;
#236 = FACE_OUTER_BOUND ( 'NONE', #69, .T. ) ;
#237 = VECTOR ( 'NONE', #77, 39.37007874015748143 ) ;
#238 = DIRECTION ( 'NONE',  ( 1.000000000000000000, 0.0000000000000000000, 0.0000000000000000000 ) ) ;
#239 = LINE ( 'NONE', #263, #276 ) ;
#240 = VERTEX_POINT ( 'NONE', #110 ) ;
#241 =( CONVERSION_BASED_UNIT ( 'INCH', #57 ) LENGTH_UNIT ( ) NAMED_UNIT ( #18 ) );
#242 = CONICAL_SURFACE ( 'NONE', #65, 0.1014484499999999956, 0.1745329251994338082 ) ;
#243 = EDGE_CURVE ( 'NONE', #285, #41, #6, .T. ) ;
#244 = LINE ( 'NONE', #33, #98 ) ;
#245 = CARTESIAN_POINT ( 'NONE',  ( -0.1099999999999996397, 0.0000000000000000000, 2.000000000000000000 ) ) ;
#246 = AXIS2_PLACEMENT_3D ( 'NONE', #257, #7, #214 ) ;
#247 = ADVANCED_FACE ( 'NONE', ( #236 ), #242, .T. ) ;
#248 = CARTESIAN_POINT ( 'NONE',  ( 0.0000000000000000000, 0.0000000000000000000, 2.000000000000000000 ) ) ;
#249 = EDGE_LOOP ( 'NONE', ( #294, #176, #87, #293 ) ) ;
#250 = EDGE_LOOP ( 'NONE', ( #158, #102, #288, #209 ) ) ;
#251 = MANIFOLD_SOLID_BREP ( 'Cut-Revolve1', #26 ) ;
#252 = SHAPE_DEFINITION_REPRESENTATION ( #70, #227 ) ;
#253 = ORIENTED_EDGE ( 'NONE', *, *, #279, .T. ) ;
#254 = LINE ( 'NONE', #81, #13 ) ;
#255 = EDGE_CURVE ( 'NONE', #174, #113, #234, .T. ) ;
#256 = CONICAL_SURFACE ( 'NONE', #116, 0.1099999999999996397, 0.7853981633974426169 ) ;
#257 = CARTESIAN_POINT ( 'NONE',  ( 4.592425496802575451E-17, 0.0000000000000000000, 0.3750000000000000555 ) ) ;
#258 = CARTESIAN_POINT ( 'NONE',  ( 0.0000000000000000000, 0.0000000000000000000, 0.0000000000000000000 ) ) ;
#259 = EDGE_CURVE ( 'NONE', #240, #93, #166, .T. ) ;
#260 = AXIS2_PLACEMENT_3D ( 'NONE', #25, #230, #27 ) ;
#261 = DIRECTION ( 'NONE',  ( 0.7071067811865434649, 8.659560562354883554E-17, -0.7071067811865515695 ) ) ;
#262 = CIRCLE ( 'NONE', #86, 0.1250000000000000000 ) ;
#263 = CARTESIAN_POINT ( 'NONE',  ( 0.1099999999999996397, 1.347111479062084158E-17, 2.000000000000000000 ) ) ;
#264 = ORIENTED_EDGE ( 'NONE', *, *, #219, .T. ) ;
#265 = AXIS2_PLACEMENT_3D ( 'NONE', #258, #5, #196 ) ;
#266 = DIRECTION ( 'NONE',  ( 1.000000000000000000, 0.0000000000000000000, 0.0000000000000000000 ) ) ;
#267 =( GEOMETRIC_REPRESENTATION_CONTEXT ( 3 ) GLOBAL_UNCERTAINTY_ASSIGNED_CONTEXT ( ( #47 ) ) GLOBAL_UNIT_ASSIGNED_CONTEXT ( ( #270, #96, #73 ) ) REPRESENTATION_CONTEXT ( 'NONE', 'WORKASPACE' ) );
#268 = EDGE_CURVE ( 'NONE', #274, #93, #239, .T. ) ;
#269 = ORIENTED_EDGE ( 'NONE', *, *, #199, .F. ) ;
#270 =( CONVERSION_BASED_UNIT ( 'INCH', #177 ) LENGTH_UNIT ( ) NAMED_UNIT ( #45 ) );
#271 = DIRECTION ( 'NONE',  ( -1.224646799147353207E-16, -0.0000000000000000000, -1.000000000000000000 ) ) ;
#272 = AXIS2_PLACEMENT_3D ( 'NONE', #200, #115, #266 ) ;
#273 = EDGE_LOOP ( 'NONE', ( #44, #118, #58, #187 ) ) ;
#274 = VERTEX_POINT ( 'NONE', #161 ) ;
#275 = CARTESIAN_POINT ( 'NONE',  ( 0.1014484499999999956, 1.242385195709603026E-17, 0.0000000000000000000 ) ) ;
#276 = VECTOR ( 'NONE', #261, 39.37007874015748143 ) ;
#277 = FILL_AREA_STYLE ('',( #28 ) ) ;
#278 = CARTESIAN_POINT ( 'NONE',  ( 0.1014484499999999956, 1.242385195709603026E-17, -1.242385195709603026E-17 ) ) ;
#279 = EDGE_CURVE ( 'NONE', #93, #240, #193, .T. ) ;
#280 = CARTESIAN_POINT ( 'NONE',  ( 0.0000000000000000000, 0.0000000000000000000, 2.000000000000000000 ) ) ;
#281 = VECTOR ( 'NONE', #35, 39.37007874015747433 ) ;
#282 = FACE_OUTER_BOUND ( 'NONE', #249, .T. ) ;
#283 = LINE ( 'NONE', #278, #237 ) ;
#284 =( LENGTH_UNIT ( ) NAMED_UNIT ( * ) SI_UNIT ( $, .METRE. ) );
#285 = VERTEX_POINT ( 'NONE', #183 ) ;
#286 = CIRCLE ( 'NONE', #260, 0.1099999999999996397 ) ;
#287 = CARTESIAN_POINT ( 'NONE',  ( 6.228155332734261484E-17, 0.0000000000000000000, 0.5085674773388167980 ) ) ;
#288 = ORIENTED_EDGE ( 'NONE', *, *, #243, .F. ) ;
#289 = EDGE_CURVE ( 'NONE', #240, #113, #244, .T. ) ;
#290 = FILL_AREA_STYLE ('',( #204 ) ) ;
#291 = CONICAL_SURFACE ( 'NONE', #51, 0.1099999999999996397, 0.7853981633974426169 ) ;
#292 = EDGE_CURVE ( 'NONE', #174, #165, #221, .T. ) ;
#293 = ORIENTED_EDGE ( 'NONE', *, *, #289, .F. ) ;
#294 = ORIENTED_EDGE ( 'NONE', *, *, #259, .T. ) ;
#295 = EDGE_CURVE ( 'NONE', #113, #218, #262, .T. ) ;
#296 = AXIS2_PLACEMENT_3D ( 'NONE', #185, #271, #67 ) ;
#297 = LINE ( 'NONE', #167, #109 ) ;
#298 = DIRECTION ( 'NONE',  ( 0.0000000000000000000, 0.0000000000000000000, 1.000000000000000000 ) ) ;
#299 = DIRECTION ( 'NONE',  ( -1.000000000000000000, 0.0000000000000000000, 1.224646799147353207E-16 ) ) ;
ENDSEC;
END-ISO-10303-21;
